  0
SECTION
  2
HEADER
  9
$ACADVER
  1
AC1009
  9
$INSBASE
 10
0
 20
0
 30
0
  9
$EXTMIN
 10
0
 20
0
  9
$EXTMAX
 10
420
 20
297
  9
$LIMMIN
 10
0
 20
0
  9
$LIMMAX
 10
420
 20
297
  9
$LTSCALE
 40
1
  0
ENDSEC
  0
SECTION
  2
TABLES
  0
TABLE
  2
LTYPE
 70
     9
  0
LTYPE
  2
CONTINUOUS
 70
    64
  3
実線
 72
    65
 73
     0
 40
0.0
  0
LTYPE
  2
DASHED1
 70
    64
  3
--  --  --  --  --  --  --  --  
 72
    65
 73
     2
 40
2.5
 49
1.25
 49
-1.25
  0
LTYPE
  2
DASHED2
 70
    64
  3
----    ----    ----    ----    
 72
    65
 73
     2
 40
5.0
 49
2.5
 49
-2.5
  0
LTYPE
  2
DASHED3
 70
    64
  3
------  ------  ------  ------  
 72
    65
 73
     2
 40
5.0
 49
3.75
 49
-1.25
  0
LTYPE
  2
CENTER1
 70
    64
  3
----- - ----- - ----- - ----- - 
 72
    65
 73
     4
 40
10.0
 49
6.25
 49
-1.25
 49
1.25
 49
-1.25
  0
LTYPE
  2
CENTER2
 70
    64
  3
----------  --  ----------  --  
 72
    65
 73
     4
 40
20.0
 49
12.5
 49
-2.5
 49
2.5
 49
-2.5
  0
LTYPE
  2
PHANTOM1
 70
    64
  3
--- - - --- - - --- - - --- - - 
 72
    65
 73
     6
 40
10.0
 49
3.25
 49
-1.25
 49
1.25
 49
-1.25
 49
1.25
 49
-1.25
  0
LTYPE
  2
PHANTOM2
 70
    64
  3
--------  -  -  --------  -  -  
 72
    65
 73
     6
 40
20.0
 49
10.0
 49
-2.5
 49
1.25
 49
-2.5
 49
1.25
 49
-2.5
  0
LTYPE
  2
DOT
 70
    64
  3
-   -   -   -   -   -   -   -   
 72
    65
 73
     2
 40
2.5
 49
0.625
 49
-1.875
  0
LTYPE
  2
DUMMY
 70
    64
  3
ダミー
 72
    65
 73
     0
 40
0.0
  0
LTYPE
  2
RAND1
 70
    64
  3
ランダム線1
 72
    65
 73
     4
 40
10.0
 49
1.0
 49
-2.0
 49
3.0
 49
-4.0
  0
LTYPE
  2
RAND2
 70
    64
  3
ランダム線2
 72
    65
 73
     4
 40
14.0
 49
2.0
 49
-3.0
 49
4.0
 49
-5.0
  0
LTYPE
  2
RAND3
 70
    64
  3
ランダム線3
 72
    65
 73
     4
 40
18.0
 49
3.0
 49
-4.0
 49
5.0
 49
-6.0
  0
LTYPE
  2
RAND4
 70
    64
  3
ランダム線4
 72
    65
 73
     4
 40
22.0
 49
4.0
 49
-5.0
 49
6.0
 49
-7.0
  0
LTYPE
  2
RAND5
 70
    64
  3
ランダム線5
 72
    65
 73
     4
 40
26.0
 49
5.0
 49
-6.0
 49
7.0
 49
-8.0
  0
LTYPE
  2
LONG1
 70
    64
  3
----------  --  ----------  --  
 72
    65
 73
     4
 40
40.0
 49
32.5
 49
-2.5
 49
2.5
 49
-2.5
  0
LTYPE
  2
LONG2
 70
    64
  3
--------  -  -  --------  -  -  
 72
    65
 73
     6
 40
40.0
 49
30.0
 49
-2.5
 49
1.25
 49
-2.5
 49
1.25
 49
-2.5
  0
LTYPE
  2
LONG3
 70
    64
  3
+++++++++++++++..+++++++++++++++
 72
    65
 73
     2
 40
40.0
 49
37.5
 49
-2.5
  0
LTYPE
  2
LONG4
 70
    64
  3
+++++++++++++++..+++++++++++++++
 72
    65
 73
     2
 40
80.0
 49
75.0
 49
-5.0
  0
LTYPE
  2
LONG5
 70
    64
  3
----------  --  ----------  --  
 72
    65
 73
     4
 40
60.0
 49
37.5
 49
-7.5
 49
7.5
 49
-7.5
  0
LTYPE
  2
dashed
 70
   64
  3
-------   -------------   ------
 72
   65
 73
    2
 40
7.5
 49
6
 49
-1.5
  0
LTYPE
  2
dashed_spaced
 70
   64
  3
----        --------        ----
 72
   65
 73
    2
 40
12
 49
6
 49
-6
  0
LTYPE
  2
long_dashed_dotted
 70
   64
  3
------------- --- --------------
 72
   65
 73
    4
 40
15.25
 49
12
 49
-1.5
 49
0.25
 49
-1.5
  0
LTYPE
  2
long_dashed_double-dotted
 70
   64
  3
----------- --- --- ------------
 72
   65
 73
    6
 40
17
 49
12
 49
-1.5
 49
0.25
 49
-1.5
 49
0.25
 49
-1.5
  0
LTYPE
  2
long_dashed_triplicate-dotted
 70
   64
  3
--------- --- --- --- ----------
 72
   65
 73
    8
 40
18.75
 49
12
 49
-1.5
 49
0.25
 49
-1.5
 49
0.25
 49
-1.5
 49
0.25
 49
-1.5
  0
LTYPE
  2
dotted
 70
   64
  3
   -       -       -       -    
 72
   65
 73
    2
 40
1.75
 49
0.25
 49
-1.5
  0
LTYPE
  2
chain
 70
   64
  3
-------------- -- --------------
 72
   65
 73
    4
 40
18.5
 49
12
 49
-1.5
 49
3.5
 49
-1.5
  0
LTYPE
  2
chain_double_dash
 70
   64
  3
------------ -- -- -------------
 72
   65
 73
    6
 40
23.5
 49
12
 49
-1.5
 49
3.5
 49
-1.5
 49
3.5
 49
-1.5
  0
LTYPE
  2
dashed_dotted
 70
   64
  3
-----------     -     ----------
 72
   65
 73
    4
 40
9.25
 49
6
 49
-1.5
 49
0.25
 49
-1.5
  0
LTYPE
  2
double-dashed_dotted
 70
   64
  3
------   -----------   -   -----
 72
   65
 73
    6
 40
16.75
 49
6
 49
-1.5
 49
6
 49
-1.5
 49
0.25
 49
-1.5
  0
LTYPE
  2
dashed_double-dotted
 70
   64
  3
---------    -    -    ---------
 72
   65
 73
    6
 40
11
 49
6
 49
-1.5
 49
0.25
 49
-1.5
 49
0.25
 49
-1.5
  0
LTYPE
  2
double-dashed_double-dotted
 70
   64
  3
-----   ---------   -   -   ----
 72
   65
 73
    8
 40
18.5
 49
6
 49
-1.5
 49
6
 49
-1.5
 49
0.25
 49
-1.5
 49
0.25
 49
-1.5
  0
LTYPE
  2
dashed_triplicate-dotted
 70
   64
  3
-------    -    -    -    ------
 72
   65
 73
    8
 40
12.75
 49
6
 49
-1.5
 49
0.25
 49
-1.5
 49
0.25
 49
-1.5
 49
0.25
 49
-1.5
  0
LTYPE
  2
double-dashed_triplicate-dotted
 70
   64
  3
-----  ---------  -  -  -  -----
 72
   65
 73
   10
 40
20.25
 49
6
 49
-1.5
 49
6
 49
-1.5
 49
0.25
 49
-1.5
 49
0.25
 49
-1.5
 49
0.25
 49
-1.5
  0
LTYPE
  2
undefined
 70
   64
  3
--------------------------------
 72
   65
 73
    0
 40
0
  0
LTYPE
  2
BORDER
 70
   64
  3
----     --------     -     ----
 72
   65
 73
    6
 40
1.76
 49
0.5
 49
-0.25
 49
0.5
 49
-0.25
 49
0.01
 49
-0.25
  0
LTYPE
  2
BORDER2
 70
   64
  3
----     --------     -     ----
 72
   65
 73
    6
 40
0.885
 49
0.25
 49
-0.125
 49
0.25
 49
-0.125
 49
0.01
 49
-0.125
  0
LTYPE
  2
BORDERX2
 70
   64
  3
----     --------     -     ----
 72
   65
 73
    6
 40
3.5099999999999998
 49
1
 49
-0.5
 49
1
 49
-0.5
 49
0.01
 49
-0.5
  0
LTYPE
  2
CENTER
 70
   64
  3
----------    ----    ----------
 72
   65
 73
    4
 40
2
 49
1.25
 49
-0.25
 49
0.25
 49
-0.25
  0
LTYPE
  2
CENTER2_21
 70
   64
  3
----------    ----    ----------
 72
   65
 73
    4
 40
1.125
 49
0.75
 49
-0.125
 49
0.125
 49
-0.125
  0
LTYPE
  2
CENTERX2
 70
   64
  3
----------    ----    ----------
 72
   65
 73
    4
 40
4
 49
2.5
 49
-0.5
 49
0.5
 49
-0.5
  0
LTYPE
  2
DASHDOT
 70
   64
  3
--------        -        -------
 72
   65
 73
    4
 40
1.01
 49
0.5
 49
-0.25
 49
0.01
 49
-0.25
  0
LTYPE
  2
DASHDOT2
 70
   64
  3
--------        -        -------
 72
   65
 73
    4
 40
0.51
 49
0.25
 49
-0.125
 49
0.01
 49
-0.125
  0
LTYPE
  2
DASHDOTX2
 70
   64
  3
--------        -        -------
 72
   65
 73
    4
 40
2.0099999999999998
 49
1
 49
-0.5
 49
0.01
 49
-0.5
  0
LTYPE
  2
DASHED
 70
   64
  3
------     -----------     -----
 72
   65
 73
    2
 40
0.75
 49
0.5
 49
-0.25
  0
LTYPE
  2
DASHED2_27
 70
   64
  3
------     -----------     -----
 72
   65
 73
    2
 40
0.375
 49
0.25
 49
-0.125
  0
LTYPE
  2
DASHEDX2
 70
   64
  3
------     -----------     -----
 72
   65
 73
    2
 40
1.5
 49
1
 49
-0.5
  0
LTYPE
  2
DIVIDE
 70
   64
  3
------      -      -      ------
 72
   65
 73
    6
 40
1.27
 49
0.5
 49
-0.25
 49
0.01
 49
-0.25
 49
0.01
 49
-0.25
  0
LTYPE
  2
DIVIDE2
 70
   64
  3
------      -      -      ------
 72
   65
 73
    6
 40
0.645
 49
0.25
 49
-0.125
 49
0.01
 49
-0.125
 49
0.01
 49
-0.125
  0
LTYPE
  2
DIVIDEX2
 70
   64
  3
------      -      -      ------
 72
   65
 73
    6
 40
2.5199999999999996
 49
1
 49
-0.5
 49
0.01
 49
-0.5
 49
0.01
 49
-0.5
  0
LTYPE
  2
DOT_32
 70
   64
  3
-               -               
 72
   65
 73
    2
 40
0.26
 49
0.01
 49
-0.25
  0
ENDTAB
  0
TABLE
  2
STYLE
  5
3
100
AcDbSymbolTable
 70
     1
  0
STYLE
  5
10
100
AcDbSymbolTableRecord
100
AcDbTextStyleTableRecord
  2
STANDARD
 70
     0
 40
0.0
 41
1.0
 50
0.0
 71
     0
 42
0.2
  3
txt
  4
bigfont.shx
  0
STYLE
  5
26
100
AcDbSymbolTableRecord
100
AcDbTextStyleTableRecord
  2
TATEGAKI
 70
    68
 40
0.0
 41
1.0
 50
0.0
 71
     0
 42
1.0
  3
txt
  4
bigfont.shx
  0
ENDTAB
  0
TABLE
  2
LAYER
 70
    2
  0
LAYER
  2
_0-0_0
 70
   64
 62
    7
  6
CONTINUOUS
  0
LAYER
  2
ADD_LINE
 70
   64
 62
    7
  6
CONTINUOUS
  0
ENDTAB
  0
ENDSEC
  0
SECTION
  2
BLOCKS
  0
ENDSEC
  0
SECTION
  2
ENTITIES
  0
ARC
  8
_0-0_0
  6
CONTINUOUS
 62
    7
 10
226.5696507128022
 20
247.03270716909876
 40
39.840375000000002
 50
43.007727000000003
 51
125.03388000000001
  0
ARC
  8
_0-0_0
  6
CONTINUOUS
 62
    7
 10
249.91198471280219
 20
257.71508016909877
 40
20
 50
359.84816100000006
 51
19.968924000000055
  0
ARC
  8
_0-0_0
  6
CONTINUOUS
 62
    7
 10
156.72651771280221
 20
262.24178916909875
 40
113.17524400000001
 50
330.10683999999998
 51
333.76355999999998
  0
ARC
  8
_0-0_0
  6
CONTINUOUS
 62
    7
 10
174.57693971280219
 20
257.91476316909876
 40
95.335314999999994
 50
331.35288500000001
 51
359.84813400000002
  0
ARC
  8
_0-0_0
  6
CONTINUOUS
 62
    7
 10
174.57693971280219
 20
257.91476316909876
 40
89.335314999999994
 50
336.37457699999999
 51
355.970034
  0
LINE
  8
_0-0_0
  6
CONTINUOUS
 62
    7
 10
209.93114971280218
 20
257.29778316909869
 11
211.68224771280219
 21
256.25863516909874
  0
ARC
  8
_0-0_0
  6
CONTINUOUS
 62
    7
 10
222.8856847128022
 20
243.77658016909876
 40
16.772559000000001
 50
76.718966000000009
 51
131.90998200000001
  0
ARC
  8
_0-0_0
  6
CONTINUOUS
 62
    7
 10
225.04660971280219
 20
249.16298116909877
 40
11.067702000000001
 50
291.19298500000002
 51
81.20528000000003
  0
ARC
  8
_0-0_0
  6
CONTINUOUS
 62
    7
 10
224.6176977128022
 20
247.55492416909877
 40
15.591032
 50
60.007508000000001
 51
146.06507099999999
  0
ARC
  8
_0-0_0
  6
CONTINUOUS
 62
    7
 10
224.1372287128022
 20
224.5202071690988
 40
30
 50
321.11208199999999
 51
330.21191599999997
  0
ARC
  8
_0-0_0
  6
CONTINUOUS
 62
    7
 10
141.96503271280221
 20
271.55801316909879
 40
124.682751
 50
330.21188799999993
 51
336.63636399999996
  0
ARC
  8
_0-0_0
  6
CONTINUOUS
 62
    7
 10
228.8358067128022
 20
220.78854916909876
 40
30
 50
321.11208199999999
 51
330.10681300000005
  0
ARC
  8
_0-0_0
  6
CONTINUOUS
 62
    7
 10
216.52158571280219
 20
259.34127716909865
 40
30.021868999999999
 50
122.34520300000001
 51
300.45890100000003
  0
ARC
  8
_0-0_0
  6
CONTINUOUS
 62
    7
 10
225.04660971280219
 20
249.16298116909877
 40
17.067685999999998
 50
293.09041100000002
 51
80.579914999999971
  0
ARC
  8
_0-0_0
  6
CONTINUOUS
 62
    7
 10
224.5299467128022
 20
250.03400116909876
 40
16.306047
 50
78.287423000000018
 51
153.546887
  0
ARC
  8
_0-0_0
  6
CONTINUOUS
 62
    7
 10
216.52158571280219
 20
259.34127716909865
 40
24.021875000000001
 50
122.26217600000001
 51
301.42933499999998
  0
ARC
  8
_0-0_0
  6
CONTINUOUS
 62
    7
 10
233.76553671280217
 20
253.74480516909875
 40
30
 50
355.97000700000001
 51
43.007714000000007
  0
ARC
  8
_0-0_0
  6
CONTINUOUS
 62
    7
 10
226.43821071280217
 20
247.04623316909874
 40
45.750216999999992
 50
22.488078999999995
 51
124.59988999999999
  0
ARC
  8
_0-0_0
  6
CONTINUOUS
 62
    7
 10
254.8134367128022
 20
92.876097169098756
 40
10
 50
23.452549000000001
 51
31.605029999999996
  0
ARC
  8
_0-0_0
  6
CONTINUOUS
 62
    7
 10
196.55037271280219
 20
67.599889169098773
 40
67.509613000000002
 50
4.6117530000000002
 51
19.501086999999998
  0
ARC
  8
_0-0_0
  6
CONTINUOUS
 62
    7
 10
196.55037271280219
 20
67.599889169098773
 40
73.509613000000002
 50
357.36041499999999
 51
23.45259299999999
  0
ARC
  8
_0-0_0
  6
CONTINUOUS
 62
    7
 10
142.2976557128022
 20
66.834313169098763
 40
121.701477
 50
356.58253900000005
 51
2.9171320000000325
  0
LINE
  8
_0-0_0
  6
CONTINUOUS
 62
    7
 10
230.5752477128022
 20
79.480705169098769
 11
231.37822571280219
 21
79.70709116909876
  0
LINE
  8
_0-0_0
  6
CONTINUOUS
 62
    7
 10
231.37822571280219
 20
79.70709116909876
 11
234.66683671280219
 21
85.04773416909876
  0
ARC
  8
_0-0_0
  6
CONTINUOUS
 62
    7
 10
237.53564771280219
 20
78.779595169098755
 40
12.643470000000001
 50
309.95171700000003
 51
86.736606000000037
  0
ARC
  8
_0-0_0
  6
CONTINUOUS
 62
    7
 10
237.53564771280219
 20
78.779595169098755
 40
6.6434779999999991
 50
310.04908799999998
 51
85.645197000000039
  0
ARC
  8
_0-0_0
  6
CONTINUOUS
 62
    7
 10
238.24282571280219
 20
80.540502169098772
 40
6.915011999999999
 50
71.701304000000007
 51
186.92223799999999
  0
LINE
  8
_0-0_0
  6
CONTINUOUS
 62
    7
 10
234.66683671280219
 20
85.04773416909876
 11
238.04010371280219
 21
85.403890169098759
  0
ARC
  8
_0-0_0
  6
CONTINUOUS
 62
    7
 10
238.08461671280219
 20
83.077849169098755
 40
8.3264710000000015
 50
88.824780000000004
 51
205.59538800000001
  0
ARC
  8
_0-0_0
  6
CONTINUOUS
 62
    7
 10
239.7162877128022
 20
80.425322169098763
 40
23.439019999999999
 50
61.928369000000004
 51
151.877411
  0
ARC
  8
_0-0_0
  6
CONTINUOUS
 62
    7
 10
141.77515771280218
 20
122.40372916909877
 40
30
 50
318.79495400000002
 51
321.11208199999999
  0
ARC
  8
_0-0_0
  6
CONTINUOUS
 62
    7
 10
146.17394271280219
 20
118.30035916909877
 40
30
 50
320.29691300000002
 51
321.11208199999999
  0
ARC
  8
_0-0_0
  6
CONTINUOUS
 62
    7
 10
223.90401971280218
 20
53.760558169098758
 40
71.031439000000006
 50
140.29692100000003
 51
153.51128800000004
  0
ARC
  8
_0-0_0
  6
CONTINUOUS
 62
    7
 10
212.92189671280221
 20
60.108403169098779
 40
64.565149000000005
 50
138.794963
 51
149.940561
  0
ARC
  8
_0-0_0
  6
CONTINUOUS
 62
    7
 10
232.31083071280219
 20
84.995452169098769
 40
20.763538
 50
153.002016
 51
309.98982900000004
  0
ARC
  8
_0-0_0
  6
CONTINUOUS
 62
    7
 10
232.31083071280219
 20
84.995452169098769
 40
14.763538
 50
153.973364
 51
310.04911499999997
  0
ARC
  8
_0-0_0
  6
CONTINUOUS
 62
    7
 10
209.9819917128022
 20
64.214531169098777
 40
60
 50
151.92844700000001
 51
0.0000170000000139
  0
ARC
  8
_0-0_0
  6
CONTINUOUS
 62
    7
 10
209.9819917128022
 20
64.214531169098777
 40
53.999993999999987
 50
156.852262
 51
355.07618100000002
  0
ARC
  8
_0-0_0
  6
CONTINUOUS
 62
    7
 10
239.76448671280218
 20
80.264488169098769
 40
29.564281999999999
 50
37.145710999999999
 51
151.38988599999999
  0
ARC
  8
_0-0_0
  6
CONTINUOUS
 62
    7
 10
241.33460371280219
 20
83.459777169098743
 40
20
 50
19.501076000000005
 51
61.928362
  0
LINE
  8
_0-0_0
  6
CONTINUOUS
 62
    7
 10
165.12641871280221
 20
103.56976216909877
 11
247.48849171280219
 21
205.68623516909878
  0
LINE
  8
_0-0_0
  6
CONTINUOUS
 62
    7
 10
169.52520571280218
 20
99.466399169098764
 11
252.18706971280218
 21
201.95457616909874
  0
LINE
  8
_0-0_0
  6
CONTINUOUS
 62
    7
 10
165.12641871280221
 20
103.56976216909877
 11
247.48849171280219
 21
205.68623516909878
  0
ENDSEC
  0
EOF
