  0
SECTION
  2
HEADER
  9
$ACADVER
  1
AC1009
  9
$INSBASE
 10
0
 20
0
 30
0
  9
$EXTMIN
 10
0
 20
0
  9
$EXTMAX
 10
420
 20
297
  9
$LIMMIN
 10
0
 20
0
  9
$LIMMAX
 10
420
 20
297
  9
$LTSCALE
 40
1
  0
ENDSEC
  0
SECTION
  2
TABLES
  0
TABLE
  2
LTYPE
 70
     9
  0
LTYPE
  2
CONTINUOUS
 70
    64
  3
実線
 72
    65
 73
     0
 40
0.0
  0
LTYPE
  2
DASHED1
 70
    64
  3
--  --  --  --  --  --  --  --  
 72
    65
 73
     2
 40
2.5
 49
1.25
 49
-1.25
  0
LTYPE
  2
DASHED2
 70
    64
  3
----    ----    ----    ----    
 72
    65
 73
     2
 40
5.0
 49
2.5
 49
-2.5
  0
LTYPE
  2
DASHED3
 70
    64
  3
------  ------  ------  ------  
 72
    65
 73
     2
 40
5.0
 49
3.75
 49
-1.25
  0
LTYPE
  2
CENTER1
 70
    64
  3
----- - ----- - ----- - ----- - 
 72
    65
 73
     4
 40
10.0
 49
6.25
 49
-1.25
 49
1.25
 49
-1.25
  0
LTYPE
  2
CENTER2
 70
    64
  3
----------  --  ----------  --  
 72
    65
 73
     4
 40
20.0
 49
12.5
 49
-2.5
 49
2.5
 49
-2.5
  0
LTYPE
  2
PHANTOM1
 70
    64
  3
--- - - --- - - --- - - --- - - 
 72
    65
 73
     6
 40
10.0
 49
3.25
 49
-1.25
 49
1.25
 49
-1.25
 49
1.25
 49
-1.25
  0
LTYPE
  2
PHANTOM2
 70
    64
  3
--------  -  -  --------  -  -  
 72
    65
 73
     6
 40
20.0
 49
10.0
 49
-2.5
 49
1.25
 49
-2.5
 49
1.25
 49
-2.5
  0
LTYPE
  2
DOT
 70
    64
  3
-   -   -   -   -   -   -   -   
 72
    65
 73
     2
 40
2.5
 49
0.625
 49
-1.875
  0
LTYPE
  2
DUMMY
 70
    64
  3
ダミー
 72
    65
 73
     0
 40
0.0
  0
LTYPE
  2
RAND1
 70
    64
  3
ランダム線1
 72
    65
 73
     4
 40
10.0
 49
1.0
 49
-2.0
 49
3.0
 49
-4.0
  0
LTYPE
  2
RAND2
 70
    64
  3
ランダム線2
 72
    65
 73
     4
 40
14.0
 49
2.0
 49
-3.0
 49
4.0
 49
-5.0
  0
LTYPE
  2
RAND3
 70
    64
  3
ランダム線3
 72
    65
 73
     4
 40
18.0
 49
3.0
 49
-4.0
 49
5.0
 49
-6.0
  0
LTYPE
  2
RAND4
 70
    64
  3
ランダム線4
 72
    65
 73
     4
 40
22.0
 49
4.0
 49
-5.0
 49
6.0
 49
-7.0
  0
LTYPE
  2
RAND5
 70
    64
  3
ランダム線5
 72
    65
 73
     4
 40
26.0
 49
5.0
 49
-6.0
 49
7.0
 49
-8.0
  0
LTYPE
  2
LONG1
 70
    64
  3
----------  --  ----------  --  
 72
    65
 73
     4
 40
40.0
 49
32.5
 49
-2.5
 49
2.5
 49
-2.5
  0
LTYPE
  2
LONG2
 70
    64
  3
--------  -  -  --------  -  -  
 72
    65
 73
     6
 40
40.0
 49
30.0
 49
-2.5
 49
1.25
 49
-2.5
 49
1.25
 49
-2.5
  0
LTYPE
  2
LONG3
 70
    64
  3
+++++++++++++++..+++++++++++++++
 72
    65
 73
     2
 40
40.0
 49
37.5
 49
-2.5
  0
LTYPE
  2
LONG4
 70
    64
  3
+++++++++++++++..+++++++++++++++
 72
    65
 73
     2
 40
80.0
 49
75.0
 49
-5.0
  0
LTYPE
  2
LONG5
 70
    64
  3
----------  --  ----------  --  
 72
    65
 73
     4
 40
60.0
 49
37.5
 49
-7.5
 49
7.5
 49
-7.5
  0
LTYPE
  2
dashed
 70
   64
  3
-------   -------------   ------
 72
   65
 73
    2
 40
7.5
 49
6
 49
-1.5
  0
LTYPE
  2
dashed_spaced
 70
   64
  3
----        --------        ----
 72
   65
 73
    2
 40
12
 49
6
 49
-6
  0
LTYPE
  2
long_dashed_dotted
 70
   64
  3
------------- --- --------------
 72
   65
 73
    4
 40
15.25
 49
12
 49
-1.5
 49
0.25
 49
-1.5
  0
LTYPE
  2
long_dashed_double-dotted
 70
   64
  3
----------- --- --- ------------
 72
   65
 73
    6
 40
17
 49
12
 49
-1.5
 49
0.25
 49
-1.5
 49
0.25
 49
-1.5
  0
LTYPE
  2
long_dashed_triplicate-dotted
 70
   64
  3
--------- --- --- --- ----------
 72
   65
 73
    8
 40
18.75
 49
12
 49
-1.5
 49
0.25
 49
-1.5
 49
0.25
 49
-1.5
 49
0.25
 49
-1.5
  0
LTYPE
  2
dotted
 70
   64
  3
   -       -       -       -    
 72
   65
 73
    2
 40
1.75
 49
0.25
 49
-1.5
  0
LTYPE
  2
chain
 70
   64
  3
-------------- -- --------------
 72
   65
 73
    4
 40
18.5
 49
12
 49
-1.5
 49
3.5
 49
-1.5
  0
LTYPE
  2
chain_double_dash
 70
   64
  3
------------ -- -- -------------
 72
   65
 73
    6
 40
23.5
 49
12
 49
-1.5
 49
3.5
 49
-1.5
 49
3.5
 49
-1.5
  0
LTYPE
  2
dashed_dotted
 70
   64
  3
-----------     -     ----------
 72
   65
 73
    4
 40
9.25
 49
6
 49
-1.5
 49
0.25
 49
-1.5
  0
LTYPE
  2
double-dashed_dotted
 70
   64
  3
------   -----------   -   -----
 72
   65
 73
    6
 40
16.75
 49
6
 49
-1.5
 49
6
 49
-1.5
 49
0.25
 49
-1.5
  0
LTYPE
  2
dashed_double-dotted
 70
   64
  3
---------    -    -    ---------
 72
   65
 73
    6
 40
11
 49
6
 49
-1.5
 49
0.25
 49
-1.5
 49
0.25
 49
-1.5
  0
LTYPE
  2
double-dashed_double-dotted
 70
   64
  3
-----   ---------   -   -   ----
 72
   65
 73
    8
 40
18.5
 49
6
 49
-1.5
 49
6
 49
-1.5
 49
0.25
 49
-1.5
 49
0.25
 49
-1.5
  0
LTYPE
  2
dashed_triplicate-dotted
 70
   64
  3
-------    -    -    -    ------
 72
   65
 73
    8
 40
12.75
 49
6
 49
-1.5
 49
0.25
 49
-1.5
 49
0.25
 49
-1.5
 49
0.25
 49
-1.5
  0
LTYPE
  2
double-dashed_triplicate-dotted
 70
   64
  3
-----  ---------  -  -  -  -----
 72
   65
 73
   10
 40
20.25
 49
6
 49
-1.5
 49
6
 49
-1.5
 49
0.25
 49
-1.5
 49
0.25
 49
-1.5
 49
0.25
 49
-1.5
  0
LTYPE
  2
undefined
 70
   64
  3
--------------------------------
 72
   65
 73
    0
 40
0
  0
LTYPE
  2
BORDER
 70
   64
  3
----     --------     -     ----
 72
   65
 73
    0
 40
0
  0
LTYPE
  2
BORDER2
 70
   64
  3
----     --------     -     ----
 72
   65
 73
    0
 40
0
  0
LTYPE
  2
BORDERX2
 70
   64
  3
----     --------     -     ----
 72
   65
 73
    0
 40
0
  0
LTYPE
  2
CENTER
 70
   64
  3
----------    ----    ----------
 72
   65
 73
    0
 40
0
  0
LTYPE
  2
CENTER2_21
 70
   64
  3
----------    ----    ----------
 72
   65
 73
    0
 40
0
  0
LTYPE
  2
CENTERX2
 70
   64
  3
----------    ----    ----------
 72
   65
 73
    0
 40
0
  0
LTYPE
  2
DASHDOT
 70
   64
  3
--------        -        -------
 72
   65
 73
    0
 40
0
  0
LTYPE
  2
DASHDOT2
 70
   64
  3
--------        -        -------
 72
   65
 73
    0
 40
0
  0
LTYPE
  2
DASHDOTX2
 70
   64
  3
--------        -        -------
 72
   65
 73
    0
 40
0
  0
LTYPE
  2
DASHED
 70
   64
  3
------     -----------     -----
 72
   65
 73
    0
 40
0
  0
LTYPE
  2
DASHED2_27
 70
   64
  3
------     -----------     -----
 72
   65
 73
    0
 40
0
  0
LTYPE
  2
DASHEDX2
 70
   64
  3
------     -----------     -----
 72
   65
 73
    0
 40
0
  0
LTYPE
  2
DIVIDE
 70
   64
  3
------      -      -      ------
 72
   65
 73
    0
 40
0
  0
LTYPE
  2
DIVIDE2
 70
   64
  3
------      -      -      ------
 72
   65
 73
    0
 40
0
  0
LTYPE
  2
DIVIDEX2
 70
   64
  3
------      -      -      ------
 72
   65
 73
    0
 40
0
  0
LTYPE
  2
DOT_32
 70
   64
  3
-               -               
 72
   65
 73
    0
 40
0
  0
ENDTAB
  0
TABLE
  2
STYLE
  5
3
100
AcDbSymbolTable
 70
     1
  0
STYLE
  5
10
100
AcDbSymbolTableRecord
100
AcDbTextStyleTableRecord
  2
STANDARD
 70
     0
 40
0.0
 41
1.0
 50
0.0
 71
     0
 42
0.2
  3
txt
  4
bigfont.shx
  0
STYLE
  5
26
100
AcDbSymbolTableRecord
100
AcDbTextStyleTableRecord
  2
TATEGAKI
 70
    68
 40
0.0
 41
1.0
 50
0.0
 71
     0
 42
1.0
  3
txt
  4
bigfont.shx
  0
ENDTAB
  0
TABLE
  2
LAYER
 70
    2
  0
LAYER
  2
_0-0_0
 70
   64
 62
    7
  6
CONTINUOUS
  0
LAYER
  2
ADD_LINE
 70
   64
 62
    7
  6
CONTINUOUS
  0
ENDTAB
  0
ENDSEC
  0
SECTION
  2
BLOCKS
  0
ENDSEC
  0
SECTION
  2
ENTITIES
  0
ARC
  8
_0-0_0
  6
CONTINUOUS
 62
    7
 10
192.59957650000001
 20
195.60566900000001
 40
16.187183999999998
 50
139.28274999999999
 51
191.758644
  0
ARC
  8
_0-0_0
  6
CONTINUOUS
 62
    7
 10
190.65365750000001
 20
196.43021099999999
 40
14.189069999999999
 50
47.415481999999997
 51
136.67965799999999
  0
ARC
  8
_0-0_0
  6
CONTINUOUS
 62
    7
 10
188.7984615
 20
193.955602
 40
17.269200999999999
 50
347.79065200000008
 51
48.439301000000064
  0
ARC
  8
_0-0_0
  6
CONTINUOUS
 62
    7
 10
179.6247975
 20
195.90753799999999
 40
26.648192000000002
 50
248.72101800000002
 51
347.86009799999999
  0
ARC
  8
_0-0_0
  6
CONTINUOUS
 62
    7
 10
180.80765049999999
 20
204.723896
 40
35.355021999999998
 50
191.45428800000002
 51
252.12191100000001
  0
ARC
  8
_0-0_0
  6
CONTINUOUS
 62
    7
 10
187.78158350000001
 20
206.138801
 40
42.471038999999998
 50
136.04491899999999
 51
191.456715
  0
ARC
  8
_0-0_0
  6
CONTINUOUS
 62
    7
 10
195.3580705
 20
202.187423
 40
50.725346000000002
 50
81.226686999999998
 51
138.77292800000001
  0
ARC
  8
_0-0_0
  6
CONTINUOUS
 62
    7
 10
199.3643265
 20
190.77057200000002
 40
61.661645999999998
 50
25.689748000000002
 51
86.531371000000007
  0
ARC
  8
_0-0_0
  6
CONTINUOUS
 62
    7
 10
126.1765985
 20
144.159539
 40
148.17770400000001
 50
1.6769019999999999
 51
29.666751000000001
  0
ARC
  8
_0-0_0
  6
CONTINUOUS
 62
    7
 10
192.41763550000002
 20
195.61722399999999
 40
10.015453000000001
 50
140.29006100000001
 51
192.91838100000001
  0
ARC
  8
_0-0_0
  6
CONTINUOUS
 62
    7
 10
187.80766349999999
 20
193.94095300000001
 40
12.286803000000001
 50
357.12403100000006
 51
40.379111000000087
  0
ARC
  8
_0-0_0
  6
CONTINUOUS
 62
    7
 10
190.88399849999999
 20
195.89035100000001
 40
8.6952780000000001
 50
43.728232000000006
 51
135.21143900000004
  0
ARC
  8
_0-0_0
  6
CONTINUOUS
 62
    7
 10
179.79860450000001
 20
195.71454399999999
 40
20.420736999999999
 50
275.33902499999999
 51
353.27862099999999
  0
ARC
  8
_0-0_0
  6
CONTINUOUS
 62
    7
 10
180.80765049999999
 20
204.723896
 40
29.355022000000002
 50
191.483509
 51
271.73949399999998
  0
ARC
  8
_0-0_0
  6
CONTINUOUS
 62
    7
 10
187.78158350000001
 20
206.138801
 40
36.471038999999998
 50
135.82195100000001
 51
191.48063400000001
  0
ARC
  8
_0-0_0
  6
CONTINUOUS
 62
    7
 10
199.3643265
 20
190.77057200000002
 40
55.661645999999998
 50
25.351831000000001
 51
86.819203000000002
  0
ARC
  8
_0-0_0
  6
CONTINUOUS
 62
    7
 10
195.3580705
 20
202.187423
 40
44.725346000000002
 50
80.87266000000001
 51
138.95716400000001
  0
ARC
  8
_0-0_0
  6
CONTINUOUS
 62
    7
 10
179.3727025
 20
194.66762499999999
 40
3.5271379999999999
 50
222.01349700000003
 51
338.556149
  0
ARC
  8
_0-0_0
  6
CONTINUOUS
 62
    7
 10
188.13180850000001
 20
196.195412
 40
10.360732
 50
153.45781500000001
 51
200.058682
  0
ARC
  8
_0-0_0
  6
CONTINUOUS
 62
    7
 10
188.1606515
 20
195.807106
 40
9.0048410000000008
 50
158.36754800000003
 51
201.63245200000003
  0
ARC
  8
_0-0_0
  6
CONTINUOUS
 62
    7
 10
188.89496650000001
 20
195.729905
 40
8.4995560000000001
 50
164.187601
 51
195.812399
  0
ARC
  8
_0-0_0
  6
CONTINUOUS
 62
    7
 10
180.80765049999999
 20
92.267514000000006
 40
29.355022000000002
 50
88.260506000000007
 51
168.516491
  0
ARC
  8
_0-0_0
  6
CONTINUOUS
 62
    7
 10
187.78158350000001
 20
90.852609000000001
 40
42.471038999999998
 50
168.54328500000003
 51
223.95508100000004
  0
ARC
  8
_0-0_0
  6
CONTINUOUS
 62
    7
 10
180.80765049999999
 20
92.267514000000006
 40
35.355021999999998
 50
107.878089
 51
168.54571200000001
  0
ARC
  8
_0-0_0
  6
CONTINUOUS
 62
    7
 10
179.6247975
 20
101.083872
 40
26.648192000000002
 50
12.139901999999999
 51
111.27898200000001
  0
ARC
  8
_0-0_0
  6
CONTINUOUS
 62
    7
 10
179.79860450000001
 20
101.276866
 40
20.420736999999999
 50
6.7213789999999998
 51
84.660974999999993
  0
ARC
  8
_0-0_0
  6
CONTINUOUS
 62
    7
 10
126.1765985
 20
152.83187100000001
 40
148.17770400000001
 50
330.33324900000008
 51
358.32309800000007
  0
ARC
  8
_0-0_0
  6
CONTINUOUS
 62
    7
 10
199.3643265
 20
106.220838
 40
55.661645999999998
 50
273.18079700000004
 51
334.52142500000008
  0
ARC
  8
_0-0_0
  6
CONTINUOUS
 62
    7
 10
199.3643265
 20
106.220838
 40
61.661645999999998
 50
273.46862900000002
 51
334.31025199999999
  0
ARC
  8
_0-0_0
  6
CONTINUOUS
 62
    7
 10
187.78158350000001
 20
90.852609000000001
 40
36.471038999999998
 50
168.51936600000002
 51
224.17804900000002
  0
ARC
  8
_0-0_0
  6
CONTINUOUS
 62
    7
 10
190.65365750000001
 20
100.561199
 40
14.189069999999999
 50
223.32034200000004
 51
312.584518
  0
ARC
  8
_0-0_0
  6
CONTINUOUS
 62
    7
 10
188.89496650000001
 20
101.261505
 40
8.4995560000000001
 50
164.187601
 51
195.812399
  0
ARC
  8
_0-0_0
  6
CONTINUOUS
 62
    7
 10
179.3727025
 20
102.323785
 40
3.5271379999999999
 50
21.443850999999999
 51
137.986503
  0
ARC
  8
_0-0_0
  6
CONTINUOUS
 62
    7
 10
192.59957650000001
 20
101.385741
 40
16.187183999999998
 50
168.24135600000002
 51
220.71725000000004
  0
ARC
  8
_0-0_0
  6
CONTINUOUS
 62
    7
 10
188.1606515
 20
101.184304
 40
9.0048410000000008
 50
158.36754800000003
 51
201.63245200000003
  0
ARC
  8
_0-0_0
  6
CONTINUOUS
 62
    7
 10
188.13180850000001
 20
100.795998
 40
10.360732
 50
159.941318
 51
206.54218499999999
  0
ARC
  8
_0-0_0
  6
CONTINUOUS
 62
    7
 10
188.7984615
 20
103.035808
 40
17.269200999999999
 50
311.560699
 51
12.209347999999983
  0
ARC
  8
_0-0_0
  6
CONTINUOUS
 62
    7
 10
190.88399849999999
 20
101.10105899999999
 40
8.6952780000000001
 50
224.78856099999999
 51
316.27176800000001
  0
ARC
  8
_0-0_0
  6
CONTINUOUS
 62
    7
 10
192.41763550000002
 20
101.37418600000001
 40
10.015453000000001
 50
167.08161900000002
 51
219.70993900000002
  0
ARC
  8
_0-0_0
  6
CONTINUOUS
 62
    7
 10
187.80766349999999
 20
103.05045699999999
 40
12.286803000000001
 50
319.62088899999998
 51
2.8759690000000204
  0
ARC
  8
_0-0_0
  6
CONTINUOUS
 62
    7
 10
195.3580705
 20
94.803987000000006
 40
44.725346000000002
 50
221.04283600000002
 51
279.12734
  0
ARC
  8
_0-0_0
  6
CONTINUOUS
 62
    7
 10
195.3580705
 20
94.803987000000006
 40
50.725346000000002
 50
221.22707199999999
 51
278.77331299999997
  0
ARC
  8
_0-0_0
  6
CONTINUOUS
 62
    7
 10
126.1765985
 20
144.159539
 40
142.17770400000001
 50
1.7476900000000002
 51
29.666751000000001
  0
ARC
  8
_0-0_0
  6
CONTINUOUS
 62
    7
 10
126.1765985
 20
152.83187100000001
 40
142.17770400000001
 50
330.24801400000007
 51
358.25231000000008
  0
ENDSEC
  0
EOF
