  0
SECTION
  2
HEADER
  9
$ACADVER
  1
AC1009
  9
$INSBASE
 10
0
 20
0
 30
0
  9
$EXTMIN
 10
0
 20
0
  9
$EXTMAX
 10
420
 20
297
  9
$LIMMIN
 10
0
 20
0
  9
$LIMMAX
 10
420
 20
297
  9
$LTSCALE
 40
1
  0
ENDSEC
  0
SECTION
  2
TABLES
  0
TABLE
  2
LTYPE
 70
     9
  0
LTYPE
  2
CONTINUOUS
 70
    64
  3
実線
 72
    65
 73
     0
 40
0.0
  0
LTYPE
  2
DASHED1
 70
    64
  3
--  --  --  --  --  --  --  --  
 72
    65
 73
     2
 40
2.5
 49
1.25
 49
-1.25
  0
LTYPE
  2
DASHED2
 70
    64
  3
----    ----    ----    ----    
 72
    65
 73
     2
 40
5.0
 49
2.5
 49
-2.5
  0
LTYPE
  2
DASHED3
 70
    64
  3
------  ------  ------  ------  
 72
    65
 73
     2
 40
5.0
 49
3.75
 49
-1.25
  0
LTYPE
  2
CENTER1
 70
    64
  3
----- - ----- - ----- - ----- - 
 72
    65
 73
     4
 40
10.0
 49
6.25
 49
-1.25
 49
1.25
 49
-1.25
  0
LTYPE
  2
CENTER2
 70
    64
  3
----------  --  ----------  --  
 72
    65
 73
     4
 40
20.0
 49
12.5
 49
-2.5
 49
2.5
 49
-2.5
  0
LTYPE
  2
PHANTOM1
 70
    64
  3
--- - - --- - - --- - - --- - - 
 72
    65
 73
     6
 40
10.0
 49
3.25
 49
-1.25
 49
1.25
 49
-1.25
 49
1.25
 49
-1.25
  0
LTYPE
  2
PHANTOM2
 70
    64
  3
--------  -  -  --------  -  -  
 72
    65
 73
     6
 40
20.0
 49
10.0
 49
-2.5
 49
1.25
 49
-2.5
 49
1.25
 49
-2.5
  0
LTYPE
  2
DOT
 70
    64
  3
-   -   -   -   -   -   -   -   
 72
    65
 73
     2
 40
2.5
 49
0.625
 49
-1.875
  0
LTYPE
  2
DUMMY
 70
    64
  3
ダミー
 72
    65
 73
     0
 40
0.0
  0
LTYPE
  2
RAND1
 70
    64
  3
ランダム線1
 72
    65
 73
     4
 40
10.0
 49
1.0
 49
-2.0
 49
3.0
 49
-4.0
  0
LTYPE
  2
RAND2
 70
    64
  3
ランダム線2
 72
    65
 73
     4
 40
14.0
 49
2.0
 49
-3.0
 49
4.0
 49
-5.0
  0
LTYPE
  2
RAND3
 70
    64
  3
ランダム線3
 72
    65
 73
     4
 40
18.0
 49
3.0
 49
-4.0
 49
5.0
 49
-6.0
  0
LTYPE
  2
RAND4
 70
    64
  3
ランダム線4
 72
    65
 73
     4
 40
22.0
 49
4.0
 49
-5.0
 49
6.0
 49
-7.0
  0
LTYPE
  2
RAND5
 70
    64
  3
ランダム線5
 72
    65
 73
     4
 40
26.0
 49
5.0
 49
-6.0
 49
7.0
 49
-8.0
  0
LTYPE
  2
LONG1
 70
    64
  3
----------  --  ----------  --  
 72
    65
 73
     4
 40
40.0
 49
32.5
 49
-2.5
 49
2.5
 49
-2.5
  0
LTYPE
  2
LONG2
 70
    64
  3
--------  -  -  --------  -  -  
 72
    65
 73
     6
 40
40.0
 49
30.0
 49
-2.5
 49
1.25
 49
-2.5
 49
1.25
 49
-2.5
  0
LTYPE
  2
LONG3
 70
    64
  3
+++++++++++++++..+++++++++++++++
 72
    65
 73
     2
 40
40.0
 49
37.5
 49
-2.5
  0
LTYPE
  2
LONG4
 70
    64
  3
+++++++++++++++..+++++++++++++++
 72
    65
 73
     2
 40
80.0
 49
75.0
 49
-5.0
  0
LTYPE
  2
LONG5
 70
    64
  3
----------  --  ----------  --  
 72
    65
 73
     4
 40
60.0
 49
37.5
 49
-7.5
 49
7.5
 49
-7.5
  0
LTYPE
  2
dashed
 70
   64
  3
-------   -------------   ------
 72
   65
 73
    2
 40
7.5
 49
6
 49
-1.5
  0
LTYPE
  2
dashed_spaced
 70
   64
  3
----        --------        ----
 72
   65
 73
    2
 40
12
 49
6
 49
-6
  0
LTYPE
  2
long_dashed_dotted
 70
   64
  3
------------- --- --------------
 72
   65
 73
    4
 40
15.25
 49
12
 49
-1.5
 49
0.25
 49
-1.5
  0
LTYPE
  2
long_dashed_double-dotted
 70
   64
  3
----------- --- --- ------------
 72
   65
 73
    6
 40
17
 49
12
 49
-1.5
 49
0.25
 49
-1.5
 49
0.25
 49
-1.5
  0
LTYPE
  2
long_dashed_triplicate-dotted
 70
   64
  3
--------- --- --- --- ----------
 72
   65
 73
    8
 40
18.75
 49
12
 49
-1.5
 49
0.25
 49
-1.5
 49
0.25
 49
-1.5
 49
0.25
 49
-1.5
  0
LTYPE
  2
dotted
 70
   64
  3
   -       -       -       -    
 72
   65
 73
    2
 40
1.75
 49
0.25
 49
-1.5
  0
LTYPE
  2
chain
 70
   64
  3
-------------- -- --------------
 72
   65
 73
    4
 40
18.5
 49
12
 49
-1.5
 49
3.5
 49
-1.5
  0
LTYPE
  2
chain_double_dash
 70
   64
  3
------------ -- -- -------------
 72
   65
 73
    6
 40
23.5
 49
12
 49
-1.5
 49
3.5
 49
-1.5
 49
3.5
 49
-1.5
  0
LTYPE
  2
dashed_dotted
 70
   64
  3
-----------     -     ----------
 72
   65
 73
    4
 40
9.25
 49
6
 49
-1.5
 49
0.25
 49
-1.5
  0
LTYPE
  2
double-dashed_dotted
 70
   64
  3
------   -----------   -   -----
 72
   65
 73
    6
 40
16.75
 49
6
 49
-1.5
 49
6
 49
-1.5
 49
0.25
 49
-1.5
  0
LTYPE
  2
dashed_double-dotted
 70
   64
  3
---------    -    -    ---------
 72
   65
 73
    6
 40
11
 49
6
 49
-1.5
 49
0.25
 49
-1.5
 49
0.25
 49
-1.5
  0
LTYPE
  2
double-dashed_double-dotted
 70
   64
  3
-----   ---------   -   -   ----
 72
   65
 73
    8
 40
18.5
 49
6
 49
-1.5
 49
6
 49
-1.5
 49
0.25
 49
-1.5
 49
0.25
 49
-1.5
  0
LTYPE
  2
dashed_triplicate-dotted
 70
   64
  3
-------    -    -    -    ------
 72
   65
 73
    8
 40
12.75
 49
6
 49
-1.5
 49
0.25
 49
-1.5
 49
0.25
 49
-1.5
 49
0.25
 49
-1.5
  0
LTYPE
  2
double-dashed_triplicate-dotted
 70
   64
  3
-----  ---------  -  -  -  -----
 72
   65
 73
   10
 40
20.25
 49
6
 49
-1.5
 49
6
 49
-1.5
 49
0.25
 49
-1.5
 49
0.25
 49
-1.5
 49
0.25
 49
-1.5
  0
LTYPE
  2
undefined
 70
   64
  3
--------------------------------
 72
   65
 73
    0
 40
0
  0
LTYPE
  2
BORDER
 70
   64
  3
----     --------     -     ----
 72
   65
 73
    0
 40
0
  0
LTYPE
  2
BORDER2
 70
   64
  3
----     --------     -     ----
 72
   65
 73
    0
 40
0
  0
LTYPE
  2
BORDERX2
 70
   64
  3
----     --------     -     ----
 72
   65
 73
    0
 40
0
  0
LTYPE
  2
CENTER
 70
   64
  3
----------    ----    ----------
 72
   65
 73
    0
 40
0
  0
LTYPE
  2
CENTER2_21
 70
   64
  3
----------    ----    ----------
 72
   65
 73
    0
 40
0
  0
LTYPE
  2
CENTERX2
 70
   64
  3
----------    ----    ----------
 72
   65
 73
    0
 40
0
  0
LTYPE
  2
DASHDOT
 70
   64
  3
--------        -        -------
 72
   65
 73
    0
 40
0
  0
LTYPE
  2
DASHDOT2
 70
   64
  3
--------        -        -------
 72
   65
 73
    0
 40
0
  0
LTYPE
  2
DASHDOTX2
 70
   64
  3
--------        -        -------
 72
   65
 73
    0
 40
0
  0
LTYPE
  2
DASHED
 70
   64
  3
------     -----------     -----
 72
   65
 73
    0
 40
0
  0
LTYPE
  2
DASHED2_27
 70
   64
  3
------     -----------     -----
 72
   65
 73
    0
 40
0
  0
LTYPE
  2
DASHEDX2
 70
   64
  3
------     -----------     -----
 72
   65
 73
    0
 40
0
  0
LTYPE
  2
DIVIDE
 70
   64
  3
------      -      -      ------
 72
   65
 73
    0
 40
0
  0
LTYPE
  2
DIVIDE2
 70
   64
  3
------      -      -      ------
 72
   65
 73
    0
 40
0
  0
LTYPE
  2
DIVIDEX2
 70
   64
  3
------      -      -      ------
 72
   65
 73
    0
 40
0
  0
LTYPE
  2
DOT_32
 70
   64
  3
-               -               
 72
   65
 73
    0
 40
0
  0
ENDTAB
  0
TABLE
  2
STYLE
  5
3
100
AcDbSymbolTable
 70
     1
  0
STYLE
  5
10
100
AcDbSymbolTableRecord
100
AcDbTextStyleTableRecord
  2
STANDARD
 70
     0
 40
0.0
 41
1.0
 50
0.0
 71
     0
 42
0.2
  3
txt
  4
bigfont.shx
  0
STYLE
  5
26
100
AcDbSymbolTableRecord
100
AcDbTextStyleTableRecord
  2
TATEGAKI
 70
    68
 40
0.0
 41
1.0
 50
0.0
 71
     0
 42
1.0
  3
txt
  4
bigfont.shx
  0
ENDTAB
  0
TABLE
  2
LAYER
 70
    2
  0
LAYER
  2
_0-0_0
 70
   64
 62
    7
  6
CONTINUOUS
  0
LAYER
  2
ADD_LINE
 70
   64
 62
    7
  6
CONTINUOUS
  0
ENDTAB
  0
ENDSEC
  0
SECTION
  2
BLOCKS
  0
ENDSEC
  0
SECTION
  2
ENTITIES
  0
ARC
  8
_0-0_0
  6
CONTINUOUS
 62
    7
 10
253.09311886954401
 20
106.61102235582189
 40
191.60078100000004
 50
105.425814
 51
176.42033000000001
  0
ARC
  8
_0-0_0
  6
CONTINUOUS
 62
    7
 10
225.01011186954383
 20
176.89790935582232
 40
116.67713800000001
 50
71.073446000000004
 51
101.309279
  0
ARC
  8
_0-0_0
  6
CONTINUOUS
 62
    7
 10
246.37166886954401
 20
244.8217973558219
 40
45.533393000000004
 50
7.5994540000000015
 51
68.776568999999995
  0
ARC
  8
_0-0_0
  6
CONTINUOUS
 62
    7
 10
242.69613186954484
 20
244.59706635582211
 40
49.207076000000001
 50
319.57364999999999
 51
7.2928460000000115
  0
ARC
  8
_0-0_0
  6
CONTINUOUS
 62
    7
 10
254.5563228695446
 20
242.50349935582199
 40
39.29692
 50
268.54407800000001
 51
310.64763099999999
  0
ARC
  8
_0-0_0
  6
CONTINUOUS
 62
    7
 10
272.90595486954408
 20
105.91974535582199
 40
211.41883500000003
 50
176.56860000000003
 51
210.76111399999999
  0
ARC
  8
_0-0_0
  6
CONTINUOUS
 62
    7
 10
197.82901386954381
 20
76.341674355821851
 40
132.414625
 50
216.387551
 51
273.60166900000002
  0
ARC
  8
_0-0_0
  6
CONTINUOUS
 62
    7
 10
201.379733869544
 20
37.978180355822133
 40
93.910689000000005
 50
272.90996200000001
 51
336.720977
  0
ARC
  8
_0-0_0
  6
CONTINUOUS
 62
    7
 10
215.79511586954413
 20
26.100845355822003
 40
76.153464
 50
340.64639599999998
 51
42.374142000000013
  0
ARC
  8
_0-0_0
  6
CONTINUOUS
 62
    7
 10
227.95263186954435
 20
27.372276355822123
 40
66.710707999999997
 50
48.617159999999998
 51
94.102030000000013
  0
ARC
  8
_0-0_0
  6
CONTINUOUS
 62
    7
 10
242.69613186954484
 20
244.59706635582211
 40
43.207073000000008
 50
320.20055200000002
 51
7.2706350000000421
  0
ARC
  8
_0-0_0
  6
CONTINUOUS
 62
    7
 10
254.5563228695446
 20
242.50349935582199
 40
33.29692
 50
260.63531999999998
 51
309.84855399999998
  0
ARC
  8
_0-0_0
  6
CONTINUOUS
 62
    7
 10
227.95263186954435
 20
27.372276355822123
 40
60.710704
 50
48.925068000000003
 51
102.89785900000003
  0
ARC
  8
_0-0_0
  6
CONTINUOUS
 62
    7
 10
215.79511586954413
 20
26.100845355822003
 40
70.153464
 50
340.81368099999997
 51
42.106057000000099
  0
ARC
  8
_0-0_0
  6
CONTINUOUS
 62
    7
 10
201.379733869544
 20
37.978180355822133
 40
87.910681000000011
 50
272.88649299999997
 51
336.58644900000002
  0
ARC
  8
_0-0_0
  6
CONTINUOUS
 62
    7
 10
197.82901386954381
 20
76.341674355821851
 40
126.41461800000002
 50
216.52060300000005
 51
273.61817000000008
  0
ARC
  8
_0-0_0
  6
CONTINUOUS
 62
    7
 10
272.90595486954408
 20
105.91974535582199
 40
205.418835
 50
176.57120900000001
 51
210.67852400000001
  0
ARC
  8
_0-0_0
  6
CONTINUOUS
 62
    7
 10
253.09311886954401
 20
106.61102235582189
 40
185.60078200000004
 50
105.492723
 51
176.418418
  0
ARC
  8
_0-0_0
  6
CONTINUOUS
 62
    7
 10
225.01011186954383
 20
176.89790935582232
 40
110.677138
 50
71.137068999999997
 51
101.198221
  0
ARC
  8
_0-0_0
  6
CONTINUOUS
 62
    7
 10
246.37166886954401
 20
244.8217973558219
 40
39.533389
 50
7.6217119999999996
 51
68.606039999999993
  0
LINE
  8
_0-0_0
  6
CONTINUOUS
 62
    7
 10
253.55786386954424
 20
203.21927435582188
 11
247.30127986954449
 21
203.93849735582216
  0
ARC
  8
_0-0_0
  6
CONTINUOUS
 62
    7
 10
242.02463086954504
 20
237.93013435582202
 40
2.9852680000000005
 50
307.47582799999998
 51
45.81614399999998
  0
ARC
  8
_0-0_0
  6
CONTINUOUS
 62
    7
 10
241.01642886954414
 20
232.94989535582226
 40
7.7620370000000003
 50
66.550577000000018
 51
160.55706599999999
  0
ARC
  8
_0-0_0
  6
CONTINUOUS
 62
    7
 10
232.8226648695445
 20
236.26678935582208
 40
1.141078
 50
189.96525099999999
 51
320.02007099999997
  0
ARC
  8
_0-0_0
  6
CONTINUOUS
 62
    7
 10
258.90069786954427
 20
224.69017535582202
 40
29.486106000000003
 50
131.29709500000001
 51
157.299352
  0
ARC
  8
_0-0_0
  6
CONTINUOUS
 62
    7
 10
236.23453386954407
 20
251.288075355822
 40
5.480899
 50
305.80442600000003
 51
349.40635900000001
  0
ARC
  8
_0-0_0
  6
CONTINUOUS
 62
    7
 10
249.65125486954366
 20
233.75674935582219
 40
27.148902
 50
128.68793600000001
 51
179.47898500000005
  0
ARC
  8
_0-0_0
  6
CONTINUOUS
 62
    7
 10
246.65755686954435
 20
240.17349735582184
 40
24.929635999999999
 50
194.32911400000003
 51
218.75904700000004
  0
ARC
  8
_0-0_0
  6
CONTINUOUS
 62
    7
 10
213.66038786954414
 20
197.37836235582199
 40
30.380763999999999
 50
63.49671699999999
 51
126.765579
  0
LINE
  8
_0-0_0
  6
CONTINUOUS
 62
    7
 10
195.47622986954502
 20
221.71608435582198
 11
193.87704086954454
 21
219.79666635582203
  0
LINE
  8
_0-0_0
  6
CONTINUOUS
 62
    7
 10
193.87704086954454
 20
219.79666635582203
 11
192.71744886954457
 21
217.78821335582211
  0
LINE
  8
_0-0_0
  6
CONTINUOUS
 62
    7
 10
192.71744886954457
 20
217.78821335582211
 11
192.02514186954431
 21
216.33397435582219
  0
LINE
  8
_0-0_0
  6
CONTINUOUS
 62
    7
 10
192.02514186954431
 20
216.33397435582219
 11
191.98308186954455
 21
215.41066535582195
  0
LINE
  8
_0-0_0
  6
CONTINUOUS
 62
    7
 10
191.98308186954455
 20
215.41066535582195
 11
192.16193786954409
 21
214.359853355822
  0
LINE
  8
_0-0_0
  6
CONTINUOUS
 62
    7
 10
192.16193786954409
 20
214.359853355822
 11
192.66525586954413
 21
213.61604835582193
  0
LINE
  8
_0-0_0
  6
CONTINUOUS
 62
    7
 10
192.66525586954413
 20
213.61604835582193
 11
193.44085286954396
 21
213.00346935582184
  0
LINE
  8
_0-0_0
  6
CONTINUOUS
 62
    7
 10
193.44085286954396
 20
213.00346935582184
 11
194.21182586954455
 21
212.72313435582191
  0
LINE
  8
_0-0_0
  6
CONTINUOUS
 62
    7
 10
194.21182586954455
 20
212.72313435582191
 11
194.72962486954384
 21
212.2593893558219
  0
LINE
  8
_0-0_0
  6
CONTINUOUS
 62
    7
 10
194.72962486954384
 20
212.2593893558219
 11
194.74838586954411
 21
209.57063835582176
  0
LINE
  8
_0-0_0
  6
CONTINUOUS
 62
    7
 10
194.74838586954411
 20
209.57063835582176
 11
194.47318586954407
 21
208.32875635582195
  0
LINE
  8
_0-0_0
  6
CONTINUOUS
 62
    7
 10
194.47318586954407
 20
208.32875635582195
 11
194.47020286954466
 21
207.21809935582223
  0
LINE
  8
_0-0_0
  6
CONTINUOUS
 62
    7
 10
194.47020286954466
 20
207.21809935582223
 11
194.75264286954462
 21
206.6018273558218
  0
LINE
  8
_0-0_0
  6
CONTINUOUS
 62
    7
 10
194.75264286954462
 20
206.6018273558218
 11
195.01725386954422
 21
205.9546863558221
  0
ARC
  8
_0-0_0
  6
CONTINUOUS
 62
    7
 10
198.11397886954455
 20
210.03581735582202
 40
5.1230370000000001
 50
232.80902000000006
 51
281.55064300000004
  0
ARC
  8
_0-0_0
  6
CONTINUOUS
 62
    7
 10
203.54442886954439
 20
189.29572135582202
 40
16.326158
 50
63.22245800000001
 51
105.65175000000002
  0
ARC
  8
_0-0_0
  6
CONTINUOUS
 62
    7
 10
213.35445686954426
 20
212.37215135582187
 40
8.8483490000000007
 50
253.894114
 51
317.24805300000003
  0
ARC
  8
_0-0_0
  6
CONTINUOUS
 62
    7
 10
227.07674686954488
 20
200.7122853558219
 40
9.1739829999999998
 50
58.04552300000001
 51
141.95747700000004
  0
ARC
  8
_0-0_0
  6
CONTINUOUS
 62
    7
 10
237.16301586954432
 20
197.33879635582207
 40
12.322697
 50
115.11898600000002
 51
183.47333400000008
  0
ARC
  8
_0-0_0
  6
CONTINUOUS
 62
    7
 10
226.59365386954414
 20
202.93694035582189
 40
6.576493000000001
 50
254.74215000000009
 51
333.65348400000011
  0
LINE
  8
_0-0_0
  6
CONTINUOUS
 62
    7
 10
232.71539586954441
 20
235.1940053558219
 11
233.44294986954446
 21
238.06985935582202
  0
LINE
  8
_0-0_0
  6
CONTINUOUS
 62
    7
 10
233.44294986954446
 20
238.06985935582202
 11
235.93068986954404
 21
241.783436355822
  0
LINE
  8
_0-0_0
  6
CONTINUOUS
 62
    7
 10
235.93068986954404
 20
241.783436355822
 11
237.27889186954508
 21
243.35335235582215
  0
LINE
  8
_0-0_0
  6
CONTINUOUS
 62
    7
 10
237.27889186954508
 20
243.35335235582215
 11
239.32453386954421
 21
244.68546035582199
  0
LINE
  8
_0-0_0
  6
CONTINUOUS
 62
    7
 10
239.32453386954421
 20
244.68546035582199
 11
241.10550986954422
 21
246.66475335582209
  0
LINE
  8
_0-0_0
  6
CONTINUOUS
 62
    7
 10
241.10550986954422
 20
246.66475335582209
 11
242.02858286954415
 21
248.60374935582195
  0
LINE
  8
_0-0_0
  6
CONTINUOUS
 62
    7
 10
242.02858286954415
 20
248.60374935582195
 11
242.03909586954433
 21
250.4928173558219
  0
LINE
  8
_0-0_0
  6
CONTINUOUS
 62
    7
 10
242.03909586954433
 20
250.4928173558219
 11
243.38052686954416
 21
252.56108535582212
  0
ARC
  8
_0-0_0
  6
CONTINUOUS
 62
    7
 10
249.6497298695449
 20
248.0346883558218
 40
8.3359769999999997
 50
116.70688200000001
 51
164.37087900000006
  0
ARC
  8
_0-0_0
  6
CONTINUOUS
 62
    7
 10
245.45388286954403
 20
256.37468435582218
 40
1
 50
296.707379
 51
73.572742000000005
  0
ARC
  8
_0-0_0
  6
CONTINUOUS
 62
    7
 10
241.57225286954417
 20
243.20753935582206
 40
14.727389000000002
 50
73.574530999999993
 51
127.13670399999999
  0
LINE
  8
_0-0_0
  6
CONTINUOUS
 62
    7
 10
243.38052686954416
 20
252.56108535582212
 11
244.06939986954421
 21
253.47517835582198
  0
LINE
  8
_0-0_0
  6
CONTINUOUS
 62
    7
 10
244.06939986954421
 20
253.47517835582198
 11
244.32172686954436
 21
253.80968135582179
  0
LINE
  8
_0-0_0
  6
CONTINUOUS
 62
    7
 10
244.32172686954436
 20
253.80968135582179
 11
244.81522686954395
 21
254.22020435582203
  0
LINE
  8
_0-0_0
  6
CONTINUOUS
 62
    7
 10
244.81522686954395
 20
254.22020435582203
 11
245.28861486954429
 21
254.49327535582211
  0
LINE
  8
_0-0_0
  6
CONTINUOUS
 62
    7
 10
245.28861486954429
 20
254.49327535582211
 11
245.62805486954403
 21
254.71678635582202
  0
LINE
  8
_0-0_0
  6
CONTINUOUS
 62
    7
 10
245.62805486954403
 20
254.71678635582202
 11
246.07090286954462
 21
254.90266835582202
  0
LINE
  8
_0-0_0
  6
CONTINUOUS
 62
    7
 10
246.07090286954462
 20
254.90266835582202
 11
246.48934486954386
 21
256.32237735582203
  0
ARC
  8
_0-0_0
  6
CONTINUOUS
 62
    7
 10
227.23487386954457
 20
198.28987635582212
 40
10.823149000000001
 50
67.071241999999998
 51
137.32585700000001
  0
ARC
  8
_0-0_0
  6
CONTINUOUS
 62
    7
 10
254.59791086954465
 20
224.26338735582203
 40
15.599602000000001
 50
133.59575400000003
 51
249.51377700000006
  0
ARC
  8
_0-0_0
  6
CONTINUOUS
 62
    7
 10
243.57829586954449
 20
190.68486535582201
 40
14.495789000000002
 50
105.485175
 51
139.91900699999999
  0
ARC
  8
_0-0_0
  6
CONTINUOUS
 62
    7
 10
242.37793986954421
 20
195.01747635582205
 40
10
 50
72.171508000000017
 51
105.485039
  0
LINE
  8
_0-0_0
  6
CONTINUOUS
 62
    7
 10
245.43963086954409
 20
204.53725235582169
 11
247.30127986954449
 21
203.93849735582216
  0
ARC
  8
_0-0_0
  6
CONTINUOUS
 62
    7
 10
246.54390186954424
 20
226.02779135582205
 40
14.265333
 50
108.544273
 51
198.468536
  0
LINE
  8
_0-0_0
  6
CONTINUOUS
 62
    7
 10
233.58800786954453
 20
220.88850935582195
 11
234.47332286954406
 21
218.9354143558221
  0
LINE
  8
_0-0_0
  6
CONTINUOUS
 62
    7
 10
234.82717386954391
 20
218.44273935582191
 11
235.16314186954423
 21
217.91917935582205
  0
LINE
  8
_0-0_0
  6
CONTINUOUS
 62
    7
 10
235.84834986954411
 20
217.23518835582195
 11
236.29477186954409
 21
216.64784735582225
  0
LINE
  8
_0-0_0
  6
CONTINUOUS
 62
    7
 10
236.92304086954391
 20
216.12032035582206
 11
237.6985878695441
 21
215.507772355822
  0
LINE
  8
_0-0_0
  6
CONTINUOUS
 62
    7
 10
238.0690678695446
 20
215.12907935582189
 11
238.75200586954452
 21
214.6111653558221
  0
LINE
  8
_0-0_0
  6
CONTINUOUS
 62
    7
 10
240.11901386954378
 20
213.49233035582211
 11
241.66556786954425
 21
212.59944635582224
  0
LINE
  8
_0-0_0
  6
CONTINUOUS
 62
    7
 10
244.42488386954392
 20
211.17113235582201
 11
246.90638186954402
 21
210.02681535582201
  0
ARC
  8
_0-0_0
  6
CONTINUOUS
 62
    7
 10
241.24019086954377
 20
231.52254235582177
 40
8.3188659999999999
 50
95.569796000000011
 51
166.27691200000001
  0
ARC
  8
_0-0_0
  6
CONTINUOUS
 62
    7
 10
252.95199086954381
 20
224.79094435582215
 40
16.365713
 50
128.65994599999999
 51
220.020433
  0
ARC
  8
_0-0_0
  6
CONTINUOUS
 62
    7
 10
246.96399986954475
 20
234.46092735582215
 40
21.91506
 50
93.681106000000014
 51
228.03684800000002
  0
ARC
  8
_0-0_0
  6
CONTINUOUS
 62
    7
 10
248.30493386954458
 20
231.32286535582193
 40
20.425899000000001
 50
110.19455000000004
 51
212.87191600000003
  0
ARC
  8
_0-0_0
  6
CONTINUOUS
 62
    7
 10
215.81849186954423
 20
199.32604035582199
 40
24.774231
 50
50.280673
 51
146.58253999999999
  0
LINE
  8
_0-0_0
  6
CONTINUOUS
 62
    7
 10
231.76037886954418
 20
218.31819635582178
 11
234.54902186954405
 21
216.09018435582198
  0
LINE
  8
_0-0_0
  6
CONTINUOUS
 62
    7
 10
235.43504986954486
 20
215.41386935582204
 11
239.22998286954407
 21
213.05803435582197
  0
LINE
  8
_0-0_0
  6
CONTINUOUS
 62
    7
 10
240.40831286954472
 20
212.37775135582206
 11
241.65796186954412
 21
211.821035355822
  0
LINE
  8
_0-0_0
  6
CONTINUOUS
 62
    7
 10
245.71827186954488
 20
210.09480835582212
 11
245.90010386954418
 21
210.15462235582208
  0
ARC
  8
_0-0_0
  6
CONTINUOUS
 62
    7
 10
220.53589886954433
 20
187.20326835582182
 40
27.910099000000002
 50
69.494271999999995
 51
139.42705599999999
  0
ARC
  8
_0-0_0
  6
CONTINUOUS
 62
    7
 10
218.92186286954438
 20
190.0928243558219
 40
29.913747000000001
 50
50.544584999999998
 51
141.83916400000004
  0
LINE
  8
_0-0_0
  6
CONTINUOUS
 62
    7
 10
238.45050686954437
 20
208.64658135582204
 11
237.05352286954439
 21
209.28833535582203
  0
LINE
  8
_0-0_0
  6
CONTINUOUS
 62
    7
 10
237.05352286954439
 20
209.28833535582203
 11
235.16579386954436
 21
209.76024435582212
  0
LINE
  8
_0-0_0
  6
CONTINUOUS
 62
    7
 10
235.16579386954436
 20
209.76024435582212
 11
234.50527486954434
 21
209.97681235582218
  0
LINE
  8
_0-0_0
  6
CONTINUOUS
 62
    7
 10
231.24524986954384
 20
210.62300635582187
 11
228.14689186954456
 21
211.46425435582205
  0
LINE
  8
_0-0_0
  6
CONTINUOUS
 62
    7
 10
228.14689186954456
 20
211.46425435582205
 11
226.48691086954386
 21
211.31027735582211
  0
LINE
  8
_0-0_0
  6
CONTINUOUS
 62
    7
 10
226.48691086954386
 20
211.31027735582211
 11
225.30108186954476
 21
211.21214835582191
  0
LINE
  8
_0-0_0
  6
CONTINUOUS
 62
    7
 10
225.30108186954476
 20
211.21214835582191
 11
224.22336886954417
 21
211.21637435582193
  0
LINE
  8
_0-0_0
  6
CONTINUOUS
 62
    7
 10
224.22336886954417
 20
211.21637435582193
 11
222.59565286954421
 21
211.37337235582208
  0
LINE
  8
_0-0_0
  6
CONTINUOUS
 62
    7
 10
218.0116078695446
 20
211.3420313558222
 11
213.63184686954446
 21
211.06914235582212
  0
LINE
  8
_0-0_0
  6
CONTINUOUS
 62
    7
 10
213.63184686954446
 20
211.06914235582212
 11
211.22556586954397
 21
210.72804735582213
  0
LINE
  8
_0-0_0
  6
CONTINUOUS
 62
    7
 10
211.22556586954397
 20
210.72804735582213
 11
210.00516786954449
 21
210.48508235582176
  0
LINE
  8
_0-0_0
  6
CONTINUOUS
 62
    7
 10
208.2347288695446
 20
210.39487235582192
 11
206.88488286954453
 21
210.26784235582181
  0
LINE
  8
_0-0_0
  6
CONTINUOUS
 62
    7
 10
225.66575186954469
 20
197.98271735582216
 11
225.9017898695447
 21
199.41200835582231
  0
LINE
  8
_0-0_0
  6
CONTINUOUS
 62
    7
 10
226.39332086954437
 20
200.85860235582186
 11
226.94636086954415
 21
201.81645735582219
  0
LINE
  8
_0-0_0
  6
CONTINUOUS
 62
    7
 10
226.94636086954415
 20
201.81645735582219
 11
227.96322186954421
 21
203.57771835582207
  0
LINE
  8
_0-0_0
  6
CONTINUOUS
 62
    7
 10
227.96322186954421
 20
203.57771835582207
 11
229.38738586954423
 21
204.93900035582192
  0
LINE
  8
_0-0_0
  6
CONTINUOUS
 62
    7
 10
230.54397086954395
 20
205.83681235582208
 11
231.6246598695443
 21
206.94324235582212
  0
LINE
  8
_0-0_0
  6
CONTINUOUS
 62
    7
 10
231.6246598695443
 20
206.94324235582212
 11
232.6563668695444
 21
207.62474635582203
  0
LINE
  8
_0-0_0
  6
CONTINUOUS
 62
    7
 10
232.6563668695444
 20
207.62474635582203
 11
233.93027386954418
 21
207.96043935582202
  0
LINE
  8
_0-0_0
  6
CONTINUOUS
 62
    7
 10
233.93027386954418
 20
207.96043935582202
 11
234.92973586954486
 21
208.33095335582198
  0
LINE
  8
_0-0_0
  6
CONTINUOUS
 62
    7
 10
234.92973586954486
 20
208.33095335582198
 11
236.5943098695443
 21
208.15271535582201
  0
LINE
  8
_0-0_0
  6
CONTINUOUS
 62
    7
 10
236.5943098695443
 20
208.15271535582201
 11
238.88254486954429
 21
207.7791643558221
  0
LINE
  8
_0-0_0
  6
CONTINUOUS
 62
    7
 10
238.88254486954429
 20
207.7791643558221
 11
241.17080986954443
 21
207.40562935582216
  0
LINE
  8
_0-0_0
  6
CONTINUOUS
 62
    7
 10
241.17080986954443
 20
207.40562935582216
 11
245.71501386954424
 21
206.34757035582197
  0
LINE
  8
_0-0_0
  6
CONTINUOUS
 62
    7
 10
228.78515186954428
 20
200.919606355822
 11
229.7208208695447
 21
201.94496735582197
  0
LINE
  8
_0-0_0
  6
CONTINUOUS
 62
    7
 10
229.7208208695447
 20
201.94496735582197
 11
230.43781586954447
 21
202.93176835582199
  0
LINE
  8
_0-0_0
  6
CONTINUOUS
 62
    7
 10
231.06907986954411
 20
203.51488235582201
 11
231.82515986954422
 21
204.3143213558219
  0
LINE
  8
_0-0_0
  6
CONTINUOUS
 62
    7
 10
231.82515986954422
 20
204.3143213558219
 11
232.71423586954461
 21
204.74861635582192
  0
LINE
  8
_0-0_0
  6
CONTINUOUS
 62
    7
 10
232.71423586954461
 20
204.74861635582192
 11
234.27814786954423
 21
205.24645035582193
  0
LINE
  8
_0-0_0
  6
CONTINUOUS
 62
    7
 10
234.27814786954423
 20
205.24645035582193
 11
235.45945686954383
 21
205.67680935582212
  0
LINE
  8
_0-0_0
  6
CONTINUOUS
 62
    7
 10
235.45945686954383
 20
205.67680935582212
 11
237.9761608695444
 21
205.95412235582194
  0
LINE
  8
_0-0_0
  6
CONTINUOUS
 62
    7
 10
207.81432686954486
 20
206.43529235582218
 11
208.638827869544
 21
206.24767035582181
  0
LINE
  8
_0-0_0
  6
CONTINUOUS
 62
    7
 10
208.638827869544
 20
206.24767035582181
 11
209.77113686954453
 21
206.25310235582197
  0
LINE
  8
_0-0_0
  6
CONTINUOUS
 62
    7
 10
209.77113686954453
 20
206.25310235582197
 11
210.74520386954464
 21
205.8143213558219
  0
LINE
  8
_0-0_0
  6
CONTINUOUS
 62
    7
 10
210.74520386954464
 20
205.8143213558219
 11
211.29529886954424
 21
205.66153435582191
  0
LINE
  8
_0-0_0
  6
CONTINUOUS
 62
    7
 10
211.29529886954424
 20
205.66153435582191
 11
212.13759886954449
 21
205.50481135582186
  0
LINE
  8
_0-0_0
  6
CONTINUOUS
 62
    7
 10
212.13759886954449
 20
205.50481135582186
 11
212.85161186954429
 21
205.38095635582204
  0
LINE
  8
_0-0_0
  6
CONTINUOUS
 62
    7
 10
213.77971986954435
 20
205.62790435582201
 11
214.59740786954444
 21
205.93858835582205
  0
LINE
  8
_0-0_0
  6
CONTINUOUS
 62
    7
 10
214.59740786954444
 20
205.93858835582205
 11
215.48639986954458
 21
206.3729143558221
  0
LINE
  8
_0-0_0
  6
CONTINUOUS
 62
    7
 10
215.48639986954458
 20
206.3729143558221
 11
216.40992286954406
 21
206.95209235582206
  0
LINE
  8
_0-0_0
  6
CONTINUOUS
 62
    7
 10
216.40992286954406
 20
206.95209235582206
 11
218.20233486954476
 21
208.10077435582184
  0
LINE
  8
_0-0_0
  6
CONTINUOUS
 62
    7
 10
218.20233486954476
 20
208.10077435582184
 11
219.09134986954359
 21
208.53508535582205
  0
LINE
  8
_0-0_0
  6
CONTINUOUS
 62
    7
 10
219.09134986954359
 20
208.53508535582205
 11
220.16218886954448
 21
209.02922535582229
  0
LINE
  8
_0-0_0
  6
CONTINUOUS
 62
    7
 10
220.16218886954448
 20
209.02922535582229
 11
221.27208986954429
 21
209.33598835582188
  0
LINE
  8
_0-0_0
  6
CONTINUOUS
 62
    7
 10
192.98253986954478
 20
215.78120935582228
 11
193.07814386954487
 21
216.79720035582204
  0
LINE
  8
_0-0_0
  6
CONTINUOUS
 62
    7
 10
193.07814386954487
 20
216.79720035582204
 11
193.3779708695447
 21
217.57167535582221
  0
LINE
  8
_0-0_0
  6
CONTINUOUS
 62
    7
 10
193.3779708695447
 20
217.57167535582221
 11
194.31366286954471
 21
218.59700535582215
  0
LINE
  8
_0-0_0
  6
CONTINUOUS
 62
    7
 10
195.35522086954461
 20
219.89079835582197
 11
196.13376986954427
 21
220.38890535582209
  0
LINE
  8
_0-0_0
  6
CONTINUOUS
 62
    7
 10
196.13376986954427
 20
220.38890535582209
 11
198.14249786954406
 21
221.74229935582207
  0
LINE
  8
_0-0_0
  6
CONTINUOUS
 62
    7
 10
198.14249786954406
 20
221.74229935582207
 11
199.52003086954392
 21
222.51251735582173
  0
LINE
  8
_0-0_0
  6
CONTINUOUS
 62
    7
 10
207.47323886954473
 20
225.9133353558218
 11
207.87597186954463
 21
225.84560135582205
  0
LINE
  8
_0-0_0
  6
CONTINUOUS
 62
    7
 10
207.87597186954463
 20
225.84560135582205
 11
208.91459186954489
 21
226.02876735582186
  0
LINE
  8
_0-0_0
  6
CONTINUOUS
 62
    7
 10
208.91459186954489
 20
226.02876735582186
 11
210.33576486954462
 21
226.27940835582194
  0
LINE
  8
_0-0_0
  6
CONTINUOUS
 62
    7
 10
211.50722086954374
 20
226.09744735582194
 11
212.68850986954476
 21
226.52782135582197
  0
LINE
  8
_0-0_0
  6
CONTINUOUS
 62
    7
 10
212.68850986954476
 20
226.52782135582197
 11
213.29207886954464
 21
226.46776335582194
  0
LINE
  8
_0-0_0
  6
CONTINUOUS
 62
    7
 10
214.46583086954433
 20
226.11964935582205
 11
216.43708386954404
 21
226.21751935582188
  0
LINE
  8
_0-0_0
  6
CONTINUOUS
 62
    7
 10
216.43708386954404
 20
226.21751935582188
 11
217.46126886954426
 21
226.12062535582209
  0
LINE
  8
_0-0_0
  6
CONTINUOUS
 62
    7
 10
217.46126886954426
 20
226.12062535582209
 11
218.17528086954462
 21
225.99675535582219
  0
LINE
  8
_0-0_0
  6
CONTINUOUS
 62
    7
 10
218.17528086954462
 20
225.99675535582219
 11
219.38582886954464
 21
225.62743135582195
  0
LINE
  8
_0-0_0
  6
CONTINUOUS
 62
    7
 10
219.38582886954464
 20
225.62743135582195
 11
219.62119586954395
 21
225.77992735582211
  0
LINE
  8
_0-0_0
  6
CONTINUOUS
 62
    7
 10
219.62119586954395
 20
225.77992735582211
 11
221.19542186954459
 21
225.5302483558221
  0
LINE
  8
_0-0_0
  6
CONTINUOUS
 62
    7
 10
221.19542186954459
 20
225.5302483558221
 11
222.09120486954453
 21
225.46625235582201
  0
LINE
  8
_0-0_0
  6
CONTINUOUS
 62
    7
 10
222.09120486954453
 20
225.46625235582201
 11
223.11997486954442
 21
225.03708435582189
  0
LINE
  8
_0-0_0
  6
CONTINUOUS
 62
    7
 10
223.11997486954442
 20
225.03708435582189
 11
224.0405378695441
 21
224.5056203558222
  0
LINE
  8
_0-0_0
  6
CONTINUOUS
 62
    7
 10
224.0405378695441
 20
224.5056203558222
 11
225.69754286954412
 21
223.54894035582197
  0
LINE
  8
_0-0_0
  6
CONTINUOUS
 62
    7
 10
225.69754286954412
 20
223.54894035582197
 11
226.32577786954425
 21
223.02141335582201
  0
LINE
  8
_0-0_0
  6
CONTINUOUS
 62
    7
 10
226.32577786954425
 20
223.02141335582201
 11
227.10137486954409
 21
222.40883335582203
  0
LINE
  8
_0-0_0
  6
CONTINUOUS
 62
    7
 10
214.40117186954467
 20
86.551223355822003
 11
210.0219988695444
 21
84.63642835582209
  0
ARC
  8
_0-0_0
  6
CONTINUOUS
 62
    7
 10
209.96113186954426
 20
55.475730355821952
 40
2.9852680000000005
 50
328.18444199999999
 51
66.525092999999984
  0
ARC
  8
_0-0_0
  6
CONTINUOUS
 62
    7
 10
207.77800286954425
 20
60.064098355821898
 40
7.7620370000000003
 50
213.442947
 51
307.45001000000002
  0
ARC
  8
_0-0_0
  6
CONTINUOUS
 62
    7
 10
200.63004686954446
 20
54.863483355822154
 40
1.141078
 50
53.978533999999996
 51
184.033751
  0
ARC
  8
_0-0_0
  6
CONTINUOUS
 62
    7
 10
223.13285386954431
 20
72.405082355821833
 40
29.486106000000003
 50
216.70060599999999
 51
242.702876
  0
ARC
  8
_0-0_0
  6
CONTINUOUS
 62
    7
 10
207.57450386954497
 20
41.113777355821867
 40
5.480899
 50
24.593492999999999
 51
68.195020000000042
  0
ARC
  8
_0-0_0
  6
CONTINUOUS
 62
    7
 10
216.35152786954404
 20
61.370166355822221
 40
27.148902
 50
194.521028
 51
245.31200899999999
  0
ARC
  8
_0-0_0
  6
CONTINUOUS
 62
    7
 10
214.99915586954467
 20
54.419799355822079
 40
24.929635999999999
 50
155.24103400000004
 51
179.67092599999998
  0
ARC
  8
_0-0_0
  6
CONTINUOUS
 62
    7
 10
172.62903186954463
 20
87.960990355822105
 40
30.380763999999999
 50
247.23437899999999
 51
310.503241
  0
LINE
  8
_0-0_0
  6
CONTINUOUS
 62
    7
 10
160.87282986954415
 20
59.947017355822027
 11
158.85680786954435
 21
61.422584355821982
  0
LINE
  8
_0-0_0
  6
CONTINUOUS
 62
    7
 10
158.85680786954435
 20
61.422584355821982
 11
157.2457998695445
 21
63.090869355821724
  0
LINE
  8
_0-0_0
  6
CONTINUOUS
 62
    7
 10
157.2457998695445
 20
63.090869355821724
 11
156.22225586954482
 21
64.334438355821931
  0
LINE
  8
_0-0_0
  6
CONTINUOUS
 62
    7
 10
156.22225586954482
 20
64.334438355821931
 11
155.95801986954484
 21
65.220088355822099
  0
LINE
  8
_0-0_0
  6
CONTINUOUS
 62
    7
 10
155.95801986954484
 20
65.220088355822099
 11
155.87734586954411
 21
66.282970355822044
  0
LINE
  8
_0-0_0
  6
CONTINUOUS
 62
    7
 10
155.87734586954411
 20
66.282970355822044
 11
156.18581786954474
 21
67.126472355821988
  0
LINE
  8
_0-0_0
  6
CONTINUOUS
 62
    7
 10
156.18581786954474
 20
67.126472355821988
 11
156.79012686954502
 21
67.908454355821959
  0
LINE
  8
_0-0_0
  6
CONTINUOUS
 62
    7
 10
156.79012686954502
 20
67.908454355821959
 11
157.47040986954471
 21
68.36698135582219
  0
LINE
  8
_0-0_0
  6
CONTINUOUS
 62
    7
 10
157.47040986954471
 20
68.36698135582219
 11
157.86063786954401
 21
68.942237355822044
  0
LINE
  8
_0-0_0
  6
CONTINUOUS
 62
    7
 10
157.86063786954401
 20
68.942237355822044
 11
157.22834386954401
 21
71.555640355822106
  0
LINE
  8
_0-0_0
  6
CONTINUOUS
 62
    7
 10
157.22834386954401
 20
71.555640355822106
 11
156.66091586954462
 21
72.694099355821891
  0
LINE
  8
_0-0_0
  6
CONTINUOUS
 62
    7
 10
156.66091586954462
 20
72.694099355821891
 11
156.38933986954453
 21
73.771034355821939
  0
LINE
  8
_0-0_0
  6
CONTINUOUS
 62
    7
 10
156.38933986954453
 20
73.771034355821939
 11
156.5142788695448
 21
74.437301355822001
  0
LINE
  8
_0-0_0
  6
CONTINUOUS
 62
    7
 10
156.5142788695448
 20
74.437301355822001
 11
156.61449786954381
 21
75.129256355821781
  0
ARC
  8
_0-0_0
  6
CONTINUOUS
 62
    7
 10
160.60656386954452
 20
71.918502355822056
 40
5.1230370000000001
 50
92.450196000000005
 51
141.190843
  0
ARC
  8
_0-0_0
  6
CONTINUOUS
 62
    7
 10
160.85816586954479
 20
93.356238355821915
 40
16.326158
 50
268.34813300000002
 51
310.77754099999999
  0
ARC
  8
_0-0_0
  6
CONTINUOUS
 62
    7
 10
175.95948386954387
 20
73.338554355821998
 40
8.8483490000000007
 50
56.751812999999999
 51
120.10592600000001
  0
ARC
  8
_0-0_0
  6
CONTINUOUS
 62
    7
 10
186.45346386954407
 20
87.971847355822092
 40
9.1739829999999998
 50
232.04242599999998
 51
315.954251
  0
ARC
  8
_0-0_0
  6
CONTINUOUS
 62
    7
 10
195.42395386954468
 20
93.685172355822033
 40
12.322697
 50
190.52673400000003
 51
258.88110799999998
  0
ARC
  8
_0-0_0
  6
CONTINUOUS
 62
    7
 10
186.52286886954425
 20
85.696372355822177
 40
6.576493000000001
 50
40.346344000000002
 51
119.258081
  0
LINE
  8
_0-0_0
  6
CONTINUOUS
 62
    7
 10
200.26645186954465
 20
55.878479355822037
 11
201.66811686954406
 21
53.264022355821908
  0
LINE
  8
_0-0_0
  6
CONTINUOUS
 62
    7
 10
201.66811686954406
 20
53.264022355821908
 11
204.9803578695446
 21
50.26258835582189
  0
LINE
  8
_0-0_0
  6
CONTINUOUS
 62
    7
 10
204.9803578695446
 20
50.26258835582189
 11
206.6683608695439
 21
49.065490355822021
  0
LINE
  8
_0-0_0
  6
CONTINUOUS
 62
    7
 10
206.6683608695439
 20
49.065490355822021
 11
208.97543686954396
 21
48.267799355821808
  0
LINE
  8
_0-0_0
  6
CONTINUOUS
 62
    7
 10
208.97543686954396
 20
48.267799355821808
 11
211.18236886954401
 21
46.778183355821966
  0
LINE
  8
_0-0_0
  6
CONTINUOUS
 62
    7
 10
211.18236886954401
 20
46.778183355821966
 11
212.54712186954475
 21
45.120109355822024
  0
LINE
  8
_0-0_0
  6
CONTINUOUS
 62
    7
 10
212.54712186954475
 20
45.120109355822024
 11
213.01439986954392
 21
43.28972635582204
  0
LINE
  8
_0-0_0
  6
CONTINUOUS
 62
    7
 10
213.01439986954392
 20
43.28972635582204
 11
214.81629486954444
 21
41.607391355822074
  0
ARC
  8
_0-0_0
  6
CONTINUOUS
 62
    7
 10
219.80422486954467
 20
47.515999355822032
 40
8.3359769999999997
 50
209.62914699999999
 51
257.29319900000002
  0
ARC
  8
_0-0_0
  6
CONTINUOUS
 62
    7
 10
217.75066686954415
 20
38.408676355822081
 40
1
 50
300.425297
 51
77.293699000000018
  0
ARC
  8
_0-0_0
  6
CONTINUOUS
 62
    7
 10
210.79885386954447
 20
50.245643355821812
 40
14.727389000000002
 50
246.86322700000002
 51
300.42559700000004
  0
LINE
  8
_0-0_0
  6
CONTINUOUS
 62
    7
 10
214.81629486954444
 20
41.607391355822074
 11
215.70579086954422
 21
40.887077355822157
  0
LINE
  8
_0-0_0
  6
CONTINUOUS
 62
    7
 10
215.70579086954422
 20
40.887077355822157
 11
216.03150486954473
 21
40.62355835582207
  0
LINE
  8
_0-0_0
  6
CONTINUOUS
 62
    7
 10
216.03150486954473
 20
40.62355835582207
 11
216.60967586954484
 21
40.344627355822013
  0
LINE
  8
_0-0_0
  6
CONTINUOUS
 62
    7
 10
216.60967586954484
 20
40.344627355822013
 11
217.13510486954419
 21
40.194168355822057
  0
LINE
  8
_0-0_0
  6
CONTINUOUS
 62
    7
 10
217.13510486954419
 20
40.194168355822057
 11
217.51855786954457
 21
40.059463355822118
  0
LINE
  8
_0-0_0
  6
CONTINUOUS
 62
    7
 10
217.51855786954457
 20
40.059463355822118
 11
217.9931598695448
 21
39.986191355822029
  0
LINE
  8
_0-0_0
  6
CONTINUOUS
 62
    7
 10
217.9931598695448
 20
39.986191355822029
 11
218.74268686954474
 21
38.709900355822128
  0
ARC
  8
_0-0_0
  6
CONTINUOUS
 62
    7
 10
186.02080886954445
 20
90.360526355822003
 40
10.823149000000001
 50
236.67422400000004
 51
306.92864800000007
  0
ARC
  8
_0-0_0
  6
CONTINUOUS
 62
    7
 10
218.85460986954422
 20
71.778259355821774
 40
15.599602000000001
 50
124.486181
 51
240.40419000000003
  0
ARC
  8
_0-0_0
  6
CONTINUOUS
 62
    7
 10
200.03891286954422
 20
101.69342735582177
 40
14.495789000000002
 50
234.08115600000002
 51
268.51489900000007
  0
ARC
  8
_0-0_0
  6
CONTINUOUS
 62
    7
 10
199.92240486954415
 20
97.199180355821682
 40
10
 50
268.51484400000004
 51
301.82871
  0
ARC
  8
_0-0_0
  6
CONTINUOUS
 62
    7
 10
211.46670086954418
 20
68.117851355821813
 40
14.265333
 50
175.53140800000006
 51
265.45562999999993
  0
LINE
  8
_0-0_0
  6
CONTINUOUS
 62
    7
 10
197.6523698695446
 20
69.970130355822221
 11
198.03890586954458
 21
72.079398355821922
  0
LINE
  8
_0-0_0
  6
CONTINUOUS
 62
    7
 10
198.26298086954466
 20
72.64299735582199
 11
198.46229886954461
 21
73.232299355822079
  0
LINE
  8
_0-0_0
  6
CONTINUOUS
 62
    7
 10
198.96171186954416
 20
74.061744355821929
 11
199.25281886954417
 21
74.739661355822136
  0
LINE
  8
_0-0_0
  6
CONTINUOUS
 62
    7
 10
199.7347518695442
 20
75.40349535582186
 11
200.33906086954448
 21
76.185462355821983
  0
LINE
  8
_0-0_0
  6
CONTINUOUS
 62
    7
 10
200.60695186954399
 20
76.642554355822085
 11
201.14435186954415
 21
77.310294355821952
  0
LINE
  8
_0-0_0
  6
CONTINUOUS
 62
    7
 10
202.20003886954419
 20
78.726562355821898
 11
203.48462286954418
 21
79.96706335582212
  0
LINE
  8
_0-0_0
  6
CONTINUOUS
 62
    7
 10
205.81647086954399
 20
82.020545355821923
 11
207.94745186954424
 21
83.731193355822143
  0
ARC
  8
_0-0_0
  6
CONTINUOUS
 62
    7
 10
207.64988286954485
 20
61.503227355821991
 40
8.3188659999999999
 50
207.72295099999999
 51
278.42987499999998
  0
ARC
  8
_0-0_0
  6
CONTINUOUS
 62
    7
 10
217.38518086954446
 20
70.868171355821914
 40
16.365713
 50
153.97948400000001
 51
245.340012
  0
ARC
  8
_0-0_0
  6
CONTINUOUS
 62
    7
 10
213.91443186954439
 20
60.036796355821934
 40
21.91506
 50
145.96309600000001
 51
280.31905
  0
ARC
  8
_0-0_0
  6
CONTINUOUS
 62
    7
 10
214.45641686954423
 20
63.406097355821885
 40
20.425899000000001
 50
161.12819200000001
 51
263.80545599999999
  0
ARC
  8
_0-0_0
  6
CONTINUOUS
 62
    7
 10
175.19420186954449
 20
86.593253355822071
 40
24.774231
 50
227.41746000000001
 51
323.719357
  0
LINE
  8
_0-0_0
  6
CONTINUOUS
 62
    7
 10
195.25716786954399
 20
72.021949355822017
 11
197.42397686954428
 21
74.858390355821939
  0
LINE
  8
_0-0_0
  6
CONTINUOUS
 62
    7
 10
198.12003686954358
 20
75.728996355821891
 11
201.23241786954441
 21
78.932944355821974
  0
LINE
  8
_0-0_0
  6
CONTINUOUS
 62
    7
 10
202.21109386954504
 20
79.878074355822037
 11
203.28897386954395
 21
80.720557355821938
  0
LINE
  8
_0-0_0
  6
CONTINUOUS
 62
    7
 10
206.81104586954461
 20
83.377761355822258
 11
207.00192586954472
 21
83.363715355822023
  0
ARC
  8
_0-0_0
  6
CONTINUOUS
 62
    7
 10
176.83876386954489
 20
99.497229355822128
 40
27.910099000000002
 50
234.57295700000003
 51
304.50559700000008
  0
ARC
  8
_0-0_0
  6
CONTINUOUS
 62
    7
 10
175.97167586954401
 20
96.302970355822254
 40
29.913747000000001
 50
232.16080700000003
 51
323.45549299999999
  0
LINE
  8
_0-0_0
  6
CONTINUOUS
 62
    7
 10
199.40881686954435
 20
83.024757355821976
 11
198.20863686954453
 21
82.064139355822135
  0
LINE
  8
_0-0_0
  6
CONTINUOUS
 62
    7
 10
198.20863686954453
 20
82.064139355822135
 11
196.49108486954447
 21
81.149528355821985
  0
LINE
  8
_0-0_0
  6
CONTINUOUS
 62
    7
 10
196.49108486954447
 20
81.149528355821985
 11
195.90256886954467
 21
80.779609355822004
  0
LINE
  8
_0-0_0
  6
CONTINUOUS
 62
    7
 10
192.89570186954461
 20
79.363929355822165
 11
190.09295986954385
 21
77.798133355822074
  0
LINE
  8
_0-0_0
  6
CONTINUOUS
 62
    7
 10
190.09295986954385
 20
77.798133355822074
 11
188.44501886954458
 21
77.545943355822146
  0
LINE
  8
_0-0_0
  6
CONTINUOUS
 62
    7
 10
188.44501886954458
 20
77.545943355822146
 11
187.27064086954397
 21
77.354270355821882
  0
LINE
  8
_0-0_0
  6
CONTINUOUS
 62
    7
 10
187.27064086954397
 20
77.354270355821882
 11
186.22599386954425
 21
77.089469355822075
  0
LINE
  8
_0-0_0
  6
CONTINUOUS
 62
    7
 10
186.22599386954425
 20
77.089469355822075
 11
184.68459686954429
 21
76.543372355822157
  0
LINE
  8
_0-0_0
  6
CONTINUOUS
 62
    7
 10
180.22913686954416
 20
75.464790355822061
 11
175.91340986954401
 21
74.669944355822054
  0
LINE
  8
_0-0_0
  6
CONTINUOUS
 62
    7
 10
175.91340986954401
 20
74.669944355822054
 11
173.49612786954458
 21
74.418800355821986
  0
LINE
  8
_0-0_0
  6
CONTINUOUS
 62
    7
 10
173.49612786954458
 20
74.418800355821986
 11
172.25318486954438
 21
74.359336355822052
  0
LINE
  8
_0-0_0
  6
CONTINUOUS
 62
    7
 10
170.5134848695443
 20
74.018531355822233
 11
169.17303086954416
 21
73.815238355821975
  0
LINE
  8
_0-0_0
  6
CONTINUOUS
 62
    7
 10
184.4239688695443
 20
90.278930355822013
 11
184.99882086954403
 21
88.949225355822136
  0
LINE
  8
_0-0_0
  6
CONTINUOUS
 62
    7
 10
185.82565686954422
 20
87.664527355821974
 11
186.59400486954382
 21
86.868873355821961
  0
LINE
  8
_0-0_0
  6
CONTINUOUS
 62
    7
 10
186.59400486954382
 20
86.868873355821961
 11
188.00672486954409
 21
85.405921355822102
  0
LINE
  8
_0-0_0
  6
CONTINUOUS
 62
    7
 10
188.00672486954409
 20
85.405921355822102
 11
189.71797486954438
 21
84.429648355821882
  0
LINE
  8
_0-0_0
  6
CONTINUOUS
 62
    7
 10
191.05737686954399
 20
83.838294355821972
 11
192.37360686954435
 21
83.026176355821917
  0
LINE
  8
_0-0_0
  6
CONTINUOUS
 62
    7
 10
192.37360686954435
 20
83.026176355821917
 11
193.53953886954423
 21
82.614493355822106
  0
LINE
  8
_0-0_0
  6
CONTINUOUS
 62
    7
 10
193.53953886954423
 20
82.614493355822106
 11
194.85686086954411
 21
82.596992355822067
  0
LINE
  8
_0-0_0
  6
CONTINUOUS
 62
    7
 10
194.85686086954411
 20
82.596992355822067
 11
195.91628586954448
 21
82.479270355822109
  0
LINE
  8
_0-0_0
  6
CONTINUOUS
 62
    7
 10
195.91628586954448
 20
82.479270355822109
 11
197.48827686954428
 21
83.054908355822135
  0
LINE
  8
_0-0_0
  6
CONTINUOUS
 62
    7
 10
197.48827686954428
 20
83.054908355822135
 11
199.61815986954389
 21
83.970924355821808
  0
LINE
  8
_0-0_0
  6
CONTINUOUS
 62
    7
 10
199.61815986954389
 20
83.970924355821808
 11
201.74807286954365
 21
84.886924355821975
  0
LINE
  8
_0-0_0
  6
CONTINUOUS
 62
    7
 10
201.74807286954365
 20
84.886924355821975
 11
205.90133986954424
 21
87.012923355822068
  0
LINE
  8
_0-0_0
  6
CONTINUOUS
 62
    7
 10
188.16125886954433
 20
88.183951355822046
 11
189.31717286954427
 21
87.4154123558219
  0
LINE
  8
_0-0_0
  6
CONTINUOUS
 62
    7
 10
189.31717286954427
 20
87.4154123558219
 11
190.25161286954426
 21
86.631385355821976
  0
LINE
  8
_0-0_0
  6
CONTINUOUS
 62
    7
 10
191.00516086954485
 20
86.218268355822147
 11
191.93221586954405
 21
85.625526355822103
  0
LINE
  8
_0-0_0
  6
CONTINUOUS
 62
    7
 10
191.93221586954405
 20
85.625526355822103
 11
192.89989086954392
 21
85.419181355822047
  0
LINE
  8
_0-0_0
  6
CONTINUOUS
 62
    7
 10
192.89989086954392
 20
85.419181355822047
 11
194.53782186954413
 21
85.314506355822004
  0
LINE
  8
_0-0_0
  6
CONTINUOUS
 62
    7
 10
194.53782186954413
 20
85.314506355822004
 11
195.78811186954408
 21
85.182685355822059
  0
LINE
  8
_0-0_0
  6
CONTINUOUS
 62
    7
 10
195.78811186954408
 20
85.182685355822059
 11
198.29719086954447
 21
85.52249135582224
  0
LINE
  8
_0-0_0
  6
CONTINUOUS
 62
    7
 10
169.14768586954415
 20
77.758781355822066
 11
169.90229386954434
 21
78.140304355822082
  0
LINE
  8
_0-0_0
  6
CONTINUOUS
 62
    7
 10
169.90229386954434
 20
78.140304355822082
 11
171.00232286954451
 21
78.408981355822107
  0
LINE
  8
_0-0_0
  6
CONTINUOUS
 62
    7
 10
171.00232286954451
 20
78.408981355822107
 11
171.8412668695446
 21
79.070373355821857
  0
LINE
  8
_0-0_0
  6
CONTINUOUS
 62
    7
 10
171.8412668695446
 20
79.070373355821857
 11
172.33805486954407
 21
79.351707355821873
  0
LINE
  8
_0-0_0
  6
CONTINUOUS
 62
    7
 10
172.33805486954407
 20
79.351707355821873
 11
173.11743586954435
 21
79.707526355821983
  0
LINE
  8
_0-0_0
  6
CONTINUOUS
 62
    7
 10
173.11743586954435
 20
79.707526355821983
 11
173.78031486954478
 21
80.000480355821992
  0
LINE
  8
_0-0_0
  6
CONTINUOUS
 62
    7
 10
174.7405658695443
 20
79.985389355822008
 11
175.60910386954401
 21
79.88170535582185
  0
LINE
  8
_0-0_0
  6
CONTINUOUS
 62
    7
 10
175.60910386954401
 20
79.88170535582185
 11
176.57677786954446
 21
79.675361355821906
  0
LINE
  8
_0-0_0
  6
CONTINUOUS
 62
    7
 10
176.57677786954446
 20
79.675361355821906
 11
177.61298786954467
 21
79.336814355821843
  0
LINE
  8
_0-0_0
  6
CONTINUOUS
 62
    7
 10
177.61298786954467
 20
79.336814355821843
 11
179.63006986954406
 21
78.65589135582195
  0
LINE
  8
_0-0_0
  6
CONTINUOUS
 62
    7
 10
179.63006986954406
 20
78.65589135582195
 11
180.5977438695445
 21
78.449546355821894
  0
LINE
  8
_0-0_0
  6
CONTINUOUS
 62
    7
 10
180.5977438695445
 20
78.449546355821894
 11
181.75625186954403
 21
78.229118355822266
  0
LINE
  8
_0-0_0
  6
CONTINUOUS
 62
    7
 10
181.75625186954403
 20
78.229118355822266
 11
182.90745886954483
 21
78.200011355821971
  0
LINE
  8
_0-0_0
  6
CONTINUOUS
 62
    7
 10
157.01743686954433
 20
65.102367355822025
 11
157.3560148695442
 21
64.139705355822116
  0
LINE
  8
_0-0_0
  6
CONTINUOUS
 62
    7
 10
157.3560148695442
 20
64.139705355822116
 11
157.83431686954373
 21
63.460781355822064
  0
LINE
  8
_0-0_0
  6
CONTINUOUS
 62
    7
 10
157.83431686954373
 20
63.460781355822064
 11
158.99023086954458
 21
62.692241355822034
  0
LINE
  8
_0-0_0
  6
CONTINUOUS
 62
    7
 10
160.31383886954427
 20
61.688823355822024
 11
161.18973886954427
 21
61.39387135582183
  0
LINE
  8
_0-0_0
  6
CONTINUOUS
 62
    7
 10
161.18973886954427
 20
61.39387135582183
 11
163.46625886954462
 21
60.566680355821973
  0
LINE
  8
_0-0_0
  6
CONTINUOUS
 62
    7
 10
163.46625886954462
 20
60.566680355821973
 11
164.98919286954424
 21
60.152568355822041
  0
LINE
  8
_0-0_0
  6
CONTINUOUS
 62
    7
 10
173.52890386954459
 20
58.776813355822014
 11
173.90332386954469
 21
58.940002355821889
  0
LINE
  8
_0-0_0
  6
CONTINUOUS
 62
    7
 10
173.90332386954469
 20
58.940002355821889
 11
174.95534886954374
 21
59.013523355822144
  0
LINE
  8
_0-0_0
  6
CONTINUOUS
 62
    7
 10
174.95534886954374
 20
59.013523355822144
 11
176.39496986954418
 21
59.11413135582211
  0
LINE
  8
_0-0_0
  6
CONTINUOUS
 62
    7
 10
177.4876288695441
 20
59.574100355822111
 11
178.73791886954405
 21
59.442291355821908
  0
LINE
  8
_0-0_0
  6
CONTINUOUS
 62
    7
 10
178.73791886954405
 20
59.442291355821908
 11
179.30904786954397
 21
59.646614355821839
  0
LINE
  8
_0-0_0
  6
CONTINUOUS
 62
    7
 10
180.3636888695446
 20
60.26829535582192
 11
182.30009786954452
 21
60.65024135582189
  0
LINE
  8
_0-0_0
  6
CONTINUOUS
 62
    7
 10
182.30009786954452
 20
60.65024135582189
 11
183.27036686954398
 21
60.992015355821877
  0
LINE
  8
_0-0_0
  6
CONTINUOUS
 62
    7
 10
183.27036686954398
 20
60.992015355821877
 11
183.93326886954401
 21
61.284950355822275
  0
LINE
  8
_0-0_0
  6
CONTINUOUS
 62
    7
 10
183.93326886954401
 20
61.284950355822275
 11
185.01850486954481
 21
61.936164355822029
  0
LINE
  8
_0-0_0
  6
CONTINUOUS
 62
    7
 10
185.01850486954481
 20
61.936164355822029
 11
185.28374886954407
 21
61.845104355822059
  0
LINE
  8
_0-0_0
  6
CONTINUOUS
 62
    7
 10
185.28374886954407
 20
61.845104355822059
 11
186.75080486954448
 21
62.46821535582194
  0
LINE
  8
_0-0_0
  6
CONTINUOUS
 62
    7
 10
186.75080486954448
 20
62.46821535582194
 11
187.60454186954394
 21
62.747066355821971
  0
LINE
  8
_0-0_0
  6
CONTINUOUS
 62
    7
 10
187.60454186954394
 20
62.747066355821971
 11
188.4988968695443
 21
63.412330355822178
  0
LINE
  8
_0-0_0
  6
CONTINUOUS
 62
    7
 10
188.4988968695443
 20
63.412330355822178
 11
189.26349986954392
 21
64.150730355822134
  0
LINE
  8
_0-0_0
  6
CONTINUOUS
 62
    7
 10
189.26349986954392
 20
64.150730355822134
 11
190.63986586954434
 21
65.479850355822236
  0
LINE
  8
_0-0_0
  6
CONTINUOUS
 62
    7
 10
190.63986586954434
 20
65.479850355822236
 11
191.12187586954406
 21
66.143707355822016
  0
LINE
  8
_0-0_0
  6
CONTINUOUS
 62
    7
 10
191.12187586954406
 20
66.143707355822016
 11
191.72619186954489
 21
66.92568135582178
  0
ARC
  8
_0-0_0
  6
CONTINUOUS
 62
    7
 10
226.9301858695444
 20
47.317367355821943
 40
46.745345
 50
94.600784000000004
 51
117.70660300000002
  0
ENDSEC
  0
EOF
