  0
SECTION
  2
HEADER
  9
$ACADVER
  1
AC1009
  9
$INSBASE
 10
0
 20
0
 30
0
  9
$EXTMIN
 10
0
 20
0
  9
$EXTMAX
 10
420
 20
297
  9
$LIMMIN
 10
0
 20
0
  9
$LIMMAX
 10
420
 20
297
  9
$LTSCALE
 40
1
  0
ENDSEC
  0
SECTION
  2
TABLES
  0
TABLE
  2
LTYPE
 70
     9
  0
LTYPE
  2
CONTINUOUS
 70
    64
  3
実線
 72
    65
 73
     0
 40
0.0
  0
LTYPE
  2
DASHED1
 70
    64
  3
--  --  --  --  --  --  --  --  
 72
    65
 73
     2
 40
2.5
 49
1.25
 49
-1.25
  0
LTYPE
  2
DASHED2
 70
    64
  3
----    ----    ----    ----    
 72
    65
 73
     2
 40
5.0
 49
2.5
 49
-2.5
  0
LTYPE
  2
DASHED3
 70
    64
  3
------  ------  ------  ------  
 72
    65
 73
     2
 40
5.0
 49
3.75
 49
-1.25
  0
LTYPE
  2
CENTER1
 70
    64
  3
----- - ----- - ----- - ----- - 
 72
    65
 73
     4
 40
10.0
 49
6.25
 49
-1.25
 49
1.25
 49
-1.25
  0
LTYPE
  2
CENTER2
 70
    64
  3
----------  --  ----------  --  
 72
    65
 73
     4
 40
20.0
 49
12.5
 49
-2.5
 49
2.5
 49
-2.5
  0
LTYPE
  2
PHANTOM1
 70
    64
  3
--- - - --- - - --- - - --- - - 
 72
    65
 73
     6
 40
10.0
 49
3.25
 49
-1.25
 49
1.25
 49
-1.25
 49
1.25
 49
-1.25
  0
LTYPE
  2
PHANTOM2
 70
    64
  3
--------  -  -  --------  -  -  
 72
    65
 73
     6
 40
20.0
 49
10.0
 49
-2.5
 49
1.25
 49
-2.5
 49
1.25
 49
-2.5
  0
LTYPE
  2
DOT
 70
    64
  3
-   -   -   -   -   -   -   -   
 72
    65
 73
     2
 40
2.5
 49
0.625
 49
-1.875
  0
LTYPE
  2
DUMMY
 70
    64
  3
ダミー
 72
    65
 73
     0
 40
0.0
  0
LTYPE
  2
RAND1
 70
    64
  3
ランダム線1
 72
    65
 73
     4
 40
10.0
 49
1.0
 49
-2.0
 49
3.0
 49
-4.0
  0
LTYPE
  2
RAND2
 70
    64
  3
ランダム線2
 72
    65
 73
     4
 40
14.0
 49
2.0
 49
-3.0
 49
4.0
 49
-5.0
  0
LTYPE
  2
RAND3
 70
    64
  3
ランダム線3
 72
    65
 73
     4
 40
18.0
 49
3.0
 49
-4.0
 49
5.0
 49
-6.0
  0
LTYPE
  2
RAND4
 70
    64
  3
ランダム線4
 72
    65
 73
     4
 40
22.0
 49
4.0
 49
-5.0
 49
6.0
 49
-7.0
  0
LTYPE
  2
RAND5
 70
    64
  3
ランダム線5
 72
    65
 73
     4
 40
26.0
 49
5.0
 49
-6.0
 49
7.0
 49
-8.0
  0
LTYPE
  2
LONG1
 70
    64
  3
----------  --  ----------  --  
 72
    65
 73
     4
 40
40.0
 49
32.5
 49
-2.5
 49
2.5
 49
-2.5
  0
LTYPE
  2
LONG2
 70
    64
  3
--------  -  -  --------  -  -  
 72
    65
 73
     6
 40
40.0
 49
30.0
 49
-2.5
 49
1.25
 49
-2.5
 49
1.25
 49
-2.5
  0
LTYPE
  2
LONG3
 70
    64
  3
+++++++++++++++..+++++++++++++++
 72
    65
 73
     2
 40
40.0
 49
37.5
 49
-2.5
  0
LTYPE
  2
LONG4
 70
    64
  3
+++++++++++++++..+++++++++++++++
 72
    65
 73
     2
 40
80.0
 49
75.0
 49
-5.0
  0
LTYPE
  2
LONG5
 70
    64
  3
----------  --  ----------  --  
 72
    65
 73
     4
 40
60.0
 49
37.5
 49
-7.5
 49
7.5
 49
-7.5
  0
LTYPE
  2
dashed
 70
   64
  3
-------   -------------   ------
 72
   65
 73
    2
 40
7.5
 49
6
 49
-1.5
  0
LTYPE
  2
dashed_spaced
 70
   64
  3
----        --------        ----
 72
   65
 73
    2
 40
12
 49
6
 49
-6
  0
LTYPE
  2
long_dashed_dotted
 70
   64
  3
------------- --- --------------
 72
   65
 73
    4
 40
15.25
 49
12
 49
-1.5
 49
0.25
 49
-1.5
  0
LTYPE
  2
long_dashed_double-dotted
 70
   64
  3
----------- --- --- ------------
 72
   65
 73
    6
 40
17
 49
12
 49
-1.5
 49
0.25
 49
-1.5
 49
0.25
 49
-1.5
  0
LTYPE
  2
long_dashed_triplicate-dotted
 70
   64
  3
--------- --- --- --- ----------
 72
   65
 73
    8
 40
18.75
 49
12
 49
-1.5
 49
0.25
 49
-1.5
 49
0.25
 49
-1.5
 49
0.25
 49
-1.5
  0
LTYPE
  2
dotted
 70
   64
  3
   -       -       -       -    
 72
   65
 73
    2
 40
1.75
 49
0.25
 49
-1.5
  0
LTYPE
  2
chain
 70
   64
  3
-------------- -- --------------
 72
   65
 73
    4
 40
18.5
 49
12
 49
-1.5
 49
3.5
 49
-1.5
  0
LTYPE
  2
chain_double_dash
 70
   64
  3
------------ -- -- -------------
 72
   65
 73
    6
 40
23.5
 49
12
 49
-1.5
 49
3.5
 49
-1.5
 49
3.5
 49
-1.5
  0
LTYPE
  2
dashed_dotted
 70
   64
  3
-----------     -     ----------
 72
   65
 73
    4
 40
9.25
 49
6
 49
-1.5
 49
0.25
 49
-1.5
  0
LTYPE
  2
double-dashed_dotted
 70
   64
  3
------   -----------   -   -----
 72
   65
 73
    6
 40
16.75
 49
6
 49
-1.5
 49
6
 49
-1.5
 49
0.25
 49
-1.5
  0
LTYPE
  2
dashed_double-dotted
 70
   64
  3
---------    -    -    ---------
 72
   65
 73
    6
 40
11
 49
6
 49
-1.5
 49
0.25
 49
-1.5
 49
0.25
 49
-1.5
  0
LTYPE
  2
double-dashed_double-dotted
 70
   64
  3
-----   ---------   -   -   ----
 72
   65
 73
    8
 40
18.5
 49
6
 49
-1.5
 49
6
 49
-1.5
 49
0.25
 49
-1.5
 49
0.25
 49
-1.5
  0
LTYPE
  2
dashed_triplicate-dotted
 70
   64
  3
-------    -    -    -    ------
 72
   65
 73
    8
 40
12.75
 49
6
 49
-1.5
 49
0.25
 49
-1.5
 49
0.25
 49
-1.5
 49
0.25
 49
-1.5
  0
LTYPE
  2
double-dashed_triplicate-dotted
 70
   64
  3
-----  ---------  -  -  -  -----
 72
   65
 73
   10
 40
20.25
 49
6
 49
-1.5
 49
6
 49
-1.5
 49
0.25
 49
-1.5
 49
0.25
 49
-1.5
 49
0.25
 49
-1.5
  0
LTYPE
  2
undefined
 70
   64
  3
--------------------------------
 72
   65
 73
    0
 40
0
  0
LTYPE
  2
BORDER
 70
   64
  3
----     --------     -     ----
 72
   65
 73
    0
 40
0
  0
LTYPE
  2
BORDER2
 70
   64
  3
----     --------     -     ----
 72
   65
 73
    0
 40
0
  0
LTYPE
  2
BORDERX2
 70
   64
  3
----     --------     -     ----
 72
   65
 73
    0
 40
0
  0
LTYPE
  2
CENTER
 70
   64
  3
----------    ----    ----------
 72
   65
 73
    0
 40
0
  0
LTYPE
  2
CENTER2_21
 70
   64
  3
----------    ----    ----------
 72
   65
 73
    0
 40
0
  0
LTYPE
  2
CENTERX2
 70
   64
  3
----------    ----    ----------
 72
   65
 73
    0
 40
0
  0
LTYPE
  2
DASHDOT
 70
   64
  3
--------        -        -------
 72
   65
 73
    0
 40
0
  0
LTYPE
  2
DASHDOT2
 70
   64
  3
--------        -        -------
 72
   65
 73
    0
 40
0
  0
LTYPE
  2
DASHDOTX2
 70
   64
  3
--------        -        -------
 72
   65
 73
    0
 40
0
  0
LTYPE
  2
DASHED
 70
   64
  3
------     -----------     -----
 72
   65
 73
    0
 40
0
  0
LTYPE
  2
DASHED2_27
 70
   64
  3
------     -----------     -----
 72
   65
 73
    0
 40
0
  0
LTYPE
  2
DASHEDX2
 70
   64
  3
------     -----------     -----
 72
   65
 73
    0
 40
0
  0
LTYPE
  2
DIVIDE
 70
   64
  3
------      -      -      ------
 72
   65
 73
    0
 40
0
  0
LTYPE
  2
DIVIDE2
 70
   64
  3
------      -      -      ------
 72
   65
 73
    0
 40
0
  0
LTYPE
  2
DIVIDEX2
 70
   64
  3
------      -      -      ------
 72
   65
 73
    0
 40
0
  0
LTYPE
  2
DOT_32
 70
   64
  3
-               -               
 72
   65
 73
    0
 40
0
  0
ENDTAB
  0
TABLE
  2
STYLE
  5
3
100
AcDbSymbolTable
 70
     1
  0
STYLE
  5
10
100
AcDbSymbolTableRecord
100
AcDbTextStyleTableRecord
  2
STANDARD
 70
     0
 40
0.0
 41
1.0
 50
0.0
 71
     0
 42
0.2
  3
txt
  4
bigfont.shx
  0
STYLE
  5
26
100
AcDbSymbolTableRecord
100
AcDbTextStyleTableRecord
  2
TATEGAKI
 70
    68
 40
0.0
 41
1.0
 50
0.0
 71
     0
 42
1.0
  3
txt
  4
bigfont.shx
  0
ENDTAB
  0
TABLE
  2
LAYER
 70
    2
  0
LAYER
  2
_0-0_0
 70
   64
 62
    7
  6
CONTINUOUS
  0
LAYER
  2
ADD_LINE
 70
   64
 62
    7
  6
CONTINUOUS
  0
ENDTAB
  0
ENDSEC
  0
SECTION
  2
BLOCKS
  0
ENDSEC
  0
SECTION
  2
ENTITIES
  0
LINE
  8
_0-0_0
  6
CONTINUOUS
 62
    7
 10
226.59938
 20
171.329621
 11
227.82539299999999
 21
173.552989
  0
LINE
  8
_0-0_0
  6
CONTINUOUS
 62
    7
 10
227.98530500000001
 20
175.640243
 11
228.358441
 21
177.863618
  0
LINE
  8
_0-0_0
  6
CONTINUOUS
 62
    7
 10
228.678271
 20
175.14111800000001
 11
229.211319
 21
177.00148899999999
  0
LINE
  8
_0-0_0
  6
CONTINUOUS
 62
    7
 10
233.00325699999999
 20
182.79306800000001
 11
233.05916400000001
 21
182.233566
  0
LINE
  8
_0-0_0
  6
CONTINUOUS
 62
    7
 10
229.37123099999999
 20
179.95086499999999
 11
228.51835199999999
 21
182.355738
  0
LINE
  8
_0-0_0
  6
CONTINUOUS
 62
    7
 10
227.66547399999999
 20
184.62448899999998
 11
227.29234
 21
185.985736
  0
LINE
  8
_0-0_0
  6
CONTINUOUS
 62
    7
 10
226.97251499999999
 20
187.392359
 11
225.74650199999999
 21
189.615734
  0
ARC
  8
_0-0_0
  6
CONTINUOUS
 62
    7
 10
217.48366799999999
 20
167.322203
 40
3.1760299999999999
 50
140.440236
 51
263.54001099999994
  0
ARC
  8
_0-0_0
  6
CONTINUOUS
 62
    7
 10
207.24865199999999
 20
174.927257
 40
8.1216539999999995
 50
347.97619199999997
 51
11.390641999999978
  0
ARC
  8
_0-0_0
  6
CONTINUOUS
 62
    7
 10
209.542079
 20
173.22592900000001
 40
6.7256919999999996
 50
324.757631
 51
11.791273000000013
  0
ARC
  8
_0-0_0
  6
CONTINUOUS
 62
    7
 10
220.57390000000001
 20
169.75278700000001
 40
6.4102930000000002
 50
147.09280600000002
 51
195.37282400000004
  0
LINE
  8
_0-0_0
  6
CONTINUOUS
 62
    7
 10
223.66761099999999
 20
180.49536599999999
 11
223.34778
 21
182.03811000000002
  0
LINE
  8
_0-0_0
  6
CONTINUOUS
 62
    7
 10
222.281679
 20
183.943859
 11
221.74863099999999
 21
184.98748599999999
  0
LINE
  8
_0-0_0
  6
CONTINUOUS
 62
    7
 10
213.48636999999999
 20
183.39936499999999
 11
214.17933299999999
 21
182.03811000000002
  0
LINE
  8
_0-0_0
  6
CONTINUOUS
 62
    7
 10
215.192127
 20
180.49536599999999
 11
215.56526099999999
 21
179.63323700000001
  0
LINE
  8
_0-0_0
  6
CONTINUOUS
 62
    7
 10
224.520489
 20
190.341734
 11
222.97464400000001
 21
191.88448499999998
  0
LINE
  8
_0-0_0
  6
CONTINUOUS
 62
    7
 10
217.43093300000001
 20
190.47786300000001
 11
216.098309
 21
191.521489
  0
LINE
  8
_0-0_0
  6
CONTINUOUS
 62
    7
 10
215.192127
 20
193.24573100000001
 11
213.48636999999999
 21
194.10786000000002
  0
LINE
  8
_0-0_0
  6
CONTINUOUS
 62
    7
 10
219.882957
 20
187.573857
 11
219.18999299999999
 21
188.61748399999999
  0
LINE
  8
_0-0_0
  6
CONTINUOUS
 62
    7
 10
201.386154
 20
188.07298900000001
 11
208.475705
 21
187.70998600000001
  0
LINE
  8
_0-0_0
  6
CONTINUOUS
 62
    7
 10
209.16867199999999
 20
194.83386000000002
 11
203.09191000000001
 21
195.69598100000002
  0
LINE
  8
_0-0_0
  6
CONTINUOUS
 62
    7
 10
196.21557799999999
 20
195.51448399999998
 11
199.147347
 21
196.013608
  0
LINE
  8
_0-0_0
  6
CONTINUOUS
 62
    7
 10
209.48849999999999
 20
186.84786400000002
 11
211.407479
 21
184.98748599999999
  0
LINE
  8
_0-0_0
  6
CONTINUOUS
 62
    7
 10
212.10044099999999
 20
193.10961
 11
209.48849999999999
 21
194.652355
  0
ARC
  8
_0-0_0
  6
CONTINUOUS
 62
    7
 10
209.92380499999999
 20
177.23574300000001
 40
12.90273
 50
307.64329800000002
 51
53.248172000000004
  0
ARC
  8
_0-0_0
  6
CONTINUOUS
 62
    7
 10
214.802695
 20
178.70484500000001
 40
13.468730000000001
 50
283.57470499999999
 51
30.233112000000045
  0
LINE
  8
_0-0_0
  6
CONTINUOUS
 62
    7
 10
225.90641399999998
 20
190.65935999999999
 11
224.200658
 21
192.06598400000001
  0
ARC
  8
_0-0_0
  6
CONTINUOUS
 62
    7
 10
218.25493900000001
 20
179.22996499999999
 40
15.105852000000001
 50
265.71526299999999
 51
12.195264999999997
  0
LINE
  8
_0-0_0
  6
CONTINUOUS
 62
    7
 10
215.03221099999999
 20
198.96298400000001
 11
213.113235
 21
199.64360699999997
  0
LINE
  8
_0-0_0
  6
CONTINUOUS
 62
    7
 10
218.123895
 20
198.96298400000001
 11
216.098309
 21
199.64360699999997
  0
LINE
  8
_0-0_0
  6
CONTINUOUS
 62
    7
 10
207.94265899999999
 20
201.18635799999998
 11
202.23903200000001
 21
202.04847999999998
  0
LINE
  8
_0-0_0
  6
CONTINUOUS
 62
    7
 10
221.10897
 20
194.470857
 11
218.123895
 21
197.420231
  0
ARC
  8
_0-0_0
  6
CONTINUOUS
 62
    7
 10
127.269587
 20
157.40965299999999
 40
188.28295900000001
 50
316.89530100000007
 51
22.33599300000002
  0
ARC
  8
_0-0_0
  6
CONTINUOUS
 62
    7
 10
127.269587
 20
157.40965299999999
 40
177.17184800000001
 50
316.87271700000002
 51
22.326704000000007
  0
ARC
  8
_0-0_0
  6
CONTINUOUS
 62
    7
 10
195.72485800000001
 20
82.357382999999999
 40
83.755966999999998
 50
218.924836
 51
255.89133900000002
  0
ARC
  8
_0-0_0
  6
CONTINUOUS
 62
    7
 10
179.26369600000001
 20
52.423833000000002
 40
42.326064000000002
 50
98.917991999999998
 51
229.76675000000003
  0
LINE
  8
_0-0_0
  6
CONTINUOUS
 62
    7
 10
188.43306000000001
 20
172.191743
 11
188.96610799999999
 21
176.00323900000001
  0
LINE
  8
_0-0_0
  6
CONTINUOUS
 62
    7
 10
190.13881499999999
 20
174.59661599999998
 11
190.51195100000001
 21
175.45874499999999
  0
LINE
  8
_0-0_0
  6
CONTINUOUS
 62
    7
 10
191.89787999999999
 20
176.86536799999999
 11
192.59084200000001
 21
178.90723800000001
  0
LINE
  8
_0-0_0
  6
CONTINUOUS
 62
    7
 10
187.420265
 20
176.683863
 11
185.661205
 21
174.278989
  0
LINE
  8
_0-0_0
  6
CONTINUOUS
 62
    7
 10
186.514083
 20
173.552989
 11
185.12815699999999
 21
171.51111900000001
  0
ARC
  8
_0-0_0
  6
CONTINUOUS
 62
    7
 10
167.11094
 20
191.96165400000001
 40
30.296756999999999
 50
297.30890399999998
 51
329.76647200000002
  0
LINE
  8
_0-0_0
  6
CONTINUOUS
 62
    7
 10
186.194254
 20
170.96661799999998
 11
184.435192
 21
168.561745
  0
LINE
  8
_0-0_0
  6
CONTINUOUS
 62
    7
 10
170.30938900000001
 20
169.786869
 11
167.85736500000002
 21
168.74324300000001
  0
LINE
  8
_0-0_0
  6
CONTINUOUS
 62
    7
 10
175.47996899999998
 20
172.191743
 11
173.56098900000001
 21
171.329621
  0
LINE
  8
_0-0_0
  6
CONTINUOUS
 62
    7
 10
171.69531899999998
 20
176.86536799999999
 11
169.08337499999999
 21
175.45874499999999
  0
LINE
  8
_0-0_0
  6
CONTINUOUS
 62
    7
 10
183.42239899999998
 20
176.320866
 11
177.55885799999999
 21
174.09749099999999
  0
LINE
  8
_0-0_0
  6
CONTINUOUS
 62
    7
 10
187.74009699999999
 20
180.63148799999999
 11
188.43306000000001
 21
183.081737
  0
LINE
  8
_0-0_0
  6
CONTINUOUS
 62
    7
 10
189.126025
 20
182.53723600000001
 11
189.97890200000001
 21
184.26148599999999
  0
LINE
  8
_0-0_0
  6
CONTINUOUS
 62
    7
 10
188.11323200000001
 20
183.58086299999999
 11
188.592973
 21
185.123614
  0
LINE
  8
_0-0_0
  6
CONTINUOUS
 62
    7
 10
188.75289000000001
 20
185.668116
 11
190.51195100000001
 21
187.89148399999999
  0
LINE
  8
_0-0_0
  6
CONTINUOUS
 62
    7
 10
188.592973
 20
187.02936299999999
 11
188.96610799999999
 21
187.89148399999999
  0
LINE
  8
_0-0_0
  6
CONTINUOUS
 62
    7
 10
192.057794
 20
185.30511300000001
 11
193.28380799999999
 21
186.711736
  0
LINE
  8
_0-0_0
  6
CONTINUOUS
 62
    7
 10
192.910673
 20
181.493616
 11
194.456514
 21
183.39936499999999
  0
LINE
  8
_0-0_0
  6
CONTINUOUS
 62
    7
 10
193.97677099999999
 20
180.63148799999999
 11
194.82964899999999
 21
182.03811000000002
  0
LINE
  8
_0-0_0
  6
CONTINUOUS
 62
    7
 10
186.72730300000001
 20
183.217859
 11
187.20704799999999
 21
185.30511300000001
  0
LINE
  8
_0-0_0
  6
CONTINUOUS
 62
    7
 10
186.514083
 20
179.270241
 11
186.88721699999999
 21
181.17598900000002
  0
LINE
  8
_0-0_0
  6
CONTINUOUS
 62
    7
 10
182.56952000000001
 20
184.80598700000002
 11
183.95544799999999
 21
187.02936299999999
  0
LINE
  8
_0-0_0
  6
CONTINUOUS
 62
    7
 10
184.64841200000001
 20
182.03811000000002
 11
184.27527699999999
 21
180.99449099999998
  0
LINE
  8
_0-0_0
  6
CONTINUOUS
 62
    7
 10
190.352037
 20
193.24573100000001
 11
194.13668699999999
 21
194.470857
  0
LINE
  8
_0-0_0
  6
CONTINUOUS
 62
    7
 10
182.03647000000001
 20
194.969989
 11
183.262483
 21
195.69598100000002
  0
LINE
  8
_0-0_0
  6
CONTINUOUS
 62
    7
 10
181.71664100000001
 20
192.928111
 11
182.88935000000001
 21
193.608735
  0
LINE
  8
_0-0_0
  6
CONTINUOUS
 62
    7
 10
184.64841200000001
 20
195.33298500000001
 11
186.03433999999999
 21
196.013608
  0
LINE
  8
_0-0_0
  6
CONTINUOUS
 62
    7
 10
182.56952000000001
 20
189.47961100000001
 11
185.50128999999998
 21
191.203855
  0
LINE
  8
_0-0_0
  6
CONTINUOUS
 62
    7
 10
182.56952000000001
 20
192.06598400000001
 11
184.435192
 21
193.790234
  0
LINE
  8
_0-0_0
  6
CONTINUOUS
 62
    7
 10
188.75289000000001
 20
193.10961
 11
186.03433999999999
 21
190.341734
  0
ARC
  8
_0-0_0
  6
CONTINUOUS
 62
    7
 10
190.877422
 20
184.75797900000001
 40
5.8519829999999997
 50
107.414523
 51
169.24901800000001
  0
LINE
  8
_0-0_0
  6
CONTINUOUS
 62
    7
 10
183.582312
 20
187.573857
 11
184.27527699999999
 21
189.298114
  0
LINE
  8
_0-0_0
  6
CONTINUOUS
 62
    7
 10
191.20491699999999
 20
187.02936299999999
 11
192.057794
 21
188.25448699999998
  0
LINE
  8
_0-0_0
  6
CONTINUOUS
 62
    7
 10
171.16227000000001
 20
188.07298900000001
 11
169.61642799999998
 21
185.48660999999998
  0
LINE
  8
_0-0_0
  6
CONTINUOUS
 62
    7
 10
175.10683299999999
 20
195.151487
 11
176.33284399999999
 21
196.013608
  0
LINE
  8
_0-0_0
  6
CONTINUOUS
 62
    7
 10
174.25395499999999
 20
192.06598400000001
 11
174.94691699999998
 21
193.97173100000001
  0
LINE
  8
_0-0_0
  6
CONTINUOUS
 62
    7
 10
166.15160500000002
 20
188.753613
 11
168.07058499999999
 21
190.65935999999999
  0
LINE
  8
_0-0_0
  6
CONTINUOUS
 62
    7
 10
172.01514900000001
 20
190.840858
 11
174.09404000000001
 21
193.790234
  0
LINE
  8
_0-0_0
  6
CONTINUOUS
 62
    7
 10
169.456512
 20
186.16723400000001
 11
171.69531899999998
 21
189.298114
  0
LINE
  8
_0-0_0
  6
CONTINUOUS
 62
    7
 10
176.49275900000001
 20
186.530237
 11
179.63774899999999
 21
191.33998400000002
  0
LINE
  8
_0-0_0
  6
CONTINUOUS
 62
    7
 10
180.11749399999999
 20
192.928111
 11
180.81045900000001
 21
193.608735
  0
LINE
  8
_0-0_0
  6
CONTINUOUS
 62
    7
 10
179.95757900000001
 20
187.02936299999999
 11
181.34350799999999
 21
189.298114
  0
LINE
  8
_0-0_0
  6
CONTINUOUS
 62
    7
 10
177.18572399999999
 20
179.95086499999999
 11
174.62708700000002
 21
178.589618
  0
LINE
  8
_0-0_0
  6
CONTINUOUS
 62
    7
 10
189.445853
 20
177.54599100000001
 11
190.51195100000001
 21
179.95086499999999
  0
LINE
  8
_0-0_0
  6
CONTINUOUS
 62
    7
 10
191.524744
 20
178.22661499999998
 11
191.73796400000001
 21
180.81299300000001
  0
LINE
  8
_0-0_0
  6
CONTINUOUS
 62
    7
 10
163.059921
 20
167.69961699999999
 11
160.98103
 21
167.15512100000001
  0
LINE
  8
_0-0_0
  6
CONTINUOUS
 62
    7
 10
157.51621299999999
 20
167.15512100000001
 11
155.11748800000001
 21
167.15512100000001
  0
LINE
  8
_0-0_0
  6
CONTINUOUS
 62
    7
 10
163.91279900000001
 20
173.053865
 11
161.67399499999999
 21
172.37324100000001
  0
LINE
  8
_0-0_0
  6
CONTINUOUS
 62
    7
 10
137.79339099999999
 20
171.51111900000001
 11
136.247547
 21
172.69086799999999
  0
LINE
  8
_0-0_0
  6
CONTINUOUS
 62
    7
 10
140.245417
 20
177.00148899999999
 11
142.32431199999999
 21
176.502365
  0
LINE
  8
_0-0_0
  6
CONTINUOUS
 62
    7
 10
152.825377
 20
171.82873999999998
 11
148.187848
 21
171.51111900000001
  0
LINE
  8
_0-0_0
  6
CONTINUOUS
 62
    7
 10
155.59723299999999
 20
193.42723000000001
 11
159.22196500000001
 21
193.790234
  0
LINE
  8
_0-0_0
  6
CONTINUOUS
 62
    7
 10
165.77847400000002
 20
186.16723400000001
 11
164.44584700000001
 21
183.76236
  0
LINE
  8
_0-0_0
  6
CONTINUOUS
 62
    7
 10
132.99594500000001
 20
180.31386000000001
 11
129.69104799999999
 21
181.35748699999999
  0
ARC
  8
_0-0_0
  6
CONTINUOUS
 62
    7
 10
158.97122999999999
 20
217.90957700000001
 40
57.277940000000001
 50
218.445504
 51
292.63017000000002
  0
ARC
  8
_0-0_0
  6
CONTINUOUS
 62
    7
 10
146.78876500000001
 20
211.56829599999998
 40
36.450209000000001
 50
221.548924
 51
331.37848000000002
  0
ARC
  8
_0-0_0
  6
CONTINUOUS
 62
    7
 10
150.01420899999999
 20
216.699454
 40
46.740797999999998
 50
246.81195600000001
 51
318.69863500000002
  0
ARC
  8
_0-0_0
  6
CONTINUOUS
 62
    7
 10
153.79245800000001
 20
218.67006099999998
 40
52.501224000000001
 50
234.70019300000001
 51
315.198781
  0
LINE
  8
_0-0_0
  6
CONTINUOUS
 62
    7
 10
132.46289899999999
 20
179.270241
 11
135.234757
 21
178.04511600000001
  0
ARC
  8
_0-0_0
  6
CONTINUOUS
 62
    7
 10
183.816247
 20
205.456479
 40
1.289777
 50
163.94672800000001
 51
283.734039
  0
LINE
  8
_0-0_0
  6
CONTINUOUS
 62
    7
 10
180.81045900000001
 20
208.446348
 11
181.71664100000001
 21
210.35210899999998
  0
ARC
  8
_0-0_0
  6
CONTINUOUS
 62
    7
 10
195.29552699999999
 20
204.99787500000002
 40
12.744863
 50
156.27059299999999
 51
176.33238800000004
  0
LINE
  8
_0-0_0
  6
CONTINUOUS
 62
    7
 10
174.09404000000001
 20
202.774473
 11
175.79979500000002
 21
205.17935299999999
  0
LINE
  8
_0-0_0
  6
CONTINUOUS
 62
    7
 10
178.09190699999999
 20
198.599987
 11
178.41173699999999
 21
200.188108
  0
LINE
  8
_0-0_0
  6
CONTINUOUS
 62
    7
 10
175.32005100000001
 20
204.99784799999998
 11
175.47996899999998
 21
206.90360900000002
  0
LINE
  8
_0-0_0
  6
CONTINUOUS
 62
    7
 10
178.78487100000001
 20
202.229985
 11
180.49062799999999
 21
205.85997600000002
  0
ARC
  8
_0-0_0
  6
CONTINUOUS
 62
    7
 10
176.726888
 20
213.78918900000002
 40
7.8129359999999997
 50
332.04478399999999
 51
55.46006100000001
  0
ARC
  8
_0-0_0
  6
CONTINUOUS
 62
    7
 10
175.90306099999998
 20
216.28690999999998
 40
8.5892169999999997
 50
352.47387900000001
 51
91.755849999999995
  0
LINE
  8
_0-0_0
  6
CONTINUOUS
 62
    7
 10
159.59510399999999
 20
207.58423299999998
 11
158.209172
 21
202.59298100000001
  0
ARC
  8
_0-0_0
  6
CONTINUOUS
 62
    7
 10
155.23217499999998
 20
203.06102099999998
 40
9.1243289999999995
 50
85.372423999999995
 51
180.69399000000001
  0
ARC
  8
_0-0_0
  6
CONTINUOUS
 62
    7
 10
153.51433800000001
 20
203.09169300000002
 40
6.7940360000000002
 50
66.992343000000005
 51
168.35971300000003
  0
ARC
  8
_0-0_0
  6
CONTINUOUS
 62
    7
 10
172.888361
 20
205.08229399999999
 40
17.252963000000001
 50
61.364240000000009
 51
165.12380200000004
  0
ARC
  8
_0-0_0
  6
CONTINUOUS
 62
    7
 10
174.13779099999999
 20
205.62217299999998
 40
19.308434999999999
 50
85.538188000000005
 51
160.22228699999999
  0
ARC
  8
_0-0_0
  6
CONTINUOUS
 62
    7
 10
164.22253899999998
 20
216.83979399999998
 40
48.569986999999998
 50
156.754389
 51
178.029909
  0
ARC
  8
_0-0_0
  6
CONTINUOUS
 62
    7
 10
195.042058
 20
207.12442099999998
 40
91.898016999999996
 50
113.20600399999999
 51
160.884918
  0
ARC
  8
_0-0_0
  6
CONTINUOUS
 62
    7
 10
195.042058
 20
207.12442099999998
 40
80.786906000000002
 50
113.42834000000001
 51
159.050726
  0
ARC
  8
_0-0_0
  6
CONTINUOUS
 62
    7
 10
167.87200100000001
 20
215.84919400000001
 40
63.372340999999999
 50
160.29399799999999
 51
211.96918700000001
  0
ARC
  8
_0-0_0
  6
CONTINUOUS
 62
    7
 10
123.308378
 20
218.09534100000002
 40
34.006428999999997
 50
302.18639000000002
 51
345.379639
  0
ARC
  8
_0-0_0
  6
CONTINUOUS
 62
    7
 10
131.76391100000001
 20
211.02303499999999
 40
16.460054
 50
239.613586
 51
336.51100700000001
  0
ARC
  8
_0-0_0
  6
CONTINUOUS
 62
    7
 10
142.75169
 20
215.96233899999999
 40
27.190006
 50
174.624595
 51
224.73856699999999
  0
ARC
  8
_0-0_0
  6
CONTINUOUS
 62
    7
 10
130.17246
 20
208.26634799999999
 40
15.679460000000001
 50
197.174014
 51
317.81838399999998
  0
ARC
  8
_0-0_0
  6
CONTINUOUS
 62
    7
 10
188.84721300000001
 20
190.87309299999998
 40
10.569507
 50
116.59549900000002
 51
162.17881600000001
  0
ARC
  8
_0-0_0
  6
CONTINUOUS
 62
    7
 10
140.98621800000001
 20
216.83678300000003
 40
39.589474000000003
 50
274.40955400000007
 51
353.62266399999999
  0
ARC
  8
_0-0_0
  6
CONTINUOUS
 62
    7
 10
140.79660200000001
 20
207.79138599999999
 40
22.441148999999999
 50
263.680474
 51
16.01353200000003
  0
ARC
  8
_0-0_0
  6
CONTINUOUS
 62
    7
 10
142.87291199999999
 20
207.18568699999997
 40
26.094418000000001
 50
245.72019800000004
 51
342.05173600000006
  0
LINE
  8
_0-0_0
  6
CONTINUOUS
 62
    7
 10
170.78913299999999
 20
194.83386000000002
 11
172.54819499999999
 21
197.91935699999999
  0
LINE
  8
_0-0_0
  6
CONTINUOUS
 62
    7
 10
159.75501700000001
 20
196.694231
 11
160.76781
 21
198.599987
  0
LINE
  8
_0-0_0
  6
CONTINUOUS
 62
    7
 10
161.67399499999999
 20
197.05722800000001
 11
161.99382299999999
 21
198.46385800000002
  0
LINE
  8
_0-0_0
  6
CONTINUOUS
 62
    7
 10
183.10256899999999
 20
196.87572999999998
 11
189.126025
 21
197.73785800000002
  0
ARC
  8
_0-0_0
  6
CONTINUOUS
 62
    7
 10
204.19666000000001
 20
170.12691699999999
 40
12.740359
 50
20.555799
 51
148.90670600000001
  0
ARC
  8
_0-0_0
  6
CONTINUOUS
 62
    7
 10
198.98575299999999
 20
171.79496
 40
35.654395999999998
 50
17.339217000000001
 51
114.637202
  0
ARC
  8
_0-0_0
  6
CONTINUOUS
 62
    7
 10
198.56128799999999
 20
175.55182400000001
 40
35.194957000000002
 50
11.873236
 51
116.778357
  0
ARC
  8
_0-0_0
  6
CONTINUOUS
 62
    7
 10
196.202383
 20
167.01902699999999
 40
35.430674000000003
 50
31.414899000000002
 51
109.946693
  0
ARC
  8
_0-0_0
  6
CONTINUOUS
 62
    7
 10
201.539627
 20
169.94352700000002
 40
23.878533000000001
 50
47.589688000000002
 51
121.323165
  0
ARC
  8
_0-0_0
  6
CONTINUOUS
 62
    7
 10
203.69114300000001
 20
174.231525
 40
14.674192
 50
3.5538189999999998
 51
149.51869099999999
  0
LINE
  8
_0-0_0
  6
CONTINUOUS
 62
    7
 10
199.84031300000001
 20
195.33298500000001
 11
193.603635
 21
194.28935799999999
  0
LINE
  8
_0-0_0
  6
CONTINUOUS
 62
    7
 10
194.989564
 20
180.31386000000001
 11
196.90853999999999
 21
183.081737
  0
ARC
  8
_0-0_0
  6
CONTINUOUS
 62
    7
 10
197.320358
 20
185.570866
 40
112.78716300000001
 50
22.627369000000002
 51
109.953577
  0
ARC
  8
_0-0_0
  6
CONTINUOUS
 62
    7
 10
196.51936000000001
 20
91.031607000000008
 40
92.371969000000007
 50
256.72495800000002
 51
317.60387500000002
  0
ARC
  8
_0-0_0
  6
CONTINUOUS
 62
    7
 10
197.320358
 20
185.570866
 40
101.676039
 50
22.643051
 51
109.774708
  0
ARC
  8
_0-0_0
  6
CONTINUOUS
 62
    7
 10
194.084464
 20
93.955578000000003
 40
85.031698000000006
 50
240.27709700000003
 51
317.30062199999998
  0
ARC
  8
_0-0_0
  6
CONTINUOUS
 62
    7
 10
174.14449200000001
 20
48.710039999999992
 40
47.531762000000001
 50
76.173494000000005
 51
203.53064699999999
  0
ARC
  8
_0-0_0
  6
CONTINUOUS
 62
    7
 10
184.408976
 20
-13.903932999999995
 40
108.773956
 50
89.423321000000016
 51
96.178370000000015
  0
LINE
  8
_0-0_0
  6
CONTINUOUS
 62
    7
 10
183.62814600000002
 20
210.12659500000001
 11
183.62815399999999
 21
210.12661400000002
  0
ARC
  8
_0-0_0
  6
CONTINUOUS
 62
    7
 10
195.29550482748564
 20
204.99788136338546
 40
12.744841065682431
 50
156.27067560356264
 51
176.33238751684416
  0
ARC
  8
_0-0_0
  6
CONTINUOUS
 62
    7
 10
183.81624691232892
 20
205.45647945892284
 40
1.2897767068573216
 50
163.94657495978367
 51
283.73465046837526
  0
ARC
  8
_0-0_0
  6
CONTINUOUS
 62
    7
 10
198.98575815798671
 20
171.79497209971288
 40
35.65438691344778
 50
17.17525918195258
 51
114.63720689227479
  0
LINE
  8
_0-0_0
  6
CONTINUOUS
 62
    7
 10
233.050172
 20
182.323553
 11
233.003255
 21
182.79308600000002
  0
LINE
  8
_0-0_0
  6
CONTINUOUS
 62
    7
 10
233.003255
 20
182.79308600000002
 11
233.003255
 21
182.79308399999999
  0
ARC
  8
_0-0_0
  6
CONTINUOUS
 62
    7
 10
198.56129026622921
 20
175.55183004407229
 40
35.194952671889602
 50
11.873227926657778
 51
116.77837389015697
  0
ARC
  8
_0-0_0
  6
CONTINUOUS
 62
    7
 10
195.29559875775197
 20
204.99785149961144
 40
12.744938750231469
 50
156.27081529486065
 51
171.08768150453241
  0
ARC
  8
_0-0_0
  6
CONTINUOUS
 62
    7
 10
176.72686670227546
 20
213.78919185088358
 40
7.8129553715161864
 50
332.04453816856619
 51
10.119306137491844
  0
LINE
  8
_0-0_0
  6
CONTINUOUS
 62
    7
 10
184.418284
 20
215.16191600000002
 11
184.418284
 21
215.16191300000003
  0
LINE
  8
_0-0_0
  6
CONTINUOUS
 62
    7
 10
184.418284
 20
215.16191300000003
 11
184.418284
 21
215.16191600000002
  0
LINE
  8
_0-0_0
  6
CONTINUOUS
 62
    7
 10
184.418284
 20
215.16191600000002
 11
183.62814600000002
 21
210.12659500000001
  0
ARC
  8
_0-0_0
  6
CONTINUOUS
 62
    7
 10
217.48367516603184
 20
167.32219886461675
 40
3.1760268165132439
 50
263.54268983941608
 51
269.04523567720059
  0
LINE
  8
_0-0_0
  6
CONTINUOUS
 62
    7
 10
217.12648999999999
 20
164.16632099999998
 11
217.43075300000001
 21
164.146613
  0
LINE
  8
_0-0_0
  6
CONTINUOUS
 62
    7
 10
189.126025
 20
190.341734
 11
189.126024
 21
190.341734
  0
LINE
  8
_0-0_0
  6
CONTINUOUS
 62
    7
 10
189.126024
 20
190.341734
 11
189.126024
 21
190.341733
  0
LINE
  8
_0-0_0
  6
CONTINUOUS
 62
    7
 10
189.126024
 20
190.341733
 11
189.126025
 21
190.341734
  0
ARC
  8
_0-0_0
  6
CONTINUOUS
 62
    7
 10
218.25501360228955
 20
179.23054809493652
 40
15.106439139941079
 50
265.71573865903201
 51
266.87218685758467
  0
LINE
  8
_0-0_0
  6
CONTINUOUS
 62
    7
 10
217.12648999999999
 20
164.16632099999998
 11
217.43075300000001
 21
164.146613
  0
LINE
  8
_0-0_0
  6
CONTINUOUS
 62
    7
 10
183.62814600000002
 20
210.12659500000001
 11
183.62815399999999
 21
210.12661400000002
  0
ARC
  8
_0-0_0
  6
CONTINUOUS
 62
    7
 10
195.29550482748564
 20
204.99788136338546
 40
12.744841065682431
 50
156.27067560356264
 51
176.33238751684416
  0
ARC
  8
_0-0_0
  6
CONTINUOUS
 62
    7
 10
183.81624691232892
 20
205.45647945892284
 40
1.2897767068573216
 50
163.94657495978367
 51
283.73465046837526
  0
ARC
  8
_0-0_0
  6
CONTINUOUS
 62
    7
 10
198.9857613604332
 20
171.79497775038959
 40
35.654383112185023
 50
17.339252131868136
 51
114.63721535544856
  0
ARC
  8
_0-0_0
  6
CONTINUOUS
 62
    7
 10
218.25494502335778
 20
179.22996005043646
 40
15.105847615462555
 50
265.7158314253885
 51
12.195396790645821
  0
ARC
  8
_0-0_0
  6
CONTINUOUS
 62
    7
 10
217.48366601889211
 20
167.32220236058777
 40
3.1760292616059069
 50
146.30658078461587
 51
263.5428609003182
  0
ARC
  8
_0-0_0
  6
CONTINUOUS
 62
    7
 10
209.54208687863917
 20
173.22592803657938
 40
6.7256845718108167
 50
321.98830025721054
 51
11.791297468700984
  0
ARC
  8
_0-0_0
  6
CONTINUOUS
 62
    7
 10
204.19665976819363
 20
170.12691387346806
 40
12.740360079385452
 50
20.555810105262541
 51
150.11736256549059
  0
ARC
  8
_0-0_0
  6
CONTINUOUS
 62
    7
 10
167.11090088161757
 20
191.96169558643976
 40
30.296811878093841
 50
297.30899378411237
 51
329.25733817027947
  0
ARC
  8
_0-0_0
  6
CONTINUOUS
 62
    7
 10
158.9712091838895
 20
217.90949769155742
 40
57.277874816611103
 50
218.44548876430486
 51
292.63025229683507
  0
ARC
  8
_0-0_0
  6
CONTINUOUS
 62
    7
 10
167.87202492794506
 20
215.84919608238835
 40
63.372363016129043
 50
160.29399516952063
 51
211.96920960521209
  0
ARC
  8
_0-0_0
  6
CONTINUOUS
 62
    7
 10
195.04221265079573
 20
207.12427681124657
 40
91.898210666694794
 50
113.20609218744896
 51
160.88485326314097
  0
ARC
  8
_0-0_0
  6
CONTINUOUS
 62
    7
 10
197.32032304817403
 20
185.57078734716214
 40
112.78722535199871
 50
22.62746226900931
 51
109.95359356678973
  0
ARC
  8
_0-0_0
  6
CONTINUOUS
 62
    7
 10
127.26951097396983
 20
157.40966677198594
 40
188.28302324493578
 50
316.89507364692793
 51
22.336011362922935
  0
ARC
  8
_0-0_0
  6
CONTINUOUS
 62
    7
 10
196.51939887544358
 20
91.031478834787308
 40
92.371853141639406
 50
256.72446073848005
 51
317.60342466320958
  0
ARC
  8
_0-0_0
  6
CONTINUOUS
 62
    7
 10
195.72487670533437
 20
82.35741352633832
 40
83.756000425361933
 50
218.92484362704374
 51
255.89083075695663
  0
ARC
  8
_0-0_0
  6
CONTINUOUS
 62
    7
 10
174.14449167150033
 20
48.710040010568434
 40
47.531761766313274
 50
76.173493016557074
 51
203.53064746124156
  0
ARC
  8
_0-0_0
  6
CONTINUOUS
 62
    7
 10
184.40897460482626
 20
-13.903929239844217
 40
108.77395177400417
 50
89.423320583920557
 51
96.178369637585561
  0
ARC
  8
_0-0_0
  6
CONTINUOUS
 62
    7
 10
179.26370609516206
 20
52.423829386039102
 40
42.326069045591098
 50
98.918005341712103
 51
229.76675335044925
  0
LINE
  8
_0-0_0
  6
CONTINUOUS
 62
    7
 10
151.925265
 20
20.111203999999987
 11
151.92525799999999
 21
20.111208000000005
  0
ARC
  8
_0-0_0
  6
CONTINUOUS
 62
    7
 10
194.08447800855421
 20
93.955486901040828
 40
85.031625635079934
 50
240.27706391386673
 51
317.30062921174408
  0
ARC
  8
_0-0_0
  6
CONTINUOUS
 62
    7
 10
127.26981390753694
 20
157.40961090926635
 40
177.17165313738064
 50
316.87266105130499
 51
22.326047537457615
  0
ARC
  8
_0-0_0
  6
CONTINUOUS
 62
    7
 10
197.32040282986594
 20
185.57096837665341
 40
101.67595760290877
 50
22.641779064065691
 51
109.77489903778641
  0
LINE
  8
_0-0_0
  6
CONTINUOUS
 62
    7
 10
162.92081400000001
 20
281.25100099999997
 11
162.92092700000001
 21
281.25105000000002
  0
ARC
  8
_0-0_0
  6
CONTINUOUS
 62
    7
 10
195.04215929888684
 20
207.12432393031085
 40
80.787035359702273
 50
113.42846569873625
 51
159.05084729956565
  0
ARC
  8
_0-0_0
  6
CONTINUOUS
 62
    7
 10
164.22258423617646
 20
216.83978336482278
 40
48.570032545179977
 50
156.75467507102823
 51
178.0298407786299
  0
ARC
  8
_0-0_0
  6
CONTINUOUS
 62
    7
 10
142.75174147067463
 20
215.96235769818907
 40
27.190055265309962
 50
174.62454377496169
 51
224.73841568870074
  0
ARC
  8
_0-0_0
  6
CONTINUOUS
 62
    7
 10
131.76391350524491
 20
211.02302808792007
 40
16.46004992926126
 50
239.61339586477632
 51
336.51103556611065
  0
ARC
  8
_0-0_0
  6
CONTINUOUS
 62
    7
 10
153.51434018894204
 20
203.09168830203402
 40
6.7940384628347568
 50
66.987901683759389
 51
168.35965003632947
  0
ARC
  8
_0-0_0
  6
CONTINUOUS
 62
    7
 10
172.89617253889452
 20
205.08032401559123
 40
17.261019544978645
 50
165.45927895513893
 51
165.69556666612937
  0
ARC
  8
_0-0_0
  6
CONTINUOUS
 62
    7
 10
123.30711967882306
 20
218.09592849627143
 40
34.007794697029667
 50
345.20911776674279
 51
345.37710896218857
  0
ARC
  8
_0-0_0
  6
CONTINUOUS
 62
    7
 10
172.88835985391285
 20
205.08229679872522
 40
17.252961058978638
 50
61.364071341026992
 51
165.12797404274977
  0
LINE
  8
_0-0_0
  6
CONTINUOUS
 62
    7
 10
181.15670900000001
 20
220.22492099999999
 11
183.62814600000002
 21
210.12659500000001
  0
LINE
  8
_0-0_0
  6
CONTINUOUS
 62
    7
 10
233.003255
 20
182.79308399999999
 11
233.00325599999999
 21
182.793081
  0
LINE
  8
_0-0_0
  6
CONTINUOUS
 62
    7
 10
233.00325599999999
 20
182.793081
 11
233.003255
 21
182.79308399999999
  0
ENDSEC
  0
EOF
