  0
SECTION
  2
HEADER
  9
$ACADVER
  1
AC1009
  9
$INSBASE
 10
0
 20
0
 30
0
  9
$EXTMIN
 10
0
 20
0
  9
$EXTMAX
 10
420
 20
297
  9
$LIMMIN
 10
0
 20
0
  9
$LIMMAX
 10
420
 20
297
  9
$LTSCALE
 40
1
  0
ENDSEC
  0
SECTION
  2
TABLES
  0
TABLE
  2
LTYPE
 70
     9
  0
LTYPE
  2
CONTINUOUS
 70
    64
  3
実線
 72
    65
 73
     0
 40
0.0
  0
LTYPE
  2
DASHED1
 70
    64
  3
--  --  --  --  --  --  --  --  
 72
    65
 73
     2
 40
2.5
 49
1.25
 49
-1.25
  0
LTYPE
  2
DASHED2
 70
    64
  3
----    ----    ----    ----    
 72
    65
 73
     2
 40
5.0
 49
2.5
 49
-2.5
  0
LTYPE
  2
DASHED3
 70
    64
  3
------  ------  ------  ------  
 72
    65
 73
     2
 40
5.0
 49
3.75
 49
-1.25
  0
LTYPE
  2
CENTER1
 70
    64
  3
----- - ----- - ----- - ----- - 
 72
    65
 73
     4
 40
10.0
 49
6.25
 49
-1.25
 49
1.25
 49
-1.25
  0
LTYPE
  2
CENTER2
 70
    64
  3
----------  --  ----------  --  
 72
    65
 73
     4
 40
20.0
 49
12.5
 49
-2.5
 49
2.5
 49
-2.5
  0
LTYPE
  2
PHANTOM1
 70
    64
  3
--- - - --- - - --- - - --- - - 
 72
    65
 73
     6
 40
10.0
 49
3.25
 49
-1.25
 49
1.25
 49
-1.25
 49
1.25
 49
-1.25
  0
LTYPE
  2
PHANTOM2
 70
    64
  3
--------  -  -  --------  -  -  
 72
    65
 73
     6
 40
20.0
 49
10.0
 49
-2.5
 49
1.25
 49
-2.5
 49
1.25
 49
-2.5
  0
LTYPE
  2
DOT
 70
    64
  3
-   -   -   -   -   -   -   -   
 72
    65
 73
     2
 40
2.5
 49
0.625
 49
-1.875
  0
LTYPE
  2
DUMMY
 70
    64
  3
ダミー
 72
    65
 73
     0
 40
0.0
  0
LTYPE
  2
RAND1
 70
    64
  3
ランダム線1
 72
    65
 73
     4
 40
10.0
 49
1.0
 49
-2.0
 49
3.0
 49
-4.0
  0
LTYPE
  2
RAND2
 70
    64
  3
ランダム線2
 72
    65
 73
     4
 40
14.0
 49
2.0
 49
-3.0
 49
4.0
 49
-5.0
  0
LTYPE
  2
RAND3
 70
    64
  3
ランダム線3
 72
    65
 73
     4
 40
18.0
 49
3.0
 49
-4.0
 49
5.0
 49
-6.0
  0
LTYPE
  2
RAND4
 70
    64
  3
ランダム線4
 72
    65
 73
     4
 40
22.0
 49
4.0
 49
-5.0
 49
6.0
 49
-7.0
  0
LTYPE
  2
RAND5
 70
    64
  3
ランダム線5
 72
    65
 73
     4
 40
26.0
 49
5.0
 49
-6.0
 49
7.0
 49
-8.0
  0
LTYPE
  2
LONG1
 70
    64
  3
----------  --  ----------  --  
 72
    65
 73
     4
 40
40.0
 49
32.5
 49
-2.5
 49
2.5
 49
-2.5
  0
LTYPE
  2
LONG2
 70
    64
  3
--------  -  -  --------  -  -  
 72
    65
 73
     6
 40
40.0
 49
30.0
 49
-2.5
 49
1.25
 49
-2.5
 49
1.25
 49
-2.5
  0
LTYPE
  2
LONG3
 70
    64
  3
+++++++++++++++..+++++++++++++++
 72
    65
 73
     2
 40
40.0
 49
37.5
 49
-2.5
  0
LTYPE
  2
LONG4
 70
    64
  3
+++++++++++++++..+++++++++++++++
 72
    65
 73
     2
 40
80.0
 49
75.0
 49
-5.0
  0
LTYPE
  2
LONG5
 70
    64
  3
----------  --  ----------  --  
 72
    65
 73
     4
 40
60.0
 49
37.5
 49
-7.5
 49
7.5
 49
-7.5
  0
LTYPE
  2
dashed
 70
   64
  3
-------   -------------   ------
 72
   65
 73
    2
 40
7.5
 49
6
 49
-1.5
  0
LTYPE
  2
dashed_spaced
 70
   64
  3
----        --------        ----
 72
   65
 73
    2
 40
12
 49
6
 49
-6
  0
LTYPE
  2
long_dashed_dotted
 70
   64
  3
------------- --- --------------
 72
   65
 73
    4
 40
15.25
 49
12
 49
-1.5
 49
0.25
 49
-1.5
  0
LTYPE
  2
long_dashed_double-dotted
 70
   64
  3
----------- --- --- ------------
 72
   65
 73
    6
 40
17
 49
12
 49
-1.5
 49
0.25
 49
-1.5
 49
0.25
 49
-1.5
  0
LTYPE
  2
long_dashed_triplicate-dotted
 70
   64
  3
--------- --- --- --- ----------
 72
   65
 73
    8
 40
18.75
 49
12
 49
-1.5
 49
0.25
 49
-1.5
 49
0.25
 49
-1.5
 49
0.25
 49
-1.5
  0
LTYPE
  2
dotted
 70
   64
  3
   -       -       -       -    
 72
   65
 73
    2
 40
1.75
 49
0.25
 49
-1.5
  0
LTYPE
  2
chain
 70
   64
  3
-------------- -- --------------
 72
   65
 73
    4
 40
18.5
 49
12
 49
-1.5
 49
3.5
 49
-1.5
  0
LTYPE
  2
chain_double_dash
 70
   64
  3
------------ -- -- -------------
 72
   65
 73
    6
 40
23.5
 49
12
 49
-1.5
 49
3.5
 49
-1.5
 49
3.5
 49
-1.5
  0
LTYPE
  2
dashed_dotted
 70
   64
  3
-----------     -     ----------
 72
   65
 73
    4
 40
9.25
 49
6
 49
-1.5
 49
0.25
 49
-1.5
  0
LTYPE
  2
double-dashed_dotted
 70
   64
  3
------   -----------   -   -----
 72
   65
 73
    6
 40
16.75
 49
6
 49
-1.5
 49
6
 49
-1.5
 49
0.25
 49
-1.5
  0
LTYPE
  2
dashed_double-dotted
 70
   64
  3
---------    -    -    ---------
 72
   65
 73
    6
 40
11
 49
6
 49
-1.5
 49
0.25
 49
-1.5
 49
0.25
 49
-1.5
  0
LTYPE
  2
double-dashed_double-dotted
 70
   64
  3
-----   ---------   -   -   ----
 72
   65
 73
    8
 40
18.5
 49
6
 49
-1.5
 49
6
 49
-1.5
 49
0.25
 49
-1.5
 49
0.25
 49
-1.5
  0
LTYPE
  2
dashed_triplicate-dotted
 70
   64
  3
-------    -    -    -    ------
 72
   65
 73
    8
 40
12.75
 49
6
 49
-1.5
 49
0.25
 49
-1.5
 49
0.25
 49
-1.5
 49
0.25
 49
-1.5
  0
LTYPE
  2
double-dashed_triplicate-dotted
 70
   64
  3
-----  ---------  -  -  -  -----
 72
   65
 73
   10
 40
20.25
 49
6
 49
-1.5
 49
6
 49
-1.5
 49
0.25
 49
-1.5
 49
0.25
 49
-1.5
 49
0.25
 49
-1.5
  0
LTYPE
  2
undefined
 70
   64
  3
--------------------------------
 72
   65
 73
    0
 40
0
  0
LTYPE
  2
BORDER
 70
   64
  3
----     --------     -     ----
 72
   65
 73
    0
 40
0
  0
LTYPE
  2
BORDER2
 70
   64
  3
----     --------     -     ----
 72
   65
 73
    0
 40
0
  0
LTYPE
  2
BORDERX2
 70
   64
  3
----     --------     -     ----
 72
   65
 73
    0
 40
0
  0
LTYPE
  2
CENTER
 70
   64
  3
----------    ----    ----------
 72
   65
 73
    0
 40
0
  0
LTYPE
  2
CENTER2_21
 70
   64
  3
----------    ----    ----------
 72
   65
 73
    0
 40
0
  0
LTYPE
  2
CENTERX2
 70
   64
  3
----------    ----    ----------
 72
   65
 73
    0
 40
0
  0
LTYPE
  2
DASHDOT
 70
   64
  3
--------        -        -------
 72
   65
 73
    0
 40
0
  0
LTYPE
  2
DASHDOT2
 70
   64
  3
--------        -        -------
 72
   65
 73
    0
 40
0
  0
LTYPE
  2
DASHDOTX2
 70
   64
  3
--------        -        -------
 72
   65
 73
    0
 40
0
  0
LTYPE
  2
DASHED
 70
   64
  3
------     -----------     -----
 72
   65
 73
    0
 40
0
  0
LTYPE
  2
DASHED2_27
 70
   64
  3
------     -----------     -----
 72
   65
 73
    0
 40
0
  0
LTYPE
  2
DASHEDX2
 70
   64
  3
------     -----------     -----
 72
   65
 73
    0
 40
0
  0
LTYPE
  2
DIVIDE
 70
   64
  3
------      -      -      ------
 72
   65
 73
    0
 40
0
  0
LTYPE
  2
DIVIDE2
 70
   64
  3
------      -      -      ------
 72
   65
 73
    0
 40
0
  0
LTYPE
  2
DIVIDEX2
 70
   64
  3
------      -      -      ------
 72
   65
 73
    0
 40
0
  0
LTYPE
  2
DOT_32
 70
   64
  3
-               -               
 72
   65
 73
    0
 40
0
  0
ENDTAB
  0
TABLE
  2
STYLE
  5
3
100
AcDbSymbolTable
 70
     1
  0
STYLE
  5
10
100
AcDbSymbolTableRecord
100
AcDbTextStyleTableRecord
  2
STANDARD
 70
     0
 40
0.0
 41
1.0
 50
0.0
 71
     0
 42
0.2
  3
txt
  4
bigfont.shx
  0
STYLE
  5
26
100
AcDbSymbolTableRecord
100
AcDbTextStyleTableRecord
  2
TATEGAKI
 70
    68
 40
0.0
 41
1.0
 50
0.0
 71
     0
 42
1.0
  3
txt
  4
bigfont.shx
  0
ENDTAB
  0
TABLE
  2
LAYER
 70
    2
  0
LAYER
  2
_0-0_0
 70
   64
 62
    7
  6
CONTINUOUS
  0
LAYER
  2
ADD_LINE
 70
   64
 62
    7
  6
CONTINUOUS
  0
ENDTAB
  0
ENDSEC
  0
SECTION
  2
BLOCKS
  0
ENDSEC
  0
SECTION
  2
ENTITIES
  0
ARC
  8
_0-0_0
  6
CONTINUOUS
 62
    7
 10
174.93118749999999
 20
101.00872849999999
 40
28.318892999999999
 50
161.91705200000004
 51
234.445615
  0
ARC
  8
_0-0_0
  6
CONTINUOUS
 62
    7
 10
132.27952249999998
 20
117.3280245
 40
17.440477000000001
 50
334.42362900000001
 51
25.587731000000002
  0
ARC
  8
_0-0_0
  6
CONTINUOUS
 62
    7
 10
149.61145449999998
 20
126.31648849999999
 40
2.1647699999999999
 50
109.80328900000001
 51
222.26886300000001
  0
ARC
  8
_0-0_0
  6
CONTINUOUS
 62
    7
 10
153.63664749999998
 20
118.6666415
 40
10.792331000000001
 50
26.067727999999999
 51
116.162858
  0
ARC
  8
_0-0_0
  6
CONTINUOUS
 62
    7
 10
182.92277949999999
 20
98.577805499999997
 40
31.629552
 50
35.844870000000007
 51
128.273056
  0
ARC
  8
_0-0_0
  6
CONTINUOUS
 62
    7
 10
199.48673249999999
 20
111.3600895
 40
10.737916
 50
295.36235099999999
 51
32.312122000000016
  0
ARC
  8
_0-0_0
  6
CONTINUOUS
 62
    7
 10
200.80982549999999
 20
105.59442250000001
 40
5.122217
 50
188.76462699999999
 51
309.76536199999998
  0
ARC
  8
_0-0_0
  6
CONTINUOUS
 62
    7
 10
212.03157049999999
 20
113.9733475
 40
52.033121999999999
 50
203.96218000000002
 51
248.05348300000003
  0
ARC
  8
_0-0_0
  6
CONTINUOUS
 62
    7
 10
167.6319775
 20
93.727997500000001
 40
3.271547
 50
85.956885999999997
 51
195.73217099999999
  0
ARC
  8
_0-0_0
  6
CONTINUOUS
 62
    7
 10
168.25713050000002
 20
82.966637500000004
 40
14.030303999999999
 50
53.53754
 51
91.611161999999993
  0
ARC
  8
_0-0_0
  6
CONTINUOUS
 62
    7
 10
171.6007505
 20
102.89909449999999
 40
10.915468000000001
 50
307.22363000000001
 51
127.20116700000001
  0
ARC
  8
_0-0_0
  6
CONTINUOUS
 62
    7
 10
199.9835545
 20
107.6099555
 40
7.970218
 50
238.956682
 51
334.77423599999997
  0
ARC
  8
_0-0_0
  6
CONTINUOUS
 62
    7
 10
198.5097925
 20
105.5250405
 40
5.4271520000000004
 50
184.138676
 51
240.936835
  0
ARC
  8
_0-0_0
  6
CONTINUOUS
 62
    7
 10
177.41884249999998
 20
94.948277499999989
 40
1.0794410000000001
 50
220.275158
 51
316.65254199999998
  0
ARC
  8
_0-0_0
  6
CONTINUOUS
 62
    7
 10
180.07848749999999
 20
98.106041500000003
 40
14.793896
 50
28.360296000000005
 51
102.98656200000001
  0
ARC
  8
_0-0_0
  6
CONTINUOUS
 62
    7
 10
168.8746075
 20
80.205991499999996
 40
14.911814
 50
57.655252000000004
 51
91.333652000000001
  0
ARC
  8
_0-0_0
  6
CONTINUOUS
 62
    7
 10
168.3512465
 20
93.643883500000001
 40
1.48041
 50
83.160347000000002
 51
211.078226
  0
ARC
  8
_0-0_0
  6
CONTINUOUS
 62
    7
 10
203.7270465
 20
114.7319305
 40
42.664779000000003
 50
210.80945800000001
 51
240.618111
  0
ARC
  8
_0-0_0
  6
CONTINUOUS
 62
    7
 10
178.0434995
 20
94.115479499999992
 40
1.7713810000000001
 50
227.75586799999999
 51
331.71130599999998
  0
ARC
  8
_0-0_0
  6
CONTINUOUS
 62
    7
 10
184.62731550000001
 20
102.2081005
 40
11.421341
 50
13.188388
 51
51.463484000000008
  0
ARC
  8
_0-0_0
  6
CONTINUOUS
 62
    7
 10
178.24753249999998
 20
93.972817499999991
 40
21.838215999999999
 50
51.831719999999997
 51
118.90181799999999
  0
ARC
  8
_0-0_0
  6
CONTINUOUS
 62
    7
 10
181.9716535
 20
101.20653250000001
 40
18.256658000000002
 50
12.533777000000001
 51
91.934333000000009
  0
ARC
  8
_0-0_0
  6
CONTINUOUS
 62
    7
 10
183.19337849999999
 20
92.6627285
 40
26.853033
 50
93.924690999999996
 51
145.05296000000001
  0
ARC
  8
_0-0_0
  6
CONTINUOUS
 62
    7
 10
177.64373449999999
 20
99.426587499999997
 40
18.580787000000001
 50
152.36637099999999
 51
211.994428
  0
ARC
  8
_0-0_0
  6
CONTINUOUS
 62
    7
 10
202.21925350000001
 20
111.11344649999999
 40
45.721255999999997
 50
208.09486799999999
 51
234.74076099999999
  0
ARC
  8
_0-0_0
  6
CONTINUOUS
 62
    7
 10
177.92746349999999
 20
101.6292655
 40
12.319353
 50
60.885604000000001
 51
106.494868
  0
ARC
  8
_0-0_0
  6
CONTINUOUS
 62
    7
 10
172.06953049999998
 20
101.7395945
 40
11.330962
 50
311.67358000000002
 51
44.428711000000014
  0
ARC
  8
_0-0_0
  6
CONTINUOUS
 62
    7
 10
171.43141650000001
 20
91.481762500000002
 40
11.458449
 50
46.829507999999997
 51
121.67104999999999
  0
ARC
  8
_0-0_0
  6
CONTINUOUS
 62
    7
 10
168.7395525
 20
94.619191499999999
 40
7.4029439999999997
 50
116.68277199999999
 51
209.76173499999999
  0
ARC
  8
_0-0_0
  6
CONTINUOUS
 62
    7
 10
172.02777550000002
 20
96.023659500000008
 40
11.625581
 50
50.778727000000003
 51
185.66934900000001
  0
ARC
  8
_0-0_0
  6
CONTINUOUS
 62
    7
 10
171.2388425
 20
99.841713499999997
 40
10.898726
 50
46.843868999999991
 51
178.76764800000001
  0
ARC
  8
_0-0_0
  6
CONTINUOUS
 62
    7
 10
198.0083195
 20
107.1145255
 40
8.8550369999999994
 50
330.16639900000001
 51
25.411895000000015
  0
ARC
  8
_0-0_0
  6
CONTINUOUS
 62
    7
 10
182.96403950000001
 20
99.363308500000002
 40
25.775715999999999
 50
26.624368000000004
 51
171.52162300000001
  0
ARC
  8
_0-0_0
  6
CONTINUOUS
 62
    7
 10
183.85975250000001
 20
100.9055685
 40
26.482565000000001
 50
23.036214999999995
 51
225.24380600000003
  0
ARC
  8
_0-0_0
  6
CONTINUOUS
 62
    7
 10
136.6744735
 20
120.7887425
 40
24.363439
 50
333.70173299999999
 51
5.316414999999985
  0
ARC
  8
_0-0_0
  6
CONTINUOUS
 62
    7
 10
152.08838349999999
 20
119.64570449999999
 40
9.4758689999999994
 50
21.029819
 51
88.831603000000001
  0
ARC
  8
_0-0_0
  6
CONTINUOUS
 62
    7
 10
149.68652850000001
 20
118.8283505
 40
8.1224959999999999
 50
338.49390299999999
 51
85.51485000000001
  0
ARC
  8
_0-0_0
  6
CONTINUOUS
 62
    7
 10
180.2485015
 20
102.53168550000001
 40
26.582395000000002
 50
149.93087600000001
 51
212.37301199999999
  0
ARC
  8
_0-0_0
  6
CONTINUOUS
 62
    7
 10
179.55788050000001
 20
104.4630365
 40
29.976316000000001
 50
157.19045199999999
 51
244.33690400000003
  0
ARC
  8
_0-0_0
  6
CONTINUOUS
 62
    7
 10
144.00911450000001
 20
120.0657755
 40
8.8616089999999996
 50
333.29888799999998
 51
46.435156999999982
  0
ARC
  8
_0-0_0
  6
CONTINUOUS
 62
    7
 10
210.28255050000001
 20
113.94591249999999
 40
53.199046000000003
 50
205.61785900000001
 51
226.00033199999999
  0
ARC
  8
_0-0_0
  6
CONTINUOUS
 62
    7
 10
196.0695915
 20
115.4720445
 40
46.937624999999997
 50
215.37493400000002
 51
246.59264200000004
  0
LINE
  8
_0-0_0
  6
CONTINUOUS
 62
    7
 10
177.4228865
 20
72.397214500000004
 11
190.78011750000002
 21
63.020017499999994
  0
ARC
  8
_0-0_0
  6
CONTINUOUS
 62
    7
 10
192.50038549999999
 20
64.129636500000004
 40
1.5835090000000001
 50
271.659627
 51
86.948977000000042
  0
LINE
  8
_0-0_0
  6
CONTINUOUS
 62
    7
 10
187.6325645
 20
73.996976500000002
 11
186.3906135
 21
69.456448499999993
  0
LINE
  8
_0-0_0
  6
CONTINUOUS
 62
    7
 10
183.2739685
 20
71.600827499999994
 11
184.67445750000002
 21
73.168324499999997
  0
LINE
  8
_0-0_0
  6
CONTINUOUS
 62
    7
 10
183.7572825
 20
73.420270500000001
 11
185.07426049999998
 21
75.071278500000005
  0
LINE
  8
_0-0_0
  6
CONTINUOUS
 62
    7
 10
180.44347049999999
 20
74.073109500000001
 11
182.4519085
 21
76.874875500000002
  0
LINE
  8
_0-0_0
  6
CONTINUOUS
 62
    7
 10
177.73086949999998
 20
76.120473500000003
 11
179.6310005
 21
77.853581500000004
  0
LINE
  8
_0-0_0
  6
CONTINUOUS
 62
    7
 10
178.4782075
 20
77.368855499999995
 11
179.78984450000002
 21
78.513486499999999
  0
LINE
  8
_0-0_0
  6
CONTINUOUS
 62
    7
 10
172.1351895
 20
81.255604500000004
 11
174.95390750000001
 21
82.070119500000004
  0
LINE
  8
_0-0_0
  6
CONTINUOUS
 62
    7
 10
170.79968650000001
 20
83.051663500000004
 11
171.81245849999999
 21
83.062337499999998
  0
LINE
  8
_0-0_0
  6
CONTINUOUS
 62
    7
 10
167.77502850000002
 20
87.918526499999999
 11
170.5621835
 21
87.741154499999993
  0
LINE
  8
_0-0_0
  6
CONTINUOUS
 62
    7
 10
166.8776135
 20
92.44916649999999
 11
165.5308115
 21
92.772522500000008
  0
LINE
  8
_0-0_0
  6
CONTINUOUS
 62
    7
 10
193.4636955
 20
105.2146305
 11
194.88586049999998
 21
105.6346865
  0
LINE
  8
_0-0_0
  6
CONTINUOUS
 62
    7
 10
192.66691950000001
 20
106.88134049999999
 11
193.81829449999998
 21
108.0327195
  0
LINE
  8
_0-0_0
  6
CONTINUOUS
 62
    7
 10
189.5353585
 20
110.0129025
 11
190.5076335
 21
110.9851805
  0
LINE
  8
_0-0_0
  6
CONTINUOUS
 62
    7
 10
188.63090149999999
 20
111.0708855
 11
189.2691385
 21
112.3771905
  0
LINE
  8
_0-0_0
  6
CONTINUOUS
 62
    7
 10
188.2887005
 20
112.2318425
 11
187.8874855
 21
110.99553349999999
  0
LINE
  8
_0-0_0
  6
CONTINUOUS
 62
    7
 10
185.81673050000001
 20
111.8893245
 11
185.89600050000001
 21
113.8057865
  0
LINE
  8
_0-0_0
  6
CONTINUOUS
 62
    7
 10
183.6880535
 20
112.8922165
 11
183.75381849999999
 21
115.12919650000001
  0
LINE
  8
_0-0_0
  6
CONTINUOUS
 62
    7
 10
188.53278749999998
 20
68.133031500000001
 11
188.12121250000001
 21
69.516881499999997
  0
LINE
  8
_0-0_0
  6
CONTINUOUS
 62
    7
 10
188.1937375
 20
71.593602500000003
 11
188.8643155
 21
72.765233499999994
  0
LINE
  8
_0-0_0
  6
CONTINUOUS
 62
    7
 10
192.31467850000001
 20
66.653897499999999
 11
190.25601549999999
 21
67.893811499999998
  0
LINE
  8
_0-0_0
  6
CONTINUOUS
 62
    7
 10
189.5217025
 20
71.084393500000004
 11
190.09669149999999
 21
71.993405499999994
  0
LINE
  8
_0-0_0
  6
CONTINUOUS
 62
    7
 10
167.69213550000001
 20
95.26788049999999
 11
166.45364050000001
 21
96.659901499999989
  0
LINE
  8
_0-0_0
  6
CONTINUOUS
 62
    7
 10
169.83352350000001
 20
95.071045499999997
 11
168.99703649999998
 21
96.572781499999991
  0
LINE
  8
_0-0_0
  6
CONTINUOUS
 62
    7
 10
173.8766215
 20
94.354161500000004
 11
173.29269049999999
 21
95.398640499999999
  0
LINE
  8
_0-0_0
  6
CONTINUOUS
 62
    7
 10
166.53683949999999
 20
92.943463500000007
 11
164.96571749999998
 21
94.002862499999992
  0
LINE
  8
_0-0_0
  6
CONTINUOUS
 62
    7
 10
168.8443035
 20
88.486764499999992
 11
166.87055649999999
 21
88.976506499999999
  0
ARC
  8
_0-0_0
  6
CONTINUOUS
 62
    7
 10
207.1980245
 20
140.91236950000001
 40
79.603812000000005
 50
232.25112999999999
 51
247.39655500000001
  0
ARC
  8
_0-0_0
  6
CONTINUOUS
 62
    7
 10
202.3049125
 20
107.2185905
 40
35.504576999999998
 50
236.66602700000004
 51
264.481809
  0
ARC
  8
_0-0_0
  6
CONTINUOUS
 62
    7
 10
169.5846755
 20
133.62252050000001
 40
86.225318000000001
 50
316.18314400000003
 51
357.53477600000002
  0
LINE
  8
_0-0_0
  6
CONTINUOUS
 62
    7
 10
255.7301995
 20
129.91372749999999
 11
256.38701049999997
 21
146.74862350000001
  0
ARC
  8
_0-0_0
  6
CONTINUOUS
 62
    7
 10
168.07256749999999
 20
145.9526405
 40
88.318029999999993
 50
0.5163959999999999
 51
62.49181200000001
  0
ARC
  8
_0-0_0
  6
CONTINUOUS
 62
    7
 10
179.62258550000001
 20
169.22842750000001
 40
62.341082999999998
 50
62.026491
 51
94.427304000000007
  0
ARC
  8
_0-0_0
  6
CONTINUOUS
 62
    7
 10
176.1211595
 20
201.80956549999999
 40
29.602965999999999
 50
92.538121000000004
 51
219.87556499999999
  0
ARC
  8
_0-0_0
  6
CONTINUOUS
 62
    7
 10
170.43901449999998
 20
205.24474649999999
 40
28.153815999999999
 50
232.76284799999999
 51
315.788523
  0
ARC
  8
_0-0_0
  6
CONTINUOUS
 62
    7
 10
169.5846755
 20
133.62252050000001
 40
76.225318000000001
 50
316.54612800000001
 51
357.520105
  0
ARC
  8
_0-0_0
  6
CONTINUOUS
 62
    7
 10
176.1211595
 20
201.80956549999999
 40
19.602968000000001
 50
92.084644999999995
 51
320.04340300000001
  0
ARC
  8
_0-0_0
  6
CONTINUOUS
 62
    7
 10
179.62258550000001
 20
169.22842750000001
 40
52.341079000000001
 50
61.982724000000005
 51
94.618453000000002
  0
ARC
  8
_0-0_0
  6
CONTINUOUS
 62
    7
 10
168.07256749999999
 20
145.9526405
 40
78.318029999999993
 50
0.5163959999999999
 51
62.521974
  0
LINE
  8
_0-0_0
  6
CONTINUOUS
 62
    7
 10
245.73861049999999
 20
130.32433750000001
 11
246.38741450000001
 21
146.65849750000001
  0
ARC
  8
_0-0_0
  6
CONTINUOUS
 62
    7
 10
199.39638149999999
 20
111.4758885
 40
49.600566000000001
 50
242.641705
 51
310.79193900000001
  0
ARC
  8
_0-0_0
  6
CONTINUOUS
 62
    7
 10
199.39638149999999
 20
111.4758885
 40
39.600561999999996
 50
269.26837799999998
 51
310.12793599999998
  0
LINE
  8
_0-0_0
  6
CONTINUOUS
 62
    7
 10
190.61884750000002
 20
185.61284950000001
 11
191.52743149999998
 21
186.88872850000001
  0
LINE
  8
_0-0_0
  6
CONTINUOUS
 62
    7
 10
191.52743149999998
 20
186.88872850000001
 11
191.76851249999999
 21
187.53368749999998
  0
LINE
  8
_0-0_0
  6
CONTINUOUS
 62
    7
 10
191.76851249999999
 20
187.53368749999998
 11
192.0497785
 21
188.4162705
  0
LINE
  8
_0-0_0
  6
CONTINUOUS
 62
    7
 10
192.0497785
 20
188.4162705
 11
192.17031450000002
 21
189.19700950000001
  0
LINE
  8
_0-0_0
  6
CONTINUOUS
 62
    7
 10
192.17031450000002
 20
189.19700950000001
 11
192.4113965
 21
190.48693449999999
  0
LINE
  8
_0-0_0
  6
CONTINUOUS
 62
    7
 10
192.4113965
 20
190.48693449999999
 11
192.4113965
 21
190.99612049999999
  0
LINE
  8
_0-0_0
  6
CONTINUOUS
 62
    7
 10
192.4113965
 20
190.99612049999999
 11
192.4113965
 21
191.64107849999999
  0
LINE
  8
_0-0_0
  6
CONTINUOUS
 62
    7
 10
192.4113965
 20
191.64107849999999
 11
192.4113965
 21
192.5236625
  0
LINE
  8
_0-0_0
  6
CONTINUOUS
 62
    7
 10
192.4113965
 20
192.5236625
 11
192.2908515
 21
193.44018149999999
  0
LINE
  8
_0-0_0
  6
CONTINUOUS
 62
    7
 10
192.2908515
 20
193.44018149999999
 11
191.76851249999999
 21
194.22092749999999
  0
LINE
  8
_0-0_0
  6
CONTINUOUS
 62
    7
 10
191.76851249999999
 20
194.22092749999999
 11
191.24616650000002
 21
194.96772350000001
  0
LINE
  8
_0-0_0
  6
CONTINUOUS
 62
    7
 10
191.24616650000002
 20
194.96772350000001
 11
190.48274650000002
 21
195.61268150000001
  0
LINE
  8
_0-0_0
  6
CONTINUOUS
 62
    7
 10
190.48274650000002
 20
195.61268150000001
 11
189.83986349999998
 21
196.25764749999999
  0
LINE
  8
_0-0_0
  6
CONTINUOUS
 62
    7
 10
189.83986349999998
 20
196.25764749999999
 11
189.0764355
 21
196.9026145
  0
LINE
  8
_0-0_0
  6
CONTINUOUS
 62
    7
 10
189.0764355
 20
196.9026145
 11
188.43355250000002
 21
197.41179249999999
  0
LINE
  8
_0-0_0
  6
CONTINUOUS
 62
    7
 10
188.43355250000002
 20
197.41179249999999
 11
187.9112135
 21
197.68336049999999
  0
LINE
  8
_0-0_0
  6
CONTINUOUS
 62
    7
 10
187.9112135
 20
197.68336049999999
 11
187.42904349999998
 21
197.7851905
  0
LINE
  8
_0-0_0
  6
CONTINUOUS
 62
    7
 10
187.42904349999998
 20
197.7851905
 11
186.6254385
 21
197.92097050000001
  0
LINE
  8
_0-0_0
  6
CONTINUOUS
 62
    7
 10
186.6254385
 20
197.92097050000001
 11
185.8620185
 21
197.92097050000001
  0
LINE
  8
_0-0_0
  6
CONTINUOUS
 62
    7
 10
185.8620185
 20
197.92097050000001
 11
184.85750949999999
 21
197.5475725
  0
LINE
  8
_0-0_0
  6
CONTINUOUS
 62
    7
 10
184.85750949999999
 20
197.5475725
 11
184.33516349999999
 21
197.03839450000001
  0
LINE
  8
_0-0_0
  6
CONTINUOUS
 62
    7
 10
184.33516349999999
 20
197.03839450000001
 11
183.9333685
 21
196.63105350000001
  0
LINE
  8
_0-0_0
  6
CONTINUOUS
 62
    7
 10
183.9333685
 20
196.63105350000001
 11
183.69228049999998
 21
196.12186750000001
  0
LINE
  8
_0-0_0
  6
CONTINUOUS
 62
    7
 10
183.69228049999998
 20
196.12186750000001
 11
183.0493965
 21
194.45854549999999
  0
LINE
  8
_0-0_0
  6
CONTINUOUS
 62
    7
 10
183.0493965
 20
194.45854549999999
 11
182.80831549999999
 21
193.8135795
  0
LINE
  8
_0-0_0
  6
CONTINUOUS
 62
    7
 10
182.80831549999999
 20
193.8135795
 11
182.2859765
 21
192.6594345
  0
LINE
  8
_0-0_0
  6
CONTINUOUS
 62
    7
 10
182.2859765
 20
192.6594345
 11
181.5225485
 21
191.50529850000001
  0
LINE
  8
_0-0_0
  6
CONTINUOUS
 62
    7
 10
181.5225485
 20
191.50529850000001
 11
181.1207465
 21
190.75849450000001
  0
LINE
  8
_0-0_0
  6
CONTINUOUS
 62
    7
 10
181.1207465
 20
190.75849450000001
 11
180.35731950000002
 21
189.5704155
  0
LINE
  8
_0-0_0
  6
CONTINUOUS
 62
    7
 10
180.35731950000002
 20
189.5704155
 11
179.9555245
 21
188.8236115
  0
LINE
  8
_0-0_0
  6
CONTINUOUS
 62
    7
 10
179.9555245
 20
188.8236115
 11
179.0715525
 21
187.90708549999999
  0
LINE
  8
_0-0_0
  6
CONTINUOUS
 62
    7
 10
179.0715525
 20
187.90708549999999
 11
178.42866950000001
 21
187.3979065
  0
LINE
  8
_0-0_0
  6
CONTINUOUS
 62
    7
 10
178.42866950000001
 20
187.3979065
 11
177.0223585
 21
186.88872850000001
  0
LINE
  8
_0-0_0
  6
CONTINUOUS
 62
    7
 10
177.0223585
 20
186.88872850000001
 11
176.6205635
 21
186.75294049999999
  0
LINE
  8
_0-0_0
  6
CONTINUOUS
 62
    7
 10
176.6205635
 20
186.75294049999999
 11
174.85262749999998
 21
186.10798249999999
  0
LINE
  8
_0-0_0
  6
CONTINUOUS
 62
    7
 10
174.85262749999998
 20
186.10798249999999
 11
173.16505849999999
 21
185.59879649999999
  0
LINE
  8
_0-0_0
  6
CONTINUOUS
 62
    7
 10
173.16505849999999
 20
185.59879649999999
 11
171.99983650000001
 21
185.3611865
  0
LINE
  8
_0-0_0
  6
CONTINUOUS
 62
    7
 10
171.99983650000001
 20
185.3611865
 11
171.11586449999999
 21
185.22539850000001
  0
LINE
  8
_0-0_0
  6
CONTINUOUS
 62
    7
 10
171.11586449999999
 20
185.22539850000001
 11
170.0711785
 21
185.0896185
  0
LINE
  8
_0-0_0
  6
CONTINUOUS
 62
    7
 10
170.0711785
 20
185.0896185
 11
169.30775849999998
 21
185.0896185
  0
LINE
  8
_0-0_0
  6
CONTINUOUS
 62
    7
 10
169.30775849999998
 20
185.0896185
 11
168.66487549999999
 21
185.0896185
  0
LINE
  8
_0-0_0
  6
CONTINUOUS
 62
    7
 10
168.66487549999999
 20
185.0896185
 11
168.5443315
 21
185.0896185
  0
LINE
  8
_0-0_0
  6
CONTINUOUS
 62
    7
 10
168.5443315
 20
185.0896185
 11
165.61117250000001
 21
185.73458450000001
  0
LINE
  8
_0-0_0
  6
CONTINUOUS
 62
    7
 10
165.61117250000001
 20
185.73458450000001
 11
163.16017549999998
 21
187.02450149999999
  0
LINE
  8
_0-0_0
  6
CONTINUOUS
 62
    7
 10
190.88454849999999
 20
189.19700950000001
 11
191.24616650000002
 21
189.9777565
  0
LINE
  8
_0-0_0
  6
CONTINUOUS
 62
    7
 10
191.24616650000002
 20
189.9777565
 11
191.40688749999998
 21
190.75849450000001
  0
LINE
  8
_0-0_0
  6
CONTINUOUS
 62
    7
 10
191.40688749999998
 20
190.75849450000001
 11
191.40688749999998
 21
191.7768585
  0
LINE
  8
_0-0_0
  6
CONTINUOUS
 62
    7
 10
191.40688749999998
 20
191.7768585
 11
191.24616650000002
 21
192.28603649999999
  0
LINE
  8
_0-0_0
  6
CONTINUOUS
 62
    7
 10
191.24616650000002
 20
192.28603649999999
 11
191.00508550000001
 21
193.06678349999999
  0
LINE
  8
_0-0_0
  6
CONTINUOUS
 62
    7
 10
191.00508550000001
 20
193.06678349999999
 11
190.48274650000002
 21
194.0851395
  0
LINE
  8
_0-0_0
  6
CONTINUOUS
 62
    7
 10
190.48274650000002
 20
194.0851395
 11
189.83986349999998
 21
194.86588649999999
  0
LINE
  8
_0-0_0
  6
CONTINUOUS
 62
    7
 10
189.83986349999998
 20
194.86588649999999
 11
189.35770049999999
 21
195.37507149999999
  0
LINE
  8
_0-0_0
  6
CONTINUOUS
 62
    7
 10
189.35770049999999
 20
195.37507149999999
 11
188.71481749999998
 21
195.88425050000001
  0
LINE
  8
_0-0_0
  6
CONTINUOUS
 62
    7
 10
188.71481749999998
 20
195.88425050000001
 11
188.3130075
 21
196.12186750000001
  0
LINE
  8
_0-0_0
  6
CONTINUOUS
 62
    7
 10
188.3130075
 20
196.12186750000001
 11
187.9112135
 21
196.3934285
  0
LINE
  8
_0-0_0
  6
CONTINUOUS
 62
    7
 10
187.9112135
 20
196.3934285
 11
187.26832250000001
 21
196.76682650000001
  0
LINE
  8
_0-0_0
  6
CONTINUOUS
 62
    7
 10
187.26832250000001
 20
196.76682650000001
 11
186.90670449999999
 21
196.9026145
  0
LINE
  8
_0-0_0
  6
CONTINUOUS
 62
    7
 10
186.90670449999999
 20
196.9026145
 11
186.14327650000001
 21
196.9026145
  0
LINE
  8
_0-0_0
  6
CONTINUOUS
 62
    7
 10
186.14327650000001
 20
196.9026145
 11
186.0227395
 21
196.9026145
  0
LINE
  8
_0-0_0
  6
CONTINUOUS
 62
    7
 10
186.0227395
 20
196.9026145
 11
184.45570750000002
 21
196.25764749999999
  0
ENDSEC
  0
EOF
