  0
SECTION
  2
HEADER
  9
$ACADVER
  1
AC1009
  9
$INSBASE
 10
0
 20
0
 30
0
  9
$EXTMIN
 10
0
 20
0
  9
$EXTMAX
 10
420
 20
297
  9
$LIMMIN
 10
0
 20
0
  9
$LIMMAX
 10
420
 20
297
  9
$LTSCALE
 40
1
  0
ENDSEC
  0
SECTION
  2
TABLES
  0
TABLE
  2
LTYPE
 70
     9
  0
LTYPE
  2
CONTINUOUS
 70
    64
  3
実線
 72
    65
 73
     0
 40
0.0
  0
LTYPE
  2
DASHED1
 70
    64
  3
--  --  --  --  --  --  --  --  
 72
    65
 73
     2
 40
2.5
 49
1.25
 49
-1.25
  0
LTYPE
  2
DASHED2
 70
    64
  3
----    ----    ----    ----    
 72
    65
 73
     2
 40
5.0
 49
2.5
 49
-2.5
  0
LTYPE
  2
DASHED3
 70
    64
  3
------  ------  ------  ------  
 72
    65
 73
     2
 40
5.0
 49
3.75
 49
-1.25
  0
LTYPE
  2
CENTER1
 70
    64
  3
----- - ----- - ----- - ----- - 
 72
    65
 73
     4
 40
10.0
 49
6.25
 49
-1.25
 49
1.25
 49
-1.25
  0
LTYPE
  2
CENTER2
 70
    64
  3
----------  --  ----------  --  
 72
    65
 73
     4
 40
20.0
 49
12.5
 49
-2.5
 49
2.5
 49
-2.5
  0
LTYPE
  2
PHANTOM1
 70
    64
  3
--- - - --- - - --- - - --- - - 
 72
    65
 73
     6
 40
10.0
 49
3.25
 49
-1.25
 49
1.25
 49
-1.25
 49
1.25
 49
-1.25
  0
LTYPE
  2
PHANTOM2
 70
    64
  3
--------  -  -  --------  -  -  
 72
    65
 73
     6
 40
20.0
 49
10.0
 49
-2.5
 49
1.25
 49
-2.5
 49
1.25
 49
-2.5
  0
LTYPE
  2
DOT
 70
    64
  3
-   -   -   -   -   -   -   -   
 72
    65
 73
     2
 40
2.5
 49
0.625
 49
-1.875
  0
LTYPE
  2
DUMMY
 70
    64
  3
ダミー
 72
    65
 73
     0
 40
0.0
  0
LTYPE
  2
RAND1
 70
    64
  3
ランダム線1
 72
    65
 73
     4
 40
10.0
 49
1.0
 49
-2.0
 49
3.0
 49
-4.0
  0
LTYPE
  2
RAND2
 70
    64
  3
ランダム線2
 72
    65
 73
     4
 40
14.0
 49
2.0
 49
-3.0
 49
4.0
 49
-5.0
  0
LTYPE
  2
RAND3
 70
    64
  3
ランダム線3
 72
    65
 73
     4
 40
18.0
 49
3.0
 49
-4.0
 49
5.0
 49
-6.0
  0
LTYPE
  2
RAND4
 70
    64
  3
ランダム線4
 72
    65
 73
     4
 40
22.0
 49
4.0
 49
-5.0
 49
6.0
 49
-7.0
  0
LTYPE
  2
RAND5
 70
    64
  3
ランダム線5
 72
    65
 73
     4
 40
26.0
 49
5.0
 49
-6.0
 49
7.0
 49
-8.0
  0
LTYPE
  2
LONG1
 70
    64
  3
----------  --  ----------  --  
 72
    65
 73
     4
 40
40.0
 49
32.5
 49
-2.5
 49
2.5
 49
-2.5
  0
LTYPE
  2
LONG2
 70
    64
  3
--------  -  -  --------  -  -  
 72
    65
 73
     6
 40
40.0
 49
30.0
 49
-2.5
 49
1.25
 49
-2.5
 49
1.25
 49
-2.5
  0
LTYPE
  2
LONG3
 70
    64
  3
+++++++++++++++..+++++++++++++++
 72
    65
 73
     2
 40
40.0
 49
37.5
 49
-2.5
  0
LTYPE
  2
LONG4
 70
    64
  3
+++++++++++++++..+++++++++++++++
 72
    65
 73
     2
 40
80.0
 49
75.0
 49
-5.0
  0
LTYPE
  2
LONG5
 70
    64
  3
----------  --  ----------  --  
 72
    65
 73
     4
 40
60.0
 49
37.5
 49
-7.5
 49
7.5
 49
-7.5
  0
LTYPE
  2
dashed
 70
   64
  3
-------   -------------   ------
 72
   65
 73
    2
 40
7.5
 49
6
 49
-1.5
  0
LTYPE
  2
dashed_spaced
 70
   64
  3
----        --------        ----
 72
   65
 73
    2
 40
12
 49
6
 49
-6
  0
LTYPE
  2
long_dashed_dotted
 70
   64
  3
------------- --- --------------
 72
   65
 73
    4
 40
15.25
 49
12
 49
-1.5
 49
0.25
 49
-1.5
  0
LTYPE
  2
long_dashed_double-dotted
 70
   64
  3
----------- --- --- ------------
 72
   65
 73
    6
 40
17
 49
12
 49
-1.5
 49
0.25
 49
-1.5
 49
0.25
 49
-1.5
  0
LTYPE
  2
long_dashed_triplicate-dotted
 70
   64
  3
--------- --- --- --- ----------
 72
   65
 73
    8
 40
18.75
 49
12
 49
-1.5
 49
0.25
 49
-1.5
 49
0.25
 49
-1.5
 49
0.25
 49
-1.5
  0
LTYPE
  2
dotted
 70
   64
  3
   -       -       -       -    
 72
   65
 73
    2
 40
1.75
 49
0.25
 49
-1.5
  0
LTYPE
  2
chain
 70
   64
  3
-------------- -- --------------
 72
   65
 73
    4
 40
18.5
 49
12
 49
-1.5
 49
3.5
 49
-1.5
  0
LTYPE
  2
chain_double_dash
 70
   64
  3
------------ -- -- -------------
 72
   65
 73
    6
 40
23.5
 49
12
 49
-1.5
 49
3.5
 49
-1.5
 49
3.5
 49
-1.5
  0
LTYPE
  2
dashed_dotted
 70
   64
  3
-----------     -     ----------
 72
   65
 73
    4
 40
9.25
 49
6
 49
-1.5
 49
0.25
 49
-1.5
  0
LTYPE
  2
double-dashed_dotted
 70
   64
  3
------   -----------   -   -----
 72
   65
 73
    6
 40
16.75
 49
6
 49
-1.5
 49
6
 49
-1.5
 49
0.25
 49
-1.5
  0
LTYPE
  2
dashed_double-dotted
 70
   64
  3
---------    -    -    ---------
 72
   65
 73
    6
 40
11
 49
6
 49
-1.5
 49
0.25
 49
-1.5
 49
0.25
 49
-1.5
  0
LTYPE
  2
double-dashed_double-dotted
 70
   64
  3
-----   ---------   -   -   ----
 72
   65
 73
    8
 40
18.5
 49
6
 49
-1.5
 49
6
 49
-1.5
 49
0.25
 49
-1.5
 49
0.25
 49
-1.5
  0
LTYPE
  2
dashed_triplicate-dotted
 70
   64
  3
-------    -    -    -    ------
 72
   65
 73
    8
 40
12.75
 49
6
 49
-1.5
 49
0.25
 49
-1.5
 49
0.25
 49
-1.5
 49
0.25
 49
-1.5
  0
LTYPE
  2
double-dashed_triplicate-dotted
 70
   64
  3
-----  ---------  -  -  -  -----
 72
   65
 73
   10
 40
20.25
 49
6
 49
-1.5
 49
6
 49
-1.5
 49
0.25
 49
-1.5
 49
0.25
 49
-1.5
 49
0.25
 49
-1.5
  0
LTYPE
  2
undefined
 70
   64
  3
--------------------------------
 72
   65
 73
    0
 40
0
  0
LTYPE
  2
BORDER
 70
   64
  3
----     --------     -     ----
 72
   65
 73
    0
 40
0
  0
LTYPE
  2
BORDER2
 70
   64
  3
----     --------     -     ----
 72
   65
 73
    0
 40
0
  0
LTYPE
  2
BORDERX2
 70
   64
  3
----     --------     -     ----
 72
   65
 73
    0
 40
0
  0
LTYPE
  2
CENTER
 70
   64
  3
----------    ----    ----------
 72
   65
 73
    0
 40
0
  0
LTYPE
  2
CENTER2_21
 70
   64
  3
----------    ----    ----------
 72
   65
 73
    0
 40
0
  0
LTYPE
  2
CENTERX2
 70
   64
  3
----------    ----    ----------
 72
   65
 73
    0
 40
0
  0
LTYPE
  2
DASHDOT
 70
   64
  3
--------        -        -------
 72
   65
 73
    0
 40
0
  0
LTYPE
  2
DASHDOT2
 70
   64
  3
--------        -        -------
 72
   65
 73
    0
 40
0
  0
LTYPE
  2
DASHDOTX2
 70
   64
  3
--------        -        -------
 72
   65
 73
    0
 40
0
  0
LTYPE
  2
DASHED
 70
   64
  3
------     -----------     -----
 72
   65
 73
    0
 40
0
  0
LTYPE
  2
DASHED2_27
 70
   64
  3
------     -----------     -----
 72
   65
 73
    0
 40
0
  0
LTYPE
  2
DASHEDX2
 70
   64
  3
------     -----------     -----
 72
   65
 73
    0
 40
0
  0
LTYPE
  2
DIVIDE
 70
   64
  3
------      -      -      ------
 72
   65
 73
    0
 40
0
  0
LTYPE
  2
DIVIDE2
 70
   64
  3
------      -      -      ------
 72
   65
 73
    0
 40
0
  0
LTYPE
  2
DIVIDEX2
 70
   64
  3
------      -      -      ------
 72
   65
 73
    0
 40
0
  0
LTYPE
  2
DOT_32
 70
   64
  3
-               -               
 72
   65
 73
    0
 40
0
  0
ENDTAB
  0
TABLE
  2
STYLE
  5
3
100
AcDbSymbolTable
 70
     1
  0
STYLE
  5
10
100
AcDbSymbolTableRecord
100
AcDbTextStyleTableRecord
  2
STANDARD
 70
     0
 40
0.0
 41
1.0
 50
0.0
 71
     0
 42
0.2
  3
txt
  4
bigfont.shx
  0
STYLE
  5
26
100
AcDbSymbolTableRecord
100
AcDbTextStyleTableRecord
  2
TATEGAKI
 70
    68
 40
0.0
 41
1.0
 50
0.0
 71
     0
 42
1.0
  3
txt
  4
bigfont.shx
  0
ENDTAB
  0
TABLE
  2
LAYER
 70
    2
  0
LAYER
  2
_0-0_0
 70
   64
 62
    7
  6
CONTINUOUS
  0
LAYER
  2
ADD_LINE
 70
   64
 62
    7
  6
CONTINUOUS
  0
ENDTAB
  0
ENDSEC
  0
SECTION
  2
BLOCKS
  0
ENDSEC
  0
SECTION
  2
ENTITIES
  0
LINE
  8
_0-0_0
  6
CONTINUOUS
 62
    7
 10
219.227082
 20
133.39942100000002
 11
220.33049399999999
 21
131.39839000000001
  0
LINE
  8
_0-0_0
  6
CONTINUOUS
 62
    7
 10
220.47441499999999
 20
129.51986199999999
 11
220.810237
 21
127.518824
  0
LINE
  8
_0-0_0
  6
CONTINUOUS
 62
    7
 10
221.098084
 20
129.96907400000001
 11
221.57782700000001
 21
128.29473999999999
  0
LINE
  8
_0-0_0
  6
CONTINUOUS
 62
    7
 10
224.99057099999999
 20
123.082319
 11
225.040888
 21
123.585871
  0
LINE
  8
_0-0_0
  6
CONTINUOUS
 62
    7
 10
221.72174799999999
 20
125.64030200000001
 11
220.95415700000001
 21
123.475916
  0
LINE
  8
_0-0_0
  6
CONTINUOUS
 62
    7
 10
220.186567
 20
121.43404000000001
 11
219.85074600000002
 21
120.20891800000001
  0
LINE
  8
_0-0_0
  6
CONTINUOUS
 62
    7
 10
219.562904
 20
118.94295700000001
 11
218.45949200000001
 21
116.94192000000001
  0
ARC
  8
_0-0_0
  6
CONTINUOUS
 62
    7
 10
211.022941
 20
137.00609800000001
 40
2.8584269999999998
 50
96.459988999999993
 51
219.559764
  0
ARC
  8
_0-0_0
  6
CONTINUOUS
 62
    7
 10
201.81142700000001
 20
130.16154900000001
 40
7.3094890000000001
 50
348.60935799999993
 51
12.023807999999939
  0
ARC
  8
_0-0_0
  6
CONTINUOUS
 62
    7
 10
203.87551099999999
 20
131.692744
 40
6.0531230000000003
 50
348.20872700000001
 51
35.242368999999989
  0
ARC
  8
_0-0_0
  6
CONTINUOUS
 62
    7
 10
216.23482799999999
 20
135.665907
 40
8.2926870000000008
 50
170.79039599999999
 51
208.694613
  0
LINE
  8
_0-0_0
  6
CONTINUOUS
 62
    7
 10
216.58849000000001
 20
125.150251
 11
216.30064200000001
 21
123.761781
  0
LINE
  8
_0-0_0
  6
CONTINUOUS
 62
    7
 10
215.341151
 20
122.04660699999999
 11
214.86140800000001
 21
121.107343
  0
LINE
  8
_0-0_0
  6
CONTINUOUS
 62
    7
 10
207.42537300000001
 20
122.536652
 11
208.04903999999999
 21
123.761781
  0
LINE
  8
_0-0_0
  6
CONTINUOUS
 62
    7
 10
208.960554
 20
125.150251
 11
209.29637500000001
 21
125.92616700000001
  0
LINE
  8
_0-0_0
  6
CONTINUOUS
 62
    7
 10
217.35607999999999
 20
116.28852000000001
 11
215.96482
 21
114.90004400000001
  0
LINE
  8
_0-0_0
  6
CONTINUOUS
 62
    7
 10
210.97548
 20
116.166004
 11
209.776118
 21
115.22674000000001
  0
LINE
  8
_0-0_0
  6
CONTINUOUS
 62
    7
 10
208.960554
 20
113.67492200000001
 11
207.42537300000001
 21
112.899006
  0
LINE
  8
_0-0_0
  6
CONTINUOUS
 62
    7
 10
213.182301
 20
118.77960899999999
 11
212.55863399999998
 21
117.840345
  0
LINE
  8
_0-0_0
  6
CONTINUOUS
 62
    7
 10
196.535179
 20
118.33038999999999
 11
202.915775
 21
118.657093
  0
LINE
  8
_0-0_0
  6
CONTINUOUS
 62
    7
 10
203.539445
 20
112.24560600000001
 11
198.070359
 21
111.469697
  0
LINE
  8
_0-0_0
  6
CONTINUOUS
 62
    7
 10
191.88166000000001
 20
111.63304500000001
 11
194.520252
 21
111.18383299999999
  0
LINE
  8
_0-0_0
  6
CONTINUOUS
 62
    7
 10
203.82729
 20
119.433003
 11
205.554371
 21
121.107343
  0
LINE
  8
_0-0_0
  6
CONTINUOUS
 62
    7
 10
206.17803699999999
 20
113.797431
 11
203.82729
 21
112.40896100000001
  0
ARC
  8
_0-0_0
  6
CONTINUOUS
 62
    7
 10
204.219065
 20
128.083912
 40
11.612456999999999
 50
306.75182799999999
 51
52.356701999999999
  0
ARC
  8
_0-0_0
  6
CONTINUOUS
 62
    7
 10
208.61006599999999
 20
126.76172
 40
12.121857
 50
329.76688799999999
 51
76.42529500000002
  0
LINE
  8
_0-0_0
  6
CONTINUOUS
 62
    7
 10
218.60341299999999
 20
116.002656
 11
217.06823199999999
 21
114.736695
  0
ARC
  8
_0-0_0
  6
CONTINUOUS
 62
    7
 10
211.717085
 20
126.289112
 40
13.595267
 50
347.80473499999999
 51
94.284737000000035
  0
LINE
  8
_0-0_0
  6
CONTINUOUS
 62
    7
 10
208.81663
 20
108.52939499999999
 11
207.089552
 21
107.91683399999999
  0
LINE
  8
_0-0_0
  6
CONTINUOUS
 62
    7
 10
211.59914599999999
 20
108.52939499999999
 11
209.776118
 21
107.91683399999999
  0
LINE
  8
_0-0_0
  6
CONTINUOUS
 62
    7
 10
202.43603300000001
 20
106.528358
 11
197.30276900000001
 21
105.752448
  0
LINE
  8
_0-0_0
  6
CONTINUOUS
 62
    7
 10
214.28571299999999
 20
112.572309
 11
211.59914599999999
 21
109.917872
  0
ARC
  8
_0-0_0
  6
CONTINUOUS
 62
    7
 10
129.83026799999999
 20
145.927393
 40
169.45466300000001
 50
337.66400700000008
 51
43.104699000000025
  0
ARC
  8
_0-0_0
  6
CONTINUOUS
 62
    7
 10
129.83026799999999
 20
145.927393
 40
159.45466300000001
 50
337.67329599999999
 51
43.127282999999956
  0
ARC
  8
_0-0_0
  6
CONTINUOUS
 62
    7
 10
196.443781
 20
208.22663700000001
 40
81.767724999999999
 50
106.61354300000001
 51
134.294633
  0
ARC
  8
_0-0_0
  6
CONTINUOUS
 62
    7
 10
210.762315
 20
233.66504599999999
 40
78.712920999999994
 50
155.142898
 51
173.458009
  0
ARC
  8
_0-0_0
  6
CONTINUOUS
 62
    7
 10
187.54243600000001
 20
223.286372
 40
58.285040000000002
 50
127.55005300000001
 51
160.61405700000003
  0
ARC
  8
_0-0_0
  6
CONTINUOUS
 62
    7
 10
206.61325500000001
 20
234.83128099999999
 40
74.461168999999998
 50
154.61510200000004
 51
173.98581899999999
  0
LINE
  8
_0-0_0
  6
CONTINUOUS
 62
    7
 10
184.87739400000001
 20
132.62351200000001
 11
185.35713699999999
 21
129.19316499999999
  0
LINE
  8
_0-0_0
  6
CONTINUOUS
 62
    7
 10
186.41257400000001
 20
130.459126
 11
186.74839600000001
 21
129.68321
  0
LINE
  8
_0-0_0
  6
CONTINUOUS
 62
    7
 10
187.995732
 20
128.417249
 11
188.61939799999999
 21
126.579566
  0
LINE
  8
_0-0_0
  6
CONTINUOUS
 62
    7
 10
183.965879
 20
128.58060399999999
 11
182.38272499999999
 21
130.74499
  0
LINE
  8
_0-0_0
  6
CONTINUOUS
 62
    7
 10
183.15031500000001
 20
131.39839000000001
 11
181.90298100000001
 21
133.236073
  0
ARC
  8
_0-0_0
  6
CONTINUOUS
 62
    7
 10
165.68748600000001
 20
114.830592
 40
27.267081000000001
 50
30.233528000000003
 51
62.691096000000002
  0
LINE
  8
_0-0_0
  6
CONTINUOUS
 62
    7
 10
182.862469
 20
133.726124
 11
181.279313
 21
135.89051000000001
  0
LINE
  8
_0-0_0
  6
CONTINUOUS
 62
    7
 10
168.56609
 20
134.78789800000001
 11
166.35926899999998
 21
135.72716199999999
  0
LINE
  8
_0-0_0
  6
CONTINUOUS
 62
    7
 10
173.21961199999998
 20
132.62351200000001
 11
171.49252999999999
 21
133.39942100000002
  0
LINE
  8
_0-0_0
  6
CONTINUOUS
 62
    7
 10
169.81342699999999
 20
128.417249
 11
167.46267799999998
 21
129.68321
  0
LINE
  8
_0-0_0
  6
CONTINUOUS
 62
    7
 10
180.36779899999999
 20
128.90730100000002
 11
175.09061199999999
 21
130.90833800000001
  0
LINE
  8
_0-0_0
  6
CONTINUOUS
 62
    7
 10
184.253727
 20
125.02774100000001
 11
184.87739400000001
 21
122.822517
  0
LINE
  8
_0-0_0
  6
CONTINUOUS
 62
    7
 10
185.50106299999999
 20
123.312568
 11
186.268652
 21
121.76074300000001
  0
LINE
  8
_0-0_0
  6
CONTINUOUS
 62
    7
 10
184.58954900000001
 20
122.373304
 11
185.02131600000001
 21
120.98482799999999
  0
LINE
  8
_0-0_0
  6
CONTINUOUS
 62
    7
 10
185.16524100000001
 20
120.494776
 11
186.74839600000001
 21
118.493745
  0
LINE
  8
_0-0_0
  6
CONTINUOUS
 62
    7
 10
185.02131600000001
 20
119.269654
 11
185.35713699999999
 21
118.493745
  0
LINE
  8
_0-0_0
  6
CONTINUOUS
 62
    7
 10
188.139655
 20
120.82147900000001
 11
189.243067
 21
119.55551800000001
  0
LINE
  8
_0-0_0
  6
CONTINUOUS
 62
    7
 10
188.90724599999999
 20
124.25182599999999
 11
190.29850300000001
 21
122.536652
  0
LINE
  8
_0-0_0
  6
CONTINUOUS
 62
    7
 10
189.86673400000001
 20
125.02774100000001
 11
190.63432399999999
 21
123.761781
  0
LINE
  8
_0-0_0
  6
CONTINUOUS
 62
    7
 10
183.34221300000002
 20
122.700007
 11
183.77398299999999
 21
120.82147900000001
  0
LINE
  8
_0-0_0
  6
CONTINUOUS
 62
    7
 10
183.15031500000001
 20
126.252863
 11
183.48613499999999
 21
124.53769
  0
LINE
  8
_0-0_0
  6
CONTINUOUS
 62
    7
 10
179.60020800000001
 20
121.270692
 11
180.847543
 21
119.269654
  0
LINE
  8
_0-0_0
  6
CONTINUOUS
 62
    7
 10
181.47121100000001
 20
123.761781
 11
181.135389
 21
124.70103800000001
  0
LINE
  8
_0-0_0
  6
CONTINUOUS
 62
    7
 10
186.60447299999998
 20
113.67492200000001
 11
190.01065800000001
 21
112.572309
  0
LINE
  8
_0-0_0
  6
CONTINUOUS
 62
    7
 10
179.120463
 20
112.12309
 11
180.22387499999999
 21
111.469697
  0
LINE
  8
_0-0_0
  6
CONTINUOUS
 62
    7
 10
178.832617
 20
113.96078
 11
179.88805500000001
 21
113.348219
  0
LINE
  8
_0-0_0
  6
CONTINUOUS
 62
    7
 10
181.47121100000001
 20
111.79639399999999
 11
182.718546
 21
111.18383299999999
  0
LINE
  8
_0-0_0
  6
CONTINUOUS
 62
    7
 10
179.60020800000001
 20
117.06443
 11
182.238801
 21
115.51261099999999
  0
LINE
  8
_0-0_0
  6
CONTINUOUS
 62
    7
 10
179.60020800000001
 20
114.736695
 11
181.279313
 21
113.18487
  0
LINE
  8
_0-0_0
  6
CONTINUOUS
 62
    7
 10
185.16524100000001
 20
113.797431
 11
182.718546
 21
116.28852000000001
  0
ARC
  8
_0-0_0
  6
CONTINUOUS
 62
    7
 10
187.07731999999999
 20
121.31389900000001
 40
5.2667849999999996
 50
190.75098199999999
 51
252.585477
  0
LINE
  8
_0-0_0
  6
CONTINUOUS
 62
    7
 10
180.51172099999999
 20
118.77960899999999
 11
181.135389
 21
117.227778
  0
LINE
  8
_0-0_0
  6
CONTINUOUS
 62
    7
 10
187.37206499999999
 20
119.269654
 11
188.139655
 21
118.16704200000001
  0
LINE
  8
_0-0_0
  6
CONTINUOUS
 62
    7
 10
169.33368300000001
 20
118.33038999999999
 11
167.94242500000001
 21
120.658131
  0
LINE
  8
_0-0_0
  6
CONTINUOUS
 62
    7
 10
172.88379
 20
111.95974200000001
 11
173.9872
 21
111.18383299999999
  0
LINE
  8
_0-0_0
  6
CONTINUOUS
 62
    7
 10
172.11619999999999
 20
114.736695
 11
172.73986500000001
 21
113.021522
  0
LINE
  8
_0-0_0
  6
CONTINUOUS
 62
    7
 10
164.824085
 20
117.71782899999999
 11
166.55116699999999
 21
116.002656
  0
LINE
  8
_0-0_0
  6
CONTINUOUS
 62
    7
 10
170.10127399999999
 20
115.839308
 11
171.97227599999999
 21
113.18487
  0
LINE
  8
_0-0_0
  6
CONTINUOUS
 62
    7
 10
167.79850099999999
 20
120.04557
 11
169.81342699999999
 21
117.227778
  0
LINE
  8
_0-0_0
  6
CONTINUOUS
 62
    7
 10
174.131123
 20
119.718867
 11
176.961614
 21
115.390095
  0
LINE
  8
_0-0_0
  6
CONTINUOUS
 62
    7
 10
177.39338499999999
 20
113.96078
 11
178.017053
 21
113.348219
  0
LINE
  8
_0-0_0
  6
CONTINUOUS
 62
    7
 10
177.249461
 20
119.269654
 11
178.49679700000002
 21
117.227778
  0
LINE
  8
_0-0_0
  6
CONTINUOUS
 62
    7
 10
174.75479200000001
 20
125.64030200000001
 11
172.45201800000001
 21
126.865424
  0
LINE
  8
_0-0_0
  6
CONTINUOUS
 62
    7
 10
185.78890799999999
 20
127.804688
 11
186.74839600000001
 21
125.64030200000001
  0
LINE
  8
_0-0_0
  6
CONTINUOUS
 62
    7
 10
187.65991
 20
127.192127
 11
187.85180800000001
 21
124.86438699999999
  0
LINE
  8
_0-0_0
  6
CONTINUOUS
 62
    7
 10
162.04156899999998
 20
136.666425
 11
160.17056700000001
 21
137.15647100000001
  0
LINE
  8
_0-0_0
  6
CONTINUOUS
 62
    7
 10
157.052232
 20
137.15647100000001
 11
154.89337900000001
 21
137.15647100000001
  0
LINE
  8
_0-0_0
  6
CONTINUOUS
 62
    7
 10
162.80915899999999
 20
131.84760199999999
 11
160.79423600000001
 21
132.46016299999999
  0
LINE
  8
_0-0_0
  6
CONTINUOUS
 62
    7
 10
139.301692
 20
133.236073
 11
137.91043200000001
 21
132.17429899999999
  0
LINE
  8
_0-0_0
  6
CONTINUOUS
 62
    7
 10
141.50851499999999
 20
128.29473999999999
 11
143.37952100000001
 21
128.74395200000001
  0
LINE
  8
_0-0_0
  6
CONTINUOUS
 62
    7
 10
152.830479
 20
132.95021400000002
 11
148.65670299999999
 21
133.236073
  0
LINE
  8
_0-0_0
  6
CONTINUOUS
 62
    7
 10
155.32515000000001
 20
113.511573
 11
158.58740900000001
 21
113.18487
  0
LINE
  8
_0-0_0
  6
CONTINUOUS
 62
    7
 10
164.48826700000001
 20
120.04557
 11
163.28890200000001
 21
122.20995600000001
  0
LINE
  8
_0-0_0
  6
CONTINUOUS
 62
    7
 10
134.983991
 20
125.31360599999999
 11
132.00958299999999
 21
124.374342
  0
ARC
  8
_0-0_0
  6
CONTINUOUS
 62
    7
 10
158.36174700000001
 20
91.477461000000005
 40
51.550145999999998
 50
67.369829999999993
 51
141.55449600000003
  0
ARC
  8
_0-0_0
  6
CONTINUOUS
 62
    7
 10
147.39752899999999
 20
97.18461400000001
 40
32.805188000000001
 50
28.62152
 51
138.451076
  0
ARC
  8
_0-0_0
  6
CONTINUOUS
 62
    7
 10
150.30042800000001
 20
92.566572000000008
 40
42.066718000000002
 50
41.301364999999997
 51
113.188044
  0
ARC
  8
_0-0_0
  6
CONTINUOUS
 62
    7
 10
153.700852
 20
90.793025
 40
47.251102000000003
 50
44.80121900000001
 51
125.29980700000002
  0
LINE
  8
_0-0_0
  6
CONTINUOUS
 62
    7
 10
134.50424900000002
 20
126.252863
 11
136.998921
 21
127.35547600000001
  0
ARC
  8
_0-0_0
  6
CONTINUOUS
 62
    7
 10
180.722262
 20
102.685249
 40
1.1607989999999999
 50
76.265961000000004
 51
196.05327199999999
  0
LINE
  8
_0-0_0
  6
CONTINUOUS
 62
    7
 10
178.017053
 20
99.994367000000011
 11
178.832617
 21
98.279182000000006
  0
ARC
  8
_0-0_0
  6
CONTINUOUS
 62
    7
 10
191.05361400000001
 20
103.097993
 40
11.470376999999999
 50
183.66761199999999
 51
203.72940700000001
  0
LINE
  8
_0-0_0
  6
CONTINUOUS
 62
    7
 10
171.97227599999999
 20
105.09905499999999
 11
173.50745599999999
 21
102.934663
  0
LINE
  8
_0-0_0
  6
CONTINUOUS
 62
    7
 10
175.570356
 20
108.856092
 11
175.858203
 21
107.426783
  0
LINE
  8
_0-0_0
  6
CONTINUOUS
 62
    7
 10
173.07568600000002
 20
103.098017
 11
173.21961199999998
 21
101.38283200000001
  0
LINE
  8
_0-0_0
  6
CONTINUOUS
 62
    7
 10
176.19402400000001
 20
105.589094
 11
177.72920500000001
 21
102.322102
  0
ARC
  8
_0-0_0
  6
CONTINUOUS
 62
    7
 10
174.34183899999999
 20
95.185810000000004
 40
7.0316419999999997
 50
304.539939
 51
27.955216000000043
  0
ARC
  8
_0-0_0
  6
CONTINUOUS
 62
    7
 10
173.60039499999999
 20
92.937860999999998
 40
7.7302949999999999
 50
268.24415000000005
 51
7.5261210000000203
  0
LINE
  8
_0-0_0
  6
CONTINUOUS
 62
    7
 10
158.92323400000001
 20
100.77027100000001
 11
157.675895
 21
105.26239699999999
  0
ARC
  8
_0-0_0
  6
CONTINUOUS
 62
    7
 10
154.93721099999999
 20
104.47132000000001
 40
7.870126
 50
186.743123
 51
285.58933400000001
  0
ARC
  8
_0-0_0
  6
CONTINUOUS
 62
    7
 10
153.45054400000001
 20
104.813557
 40
6.1146320000000003
 50
191.640287
 51
293.00765699999999
  0
ARC
  8
_0-0_0
  6
CONTINUOUS
 62
    7
 10
170.88716499999998
 20
103.02201600000001
 40
15.527666999999999
 50
194.87619800000002
 51
298.63576
  0
ARC
  8
_0-0_0
  6
CONTINUOUS
 62
    7
 10
171.79185100000001
 20
101.274812
 40
16.140319999999999
 50
187.90471999999997
 51
275.58810599999998
  0
ARC
  8
_0-0_0
  6
CONTINUOUS
 62
    7
 10
163.08792499999998
 20
92.440266000000008
 40
43.712988000000003
 50
181.970091
 51
203.245611
  0
ARC
  8
_0-0_0
  6
CONTINUOUS
 62
    7
 10
190.825492
 20
101.184101
 40
82.708214999999996
 50
199.11508200000003
 51
246.79399600000002
  0
ARC
  8
_0-0_0
  6
CONTINUOUS
 62
    7
 10
190.825492
 20
101.184101
 40
72.708214999999996
 50
200.949274
 51
246.57166000000001
  0
ARC
  8
_0-0_0
  6
CONTINUOUS
 62
    7
 10
166.37244099999998
 20
93.331806
 40
57.035107000000004
 50
148.03081300000002
 51
199.70600200000001
  0
ARC
  8
_0-0_0
  6
CONTINUOUS
 62
    7
 10
126.26518
 20
91.310272999999995
 40
30.605785999999998
 50
14.620361000000003
 51
57.81360999999999
  0
ARC
  8
_0-0_0
  6
CONTINUOUS
 62
    7
 10
133.87515999999999
 20
97.675349000000011
 40
14.814049000000001
 50
23.488993000000001
 51
120.38641400000002
  0
ARC
  8
_0-0_0
  6
CONTINUOUS
 62
    7
 10
143.764161
 20
93.229974999999996
 40
24.471005000000002
 50
135.26143300000004
 51
185.37540500000003
  0
ARC
  8
_0-0_0
  6
CONTINUOUS
 62
    7
 10
132.44285400000001
 20
100.156367
 40
14.111514
 50
42.181615999999998
 51
162.825986
  0
ARC
  8
_0-0_0
  6
CONTINUOUS
 62
    7
 10
185.25013200000001
 20
115.81029700000001
 40
9.512556
 50
197.82118399999999
 51
243.40450100000001
  0
ARC
  8
_0-0_0
  6
CONTINUOUS
 62
    7
 10
142.17523599999998
 20
92.442976000000002
 40
35.630527000000001
 50
6.3773359999999997
 51
85.590446
  0
ARC
  8
_0-0_0
  6
CONTINUOUS
 62
    7
 10
142.004582
 20
100.583833
 40
20.197033999999999
 50
343.986468
 51
96.31952600000001
  0
ARC
  8
_0-0_0
  6
CONTINUOUS
 62
    7
 10
143.87326100000001
 20
101.128962
 40
23.484976
 50
17.948264000000002
 51
114.27980199999999
  0
LINE
  8
_0-0_0
  6
CONTINUOUS
 62
    7
 10
168.99786
 20
112.24560600000001
 11
170.58101600000001
 21
109.468659
  0
LINE
  8
_0-0_0
  6
CONTINUOUS
 62
    7
 10
159.06715500000001
 20
110.57127199999999
 11
159.978669
 21
108.856092
  0
LINE
  8
_0-0_0
  6
CONTINUOUS
 62
    7
 10
160.79423600000001
 20
110.244575
 11
161.08208100000002
 21
108.97860800000001
  0
LINE
  8
_0-0_0
  6
CONTINUOUS
 62
    7
 10
180.07995199999999
 20
110.40792300000001
 11
185.50106299999999
 21
109.632008
  0
ARC
  8
_0-0_0
  6
CONTINUOUS
 62
    7
 10
199.06463400000001
 20
134.481855
 40
11.466322999999999
 50
211.09329399999999
 51
339.44420100000008
  0
ARC
  8
_0-0_0
  6
CONTINUOUS
 62
    7
 10
194.374818
 20
132.980616
 40
32.088956000000003
 50
245.36279799999997
 51
342.66078299999998
  0
ARC
  8
_0-0_0
  6
CONTINUOUS
 62
    7
 10
193.99279899999999
 20
129.59943900000002
 40
31.675460999999999
 50
243.221643
 51
348.12676399999998
  0
ARC
  8
_0-0_0
  6
CONTINUOUS
 62
    7
 10
191.86978500000001
 20
137.27895599999999
 40
31.887606999999999
 50
250.05330699999999
 51
328.58510100000001
  0
ARC
  8
_0-0_0
  6
CONTINUOUS
 62
    7
 10
196.673304
 20
134.646906
 40
21.490680000000001
 50
238.67683499999998
 51
312.41031199999998
  0
ARC
  8
_0-0_0
  6
CONTINUOUS
 62
    7
 10
198.609669
 20
130.78770800000001
 40
13.206773
 50
210.48130900000001
 51
356.44618100000008
  0
LINE
  8
_0-0_0
  6
CONTINUOUS
 62
    7
 10
195.143922
 20
111.79639399999999
 11
189.530912
 21
112.735658
  0
LINE
  8
_0-0_0
  6
CONTINUOUS
 62
    7
 10
190.77824799999999
 20
125.31360599999999
 11
192.505326
 21
122.822517
  0
ARC
  8
_0-0_0
  6
CONTINUOUS
 62
    7
 10
192.87596200000002
 20
120.582301
 40
101.508447
 50
250.046423
 51
337.37263100000001
  0
ARC
  8
_0-0_0
  6
CONTINUOUS
 62
    7
 10
192.15506400000001
 20
205.66763399999999
 40
83.134771999999998
 50
42.396124999999998
 51
103.275042
  0
ARC
  8
_0-0_0
  6
CONTINUOUS
 62
    7
 10
192.87596200000002
 20
120.582301
 40
91.508435000000006
 50
250.22529200000002
 51
337.35694900000004
  0
ARC
  8
_0-0_0
  6
CONTINUOUS
 62
    7
 10
189.96365800000001
 20
203.03605999999999
 40
76.528527999999994
 50
42.699378000000003
 51
119.72290300000002
  0
ENDSEC
  0
EOF
