  0
SECTION
  2
HEADER
  9
$ACADVER
  1
AC1009
  9
$INSBASE
 10
0
 20
0
 30
0
  9
$EXTMIN
 10
0
 20
0
  9
$EXTMAX
 10
420
 20
297
  9
$LIMMIN
 10
0
 20
0
  9
$LIMMAX
 10
420
 20
297
  9
$LTSCALE
 40
1
  0
ENDSEC
  0
SECTION
  2
TABLES
  0
TABLE
  2
LTYPE
 70
     9
  0
LTYPE
  2
CONTINUOUS
 70
    64
  3
実線
 72
    65
 73
     0
 40
0.0
  0
LTYPE
  2
DASHED1
 70
    64
  3
--  --  --  --  --  --  --  --  
 72
    65
 73
     2
 40
2.5
 49
1.25
 49
-1.25
  0
LTYPE
  2
DASHED2
 70
    64
  3
----    ----    ----    ----    
 72
    65
 73
     2
 40
5.0
 49
2.5
 49
-2.5
  0
LTYPE
  2
DASHED3
 70
    64
  3
------  ------  ------  ------  
 72
    65
 73
     2
 40
5.0
 49
3.75
 49
-1.25
  0
LTYPE
  2
CENTER1
 70
    64
  3
----- - ----- - ----- - ----- - 
 72
    65
 73
     4
 40
10.0
 49
6.25
 49
-1.25
 49
1.25
 49
-1.25
  0
LTYPE
  2
CENTER2
 70
    64
  3
----------  --  ----------  --  
 72
    65
 73
     4
 40
20.0
 49
12.5
 49
-2.5
 49
2.5
 49
-2.5
  0
LTYPE
  2
PHANTOM1
 70
    64
  3
--- - - --- - - --- - - --- - - 
 72
    65
 73
     6
 40
10.0
 49
3.25
 49
-1.25
 49
1.25
 49
-1.25
 49
1.25
 49
-1.25
  0
LTYPE
  2
PHANTOM2
 70
    64
  3
--------  -  -  --------  -  -  
 72
    65
 73
     6
 40
20.0
 49
10.0
 49
-2.5
 49
1.25
 49
-2.5
 49
1.25
 49
-2.5
  0
LTYPE
  2
DOT
 70
    64
  3
-   -   -   -   -   -   -   -   
 72
    65
 73
     2
 40
2.5
 49
0.625
 49
-1.875
  0
LTYPE
  2
DUMMY
 70
    64
  3
ダミー
 72
    65
 73
     0
 40
0.0
  0
LTYPE
  2
RAND1
 70
    64
  3
ランダム線1
 72
    65
 73
     4
 40
10.0
 49
1.0
 49
-2.0
 49
3.0
 49
-4.0
  0
LTYPE
  2
RAND2
 70
    64
  3
ランダム線2
 72
    65
 73
     4
 40
14.0
 49
2.0
 49
-3.0
 49
4.0
 49
-5.0
  0
LTYPE
  2
RAND3
 70
    64
  3
ランダム線3
 72
    65
 73
     4
 40
18.0
 49
3.0
 49
-4.0
 49
5.0
 49
-6.0
  0
LTYPE
  2
RAND4
 70
    64
  3
ランダム線4
 72
    65
 73
     4
 40
22.0
 49
4.0
 49
-5.0
 49
6.0
 49
-7.0
  0
LTYPE
  2
RAND5
 70
    64
  3
ランダム線5
 72
    65
 73
     4
 40
26.0
 49
5.0
 49
-6.0
 49
7.0
 49
-8.0
  0
LTYPE
  2
LONG1
 70
    64
  3
----------  --  ----------  --  
 72
    65
 73
     4
 40
40.0
 49
32.5
 49
-2.5
 49
2.5
 49
-2.5
  0
LTYPE
  2
LONG2
 70
    64
  3
--------  -  -  --------  -  -  
 72
    65
 73
     6
 40
40.0
 49
30.0
 49
-2.5
 49
1.25
 49
-2.5
 49
1.25
 49
-2.5
  0
LTYPE
  2
LONG3
 70
    64
  3
+++++++++++++++..+++++++++++++++
 72
    65
 73
     2
 40
40.0
 49
37.5
 49
-2.5
  0
LTYPE
  2
LONG4
 70
    64
  3
+++++++++++++++..+++++++++++++++
 72
    65
 73
     2
 40
80.0
 49
75.0
 49
-5.0
  0
LTYPE
  2
LONG5
 70
    64
  3
----------  --  ----------  --  
 72
    65
 73
     4
 40
60.0
 49
37.5
 49
-7.5
 49
7.5
 49
-7.5
  0
LTYPE
  2
dashed
 70
   64
  3
-------   -------------   ------
 72
   65
 73
    2
 40
7.5
 49
6
 49
-1.5
  0
LTYPE
  2
dashed_spaced
 70
   64
  3
----        --------        ----
 72
   65
 73
    2
 40
12
 49
6
 49
-6
  0
LTYPE
  2
long_dashed_dotted
 70
   64
  3
------------- --- --------------
 72
   65
 73
    4
 40
15.25
 49
12
 49
-1.5
 49
0.25
 49
-1.5
  0
LTYPE
  2
long_dashed_double-dotted
 70
   64
  3
----------- --- --- ------------
 72
   65
 73
    6
 40
17
 49
12
 49
-1.5
 49
0.25
 49
-1.5
 49
0.25
 49
-1.5
  0
LTYPE
  2
long_dashed_triplicate-dotted
 70
   64
  3
--------- --- --- --- ----------
 72
   65
 73
    8
 40
18.75
 49
12
 49
-1.5
 49
0.25
 49
-1.5
 49
0.25
 49
-1.5
 49
0.25
 49
-1.5
  0
LTYPE
  2
dotted
 70
   64
  3
   -       -       -       -    
 72
   65
 73
    2
 40
1.75
 49
0.25
 49
-1.5
  0
LTYPE
  2
chain
 70
   64
  3
-------------- -- --------------
 72
   65
 73
    4
 40
18.5
 49
12
 49
-1.5
 49
3.5
 49
-1.5
  0
LTYPE
  2
chain_double_dash
 70
   64
  3
------------ -- -- -------------
 72
   65
 73
    6
 40
23.5
 49
12
 49
-1.5
 49
3.5
 49
-1.5
 49
3.5
 49
-1.5
  0
LTYPE
  2
dashed_dotted
 70
   64
  3
-----------     -     ----------
 72
   65
 73
    4
 40
9.25
 49
6
 49
-1.5
 49
0.25
 49
-1.5
  0
LTYPE
  2
double-dashed_dotted
 70
   64
  3
------   -----------   -   -----
 72
   65
 73
    6
 40
16.75
 49
6
 49
-1.5
 49
6
 49
-1.5
 49
0.25
 49
-1.5
  0
LTYPE
  2
dashed_double-dotted
 70
   64
  3
---------    -    -    ---------
 72
   65
 73
    6
 40
11
 49
6
 49
-1.5
 49
0.25
 49
-1.5
 49
0.25
 49
-1.5
  0
LTYPE
  2
double-dashed_double-dotted
 70
   64
  3
-----   ---------   -   -   ----
 72
   65
 73
    8
 40
18.5
 49
6
 49
-1.5
 49
6
 49
-1.5
 49
0.25
 49
-1.5
 49
0.25
 49
-1.5
  0
LTYPE
  2
dashed_triplicate-dotted
 70
   64
  3
-------    -    -    -    ------
 72
   65
 73
    8
 40
12.75
 49
6
 49
-1.5
 49
0.25
 49
-1.5
 49
0.25
 49
-1.5
 49
0.25
 49
-1.5
  0
LTYPE
  2
double-dashed_triplicate-dotted
 70
   64
  3
-----  ---------  -  -  -  -----
 72
   65
 73
   10
 40
20.25
 49
6
 49
-1.5
 49
6
 49
-1.5
 49
0.25
 49
-1.5
 49
0.25
 49
-1.5
 49
0.25
 49
-1.5
  0
LTYPE
  2
undefined
 70
   64
  3
--------------------------------
 72
   65
 73
    0
 40
0
  0
LTYPE
  2
BORDER
 70
   64
  3
----     --------     -     ----
 72
   65
 73
    0
 40
0
  0
LTYPE
  2
BORDER2
 70
   64
  3
----     --------     -     ----
 72
   65
 73
    0
 40
0
  0
LTYPE
  2
BORDERX2
 70
   64
  3
----     --------     -     ----
 72
   65
 73
    0
 40
0
  0
LTYPE
  2
CENTER
 70
   64
  3
----------    ----    ----------
 72
   65
 73
    0
 40
0
  0
LTYPE
  2
CENTER2_21
 70
   64
  3
----------    ----    ----------
 72
   65
 73
    0
 40
0
  0
LTYPE
  2
CENTERX2
 70
   64
  3
----------    ----    ----------
 72
   65
 73
    0
 40
0
  0
LTYPE
  2
DASHDOT
 70
   64
  3
--------        -        -------
 72
   65
 73
    0
 40
0
  0
LTYPE
  2
DASHDOT2
 70
   64
  3
--------        -        -------
 72
   65
 73
    0
 40
0
  0
LTYPE
  2
DASHDOTX2
 70
   64
  3
--------        -        -------
 72
   65
 73
    0
 40
0
  0
LTYPE
  2
DASHED
 70
   64
  3
------     -----------     -----
 72
   65
 73
    0
 40
0
  0
LTYPE
  2
DASHED2_27
 70
   64
  3
------     -----------     -----
 72
   65
 73
    0
 40
0
  0
LTYPE
  2
DASHEDX2
 70
   64
  3
------     -----------     -----
 72
   65
 73
    0
 40
0
  0
LTYPE
  2
DIVIDE
 70
   64
  3
------      -      -      ------
 72
   65
 73
    0
 40
0
  0
LTYPE
  2
DIVIDE2
 70
   64
  3
------      -      -      ------
 72
   65
 73
    0
 40
0
  0
LTYPE
  2
DIVIDEX2
 70
   64
  3
------      -      -      ------
 72
   65
 73
    0
 40
0
  0
LTYPE
  2
DOT_32
 70
   64
  3
-               -               
 72
   65
 73
    0
 40
0
  0
ENDTAB
  0
TABLE
  2
STYLE
  5
3
100
AcDbSymbolTable
 70
     1
  0
STYLE
  5
10
100
AcDbSymbolTableRecord
100
AcDbTextStyleTableRecord
  2
STANDARD
 70
     0
 40
0.0
 41
1.0
 50
0.0
 71
     0
 42
0.2
  3
txt
  4
bigfont.shx
  0
STYLE
  5
26
100
AcDbSymbolTableRecord
100
AcDbTextStyleTableRecord
  2
TATEGAKI
 70
    68
 40
0.0
 41
1.0
 50
0.0
 71
     0
 42
1.0
  3
txt
  4
bigfont.shx
  0
ENDTAB
  0
TABLE
  2
LAYER
 70
    2
  0
LAYER
  2
_0-0_0
 70
   64
 62
    7
  6
CONTINUOUS
  0
LAYER
  2
ADD_LINE
 70
   64
 62
    7
  6
CONTINUOUS
  0
ENDTAB
  0
ENDSEC
  0
SECTION
  2
BLOCKS
  0
ENDSEC
  0
SECTION
  2
ENTITIES
  0
ARC
  8
_0-0_0
  6
CONTINUOUS
 62
    7
 10
228.25357349999999
 20
282.57715400000001
 40
2.985268
 50
247.47578500000003
 51
345.81613900000008
  0
ARC
  8
_0-0_0
  6
CONTINUOUS
 62
    7
 10
223.4364535
 20
280.96015
 40
7.7620370000000003
 50
6.550592
 51
100.55706400000001
  0
ARC
  8
_0-0_0
  6
CONTINUOUS
 62
    7
 10
222.2120755
 20
289.71460500000001
 40
1.141078
 50
129.965003
 51
260.02062999999998
  0
ARC
  8
_0-0_0
  6
CONTINUOUS
 62
    7
 10
225.22546249999999
 20
261.34207700000002
 40
29.486105999999999
 50
71.297113999999993
 51
97.299378000000019
  0
ARC
  8
_0-0_0
  6
CONTINUOUS
 62
    7
 10
236.92682550000001
 20
294.27051299999999
 40
5.480899
 50
245.80454700000001
 51
289.40656300000001
  0
ARC
  8
_0-0_0
  6
CONTINUOUS
 62
    7
 10
228.4526315
 20
273.885626
 40
27.148902
 50
68.687974999999994
 51
119.47899700000002
  0
ARC
  8
_0-0_0
  6
CONTINUOUS
 62
    7
 10
232.51284649999999
 20
279.68659000000002
 40
24.929635999999999
 50
134.32911200000001
 51
158.75904600000001
  0
ARC
  8
_0-0_0
  6
CONTINUOUS
 62
    7
 10
178.95258849999999
 20
286.86542300000002
 40
30.380763999999999
 50
3.4967220000000001
 51
66.765591000000001
  0
LINE
  8
_0-0_0
  6
CONTINUOUS
 62
    7
 10
190.93759850000001
 20
314.78223200000002
 11
188.4757275
 21
315.20746400000002
  0
LINE
  8
_0-0_0
  6
CONTINUOUS
 62
    7
 10
188.4757275
 20
315.20746400000002
 11
186.15655849999999
 21
315.20746400000002
  0
LINE
  8
_0-0_0
  6
CONTINUOUS
 62
    7
 10
186.15655849999999
 20
315.20746400000002
 11
184.55099849999999
 21
315.07990000000001
  0
LINE
  8
_0-0_0
  6
CONTINUOUS
 62
    7
 10
184.55099849999999
 20
315.07990000000001
 11
183.7303575
 21
314.65466800000002
  0
LINE
  8
_0-0_0
  6
CONTINUOUS
 62
    7
 10
183.7303575
 20
314.65466800000002
 11
182.90974549999999
 21
313.97437000000002
  0
LINE
  8
_0-0_0
  6
CONTINUOUS
 62
    7
 10
182.90974549999999
 20
313.97437000000002
 11
182.51726149999999
 21
313.16656999999998
  0
LINE
  8
_0-0_0
  6
CONTINUOUS
 62
    7
 10
182.51726149999999
 20
313.16656999999998
 11
182.3745495
 21
312.188604
  0
LINE
  8
_0-0_0
  6
CONTINUOUS
 62
    7
 10
182.3745495
 20
312.188604
 11
182.51726249999999
 21
311.380742
  0
LINE
  8
_0-0_0
  6
CONTINUOUS
 62
    7
 10
182.51726249999999
 20
311.380742
 11
182.37454750000001
 21
310.700445
  0
LINE
  8
_0-0_0
  6
CONTINUOUS
 62
    7
 10
182.37454750000001
 20
310.700445
 11
180.05539450000001
 21
309.33984900000002
  0
LINE
  8
_0-0_0
  6
CONTINUOUS
 62
    7
 10
180.05539450000001
 20
309.33984900000002
 11
178.8422885
 21
308.95721900000001
  0
LINE
  8
_0-0_0
  6
CONTINUOUS
 62
    7
 10
178.8422885
 20
308.95721900000001
 11
177.87895349999999
 21
308.40448500000002
  0
LINE
  8
_0-0_0
  6
CONTINUOUS
 62
    7
 10
177.87895349999999
 20
308.40448500000002
 11
177.48647249999999
 21
307.85175099999998
  0
LINE
  8
_0-0_0
  6
CONTINUOUS
 62
    7
 10
177.48647249999999
 20
307.85175099999998
 11
177.05832649999999
 21
307.29901599999999
  0
ARC
  8
_0-0_0
  6
CONTINUOUS
 62
    7
 10
182.14105949999998
 20
306.65771999999998
 40
5.1230370000000001
 50
172.80907300000001
 51
221.550614
  0
ARC
  8
_0-0_0
  6
CONTINUOUS
 62
    7
 10
166.89483250000001
 20
291.58478300000002
 40
16.326158
 50
3.2224580000000005
 51
45.651768999999994
  0
ARC
  8
_0-0_0
  6
CONTINUOUS
 62
    7
 10
191.78462149999999
 20
294.62726400000003
 40
8.8483490000000007
 50
193.89412599999997
 51
257.24811899999997
  0
ARC
  8
_0-0_0
  6
CONTINUOUS
 62
    7
 10
188.54802949999998
 20
276.91345799999999
 40
9.1739829999999998
 50
358.04556500000007
 51
81.957475000000059
  0
ARC
  8
_0-0_0
  6
CONTINUOUS
 62
    7
 10
190.66964250000001
 20
266.49176599999998
 40
12.322697
 50
55.118981000000005
 51
123.47334600000001
  0
ARC
  8
_0-0_0
  6
CONTINUOUS
 62
    7
 10
190.2330905
 20
278.44415800000002
 40
6.5764930000000001
 50
194.742108
 51
273.65349600000002
  0
LINE
  8
_0-0_0
  6
CONTINUOUS
 62
    7
 10
221.2293885
 20
289.27112399999999
 11
224.0837315
 21
290.07898499999999
  0
LINE
  8
_0-0_0
  6
CONTINUOUS
 62
    7
 10
224.0837315
 20
290.07898499999999
 11
228.54365849999999
 21
289.781316
  0
LINE
  8
_0-0_0
  6
CONTINUOUS
 62
    7
 10
228.54365849999999
 20
289.781316
 11
230.57736850000001
 21
289.398687
  0
LINE
  8
_0-0_0
  6
CONTINUOUS
 62
    7
 10
230.57736850000001
 20
289.398687
 11
232.75381349999998
 21
288.29315700000001
  0
LINE
  8
_0-0_0
  6
CONTINUOUS
 62
    7
 10
232.75381349999998
 20
288.29315700000001
 11
235.3584085
 21
287.740453
  0
LINE
  8
_0-0_0
  6
CONTINUOUS
 62
    7
 10
235.3584085
 20
287.740453
 11
237.49917449999998
 21
287.910528
  0
LINE
  8
_0-0_0
  6
CONTINUOUS
 62
    7
 10
237.49917449999998
 20
287.910528
 11
239.14041750000001
 21
288.84595300000001
  0
LINE
  8
_0-0_0
  6
CONTINUOUS
 62
    7
 10
239.14041750000001
 20
288.84595300000001
 11
241.6022935
 21
288.718389
  0
ARC
  8
_0-0_0
  6
CONTINUOUS
 62
    7
 10
240.81690850000001
 20
281.02588400000002
 40
8.3359769999999997
 50
56.706927999999998
 51
104.37084299999999
  0
ARC
  8
_0-0_0
  6
CONTINUOUS
 62
    7
 10
245.94164549999999
 20
288.82959499999998
 40
1
 50
236.706571
 51
13.572924999999984
  0
ARC
  8
_0-0_0
  6
CONTINUOUS
 62
    7
 10
232.59773150000001
 20
285.60761000000002
 40
14.727389000000001
 50
13.574534999999999
 51
67.136708999999996
  0
LINE
  8
_0-0_0
  6
CONTINUOUS
 62
    7
 10
241.6022935
 20
288.718389
 11
242.7383485
 21
288.57886300000001
  0
LINE
  8
_0-0_0
  6
CONTINUOUS
 62
    7
 10
242.7383485
 20
288.57886300000001
 11
243.1541885
 21
288.52759300000002
  0
LINE
  8
_0-0_0
  6
CONTINUOUS
 62
    7
 10
243.1541885
 20
288.52759300000002
 11
243.75647549999999
 21
288.30548599999997
  0
LINE
  8
_0-0_0
  6
CONTINUOUS
 62
    7
 10
243.75647549999999
 20
288.30548599999997
 11
244.22967749999998
 21
288.03204899999997
  0
LINE
  8
_0-0_0
  6
CONTINUOUS
 62
    7
 10
244.22967749999998
 20
288.03204899999997
 11
244.5929395
 21
287.849828
  0
LINE
  8
_0-0_0
  6
CONTINUOUS
 62
    7
 10
244.5929395
 20
287.849828
 11
244.9753475
 21
287.55927100000002
  0
LINE
  8
_0-0_0
  6
CONTINUOUS
 62
    7
 10
244.9753475
 20
287.55927100000002
 11
246.41409949999999
 21
287.906744
  0
ARC
  8
_0-0_0
  6
CONTINUOUS
 62
    7
 10
186.52920649999999
 20
275.565313
 40
10.823149000000001
 50
7.0713249999999999
 51
77.325828000000001
  0
ARC
  8
_0-0_0
  6
CONTINUOUS
 62
    7
 10
222.7044515
 20
264.854986
 40
15.599602000000001
 50
73.595712000000006
 51
189.51377600000004
  0
ARC
  8
_0-0_0
  6
CONTINUOUS
 62
    7
 10
188.11479549999999
 20
257.609015
 40
14.495789
 50
45.485146
 51
79.918970999999999
  0
ARC
  8
_0-0_0
  6
CONTINUOUS
 62
    7
 10
191.2667605
 20
260.81485600000002
 40
10
 50
12.171511000000001
 51
45.484982000000009
  0
LINE
  8
_0-0_0
  6
CONTINUOUS
 62
    7
 10
201.04198249999999
 20
262.923224
 11
201.45428150000001
 21
261.01163300000002
  0
ARC
  8
_0-0_0
  6
CONTINUOUS
 62
    7
 10
220.2054665
 20
272.71216399999997
 40
14.265333
 50
48.544251000000003
 51
138.46852100000001
  0
LINE
  8
_0-0_0
  6
CONTINUOUS
 62
    7
 10
209.27678950000001
 20
281.36267600000002
 11
208.02800450000001
 21
279.61942099999999
  0
LINE
  8
_0-0_0
  6
CONTINUOUS
 62
    7
 10
207.77826249999998
 20
279.06665600000002
 11
207.49283149999999
 21
278.51392199999998
  0
LINE
  8
_0-0_0
  6
CONTINUOUS
 62
    7
 10
207.24307149999999
 20
277.57849699999997
 11
206.95763349999999
 21
276.89822900000001
  0
LINE
  8
_0-0_0
  6
CONTINUOUS
 62
    7
 10
206.81491549999998
 20
276.09033799999997
 11
206.6722025
 21
275.11243200000001
  0
LINE
  8
_0-0_0
  6
CONTINUOUS
 62
    7
 10
206.5294825
 20
274.60223999999999
 11
206.42244249999999
 21
273.751867
  0
LINE
  8
_0-0_0
  6
CONTINUOUS
 62
    7
 10
206.13700249999999
 20
272.00855100000001
 11
206.1370105
 21
270.22278399999999
  0
LINE
  8
_0-0_0
  6
CONTINUOUS
 62
    7
 10
206.27972149999999
 20
267.11896300000001
 11
206.52947749999998
 21
264.39777199999997
  0
ARC
  8
_0-0_0
  6
CONTINUOUS
 62
    7
 10
222.3122285
 20
280.05270899999999
 40
8.3188659999999999
 50
35.569839000000002
 51
106.27706000000001
  0
ARC
  8
_0-0_0
  6
CONTINUOUS
 62
    7
 10
222.3383795
 20
266.544195
 40
16.365713
 50
68.660033000000013
 51
160.02043100000003
  0
ARC
  8
_0-0_0
  6
CONTINUOUS
 62
    7
 10
227.71882549999998
 20
276.56494700000002
 40
21.91506
 50
33.681090000000005
 51
168.03686000000002
  0
ARC
  8
_0-0_0
  6
CONTINUOUS
 62
    7
 10
225.67164450000001
 20
273.83460000000002
 40
20.425899000000001
 50
50.194510000000001
 51
152.87187300000002
  0
ARC
  8
_0-0_0
  6
CONTINUOUS
 62
    7
 10
181.71838149999999
 20
285.970281
 40
24.774231
 50
350.28067799999997
 51
86.582564999999946
  0
LINE
  8
_0-0_0
  6
CONTINUOUS
 62
    7
 10
206.13700649999998
 20
281.66028399999999
 11
205.60181549999999
 21
278.13126199999999
  0
LINE
  8
_0-0_0
  6
CONTINUOUS
 62
    7
 10
205.45910849999999
 20
277.02576199999999
 11
205.31638749999999
 21
272.56134600000001
  0
LINE
  8
_0-0_0
  6
CONTINUOUS
 62
    7
 10
205.3163935
 20
271.20074999999997
 11
205.4591015
 21
269.84015499999998
  0
LINE
  8
_0-0_0
  6
CONTINUOUS
 62
    7
 10
205.9942925
 20
265.46069899999998
 11
206.13700649999998
 21
265.33313600000002
  0
ARC
  8
_0-0_0
  6
CONTINUOUS
 62
    7
 10
173.57843750000001
 20
275.82349199999999
 40
27.910098999999999
 50
9.4942949999999993
 51
79.427061000000009
  0
ARC
  8
_0-0_0
  6
CONTINUOUS
 62
    7
 10
175.2738645
 20
278.66608200000002
 40
29.913747000000001
 50
350.54456900000008
 51
81.839149000000049
  0
LINE
  8
_0-0_0
  6
CONTINUOUS
 62
    7
 10
201.10620850000001
 20
271.03064499999999
 11
200.96349749999999
 21
272.56134600000001
  0
LINE
  8
_0-0_0
  6
CONTINUOUS
 62
    7
 10
200.96349749999999
 20
272.56134600000001
 11
200.4283135
 21
274.43213500000002
  0
LINE
  8
_0-0_0
  6
CONTINUOUS
 62
    7
 10
200.4283135
 20
274.43213500000002
 11
200.28559749999999
 21
275.11243200000001
  0
LINE
  8
_0-0_0
  6
CONTINUOUS
 62
    7
 10
199.2152055
 20
278.25879500000002
 11
198.3945875
 21
281.36267600000002
  0
LINE
  8
_0-0_0
  6
CONTINUOUS
 62
    7
 10
198.3945875
 20
281.36267600000002
 11
197.43123750000001
 21
282.72327200000001
  0
LINE
  8
_0-0_0
  6
CONTINUOUS
 62
    7
 10
197.43123750000001
 20
282.72327200000001
 11
196.75333849999998
 21
283.70117699999997
  0
LINE
  8
_0-0_0
  6
CONTINUOUS
 62
    7
 10
196.75333849999998
 20
283.70117699999997
 11
196.21814449999999
 21
284.63660199999998
  0
LINE
  8
_0-0_0
  6
CONTINUOUS
 62
    7
 10
196.21814449999999
 20
284.63660199999998
 11
195.54024049999998
 21
286.12476099999998
  0
LINE
  8
_0-0_0
  6
CONTINUOUS
 62
    7
 10
193.22107449999999
 20
290.07898499999999
 11
190.7948835
 21
293.73554000000001
  0
LINE
  8
_0-0_0
  6
CONTINUOUS
 62
    7
 10
190.7948835
 20
293.73554000000001
 11
189.29634350000001
 21
295.64886999999999
  0
LINE
  8
_0-0_0
  6
CONTINUOUS
 62
    7
 10
189.29634350000001
 20
295.64886999999999
 11
188.47572449999998
 21
296.584295
  0
LINE
  8
_0-0_0
  6
CONTINUOUS
 62
    7
 10
187.5123815
 20
298.07245399999999
 11
186.72743349999999
 21
299.17792300000002
  0
LINE
  8
_0-0_0
  6
CONTINUOUS
 62
    7
 10
185.47865250000001
 20
276.77063499999997
 11
186.8344725
 21
277.280889
  0
LINE
  8
_0-0_0
  6
CONTINUOUS
 62
    7
 10
188.3330105
 20
277.57849699999997
 11
189.43906949999999
 21
277.57849699999997
  0
LINE
  8
_0-0_0
  6
CONTINUOUS
 62
    7
 10
189.43906949999999
 20
277.57849699999997
 11
191.47279850000001
 21
277.57849699999997
  0
LINE
  8
_0-0_0
  6
CONTINUOUS
 62
    7
 10
191.47279850000001
 20
277.57849699999997
 11
193.3637975
 21
277.02576199999999
  0
LINE
  8
_0-0_0
  6
CONTINUOUS
 62
    7
 10
194.7196075
 20
276.473028
 11
196.21814549999999
 21
276.09033799999997
  0
LINE
  8
_0-0_0
  6
CONTINUOUS
 62
    7
 10
196.21814549999999
 20
276.09033799999997
 11
197.3241975
 21
275.53760299999999
  0
LINE
  8
_0-0_0
  6
CONTINUOUS
 62
    7
 10
197.3241975
 20
275.53760299999999
 11
198.25187249999999
 21
274.60223999999999
  0
LINE
  8
_0-0_0
  6
CONTINUOUS
 62
    7
 10
198.25187249999999
 20
274.60223999999999
 11
199.07249149999998
 21
273.921942
  0
LINE
  8
_0-0_0
  6
CONTINUOUS
 62
    7
 10
199.07249149999998
 20
273.921942
 11
199.75039949999999
 21
272.39124099999998
  0
LINE
  8
_0-0_0
  6
CONTINUOUS
 62
    7
 10
199.75039949999999
 20
272.39124099999998
 11
200.57102649999999
 21
270.22278399999999
  0
LINE
  8
_0-0_0
  6
CONTINUOUS
 62
    7
 10
200.57102649999999
 20
270.22278399999999
 11
201.39165249999999
 21
268.054327
  0
LINE
  8
_0-0_0
  6
CONTINUOUS
 62
    7
 10
201.39165249999999
 20
268.054327
 11
202.74746450000001
 21
263.58991099999997
  0
LINE
  8
_0-0_0
  6
CONTINUOUS
 62
    7
 10
189.5817835
 20
275.53760299999999
 11
190.93760349999999
 21
275.23999600000002
  0
LINE
  8
_0-0_0
  6
CONTINUOUS
 62
    7
 10
190.93760349999999
 20
275.23999600000002
 11
192.1506885
 21
275.11243200000001
  0
LINE
  8
_0-0_0
  6
CONTINUOUS
 62
    7
 10
192.97132249999999
 20
274.857305
 11
194.0416975
 21
274.60223999999999
  0
LINE
  8
_0-0_0
  6
CONTINUOUS
 62
    7
 10
194.0416975
 20
274.60223999999999
 11
194.86232749999999
 21
274.04944399999999
  0
LINE
  8
_0-0_0
  6
CONTINUOUS
 62
    7
 10
194.86232749999999
 20
274.04944399999999
 11
196.0754225
 21
272.94397500000002
  0
LINE
  8
_0-0_0
  6
CONTINUOUS
 62
    7
 10
196.0754225
 20
272.94397500000002
 11
197.03877249999999
 21
272.13611400000002
  0
LINE
  8
_0-0_0
  6
CONTINUOUS
 62
    7
 10
197.03877249999999
 20
272.13611400000002
 11
198.53730350000001
 21
270.09522099999998
  0
LINE
  8
_0-0_0
  6
CONTINUOUS
 62
    7
 10
183.8730845
 20
296.45673099999999
 11
184.1228405
 21
295.64886999999999
  0
LINE
  8
_0-0_0
  6
CONTINUOUS
 62
    7
 10
184.1228405
 20
295.64886999999999
 11
184.6937045
 21
294.67096500000002
  0
LINE
  8
_0-0_0
  6
CONTINUOUS
 62
    7
 10
184.6937045
 20
294.67096500000002
 11
184.80075049999999
 21
293.60803800000002
  0
LINE
  8
_0-0_0
  6
CONTINUOUS
 62
    7
 10
184.80075049999999
 20
293.60803800000002
 11
184.9434675
 21
293.05524200000002
  0
LINE
  8
_0-0_0
  6
CONTINUOUS
 62
    7
 10
184.9434675
 20
293.05524200000002
 11
185.22889649999999
 21
292.24744199999998
  0
LINE
  8
_0-0_0
  6
CONTINUOUS
 62
    7
 10
185.22889649999999
 20
292.24744199999998
 11
185.4786465
 21
291.56714399999998
  0
LINE
  8
_0-0_0
  6
CONTINUOUS
 62
    7
 10
186.15655849999999
 20
290.88684599999999
 11
186.8344725
 21
290.33405099999999
  0
LINE
  8
_0-0_0
  6
CONTINUOUS
 62
    7
 10
186.8344725
 20
290.33405099999999
 11
187.65509349999999
 21
289.781316
  0
LINE
  8
_0-0_0
  6
CONTINUOUS
 62
    7
 10
187.65509349999999
 20
289.781316
 11
188.61844049999999
 21
289.27112399999999
  0
LINE
  8
_0-0_0
  6
CONTINUOUS
 62
    7
 10
188.61844049999999
 20
289.27112399999999
 11
190.50944149999998
 21
288.29318799999999
  0
LINE
  8
_0-0_0
  6
CONTINUOUS
 62
    7
 10
190.50944149999998
 20
288.29318799999999
 11
191.33006950000001
 21
287.74042300000002
  0
LINE
  8
_0-0_0
  6
CONTINUOUS
 62
    7
 10
191.33006950000001
 20
287.74042300000002
 11
192.29341349999999
 21
287.06012499999997
  0
LINE
  8
_0-0_0
  6
CONTINUOUS
 62
    7
 10
192.29341349999999
 20
287.06012499999997
 11
193.1140465
 21
286.25232499999998
  0
LINE
  8
_0-0_0
  6
CONTINUOUS
 62
    7
 10
184.55099250000001
 20
313.97437000000002
 11
185.4786545
 21
314.39960200000002
  0
LINE
  8
_0-0_0
  6
CONTINUOUS
 62
    7
 10
185.4786545
 20
314.39960200000002
 11
186.29928949999999
 21
314.52716600000002
  0
LINE
  8
_0-0_0
  6
CONTINUOUS
 62
    7
 10
186.29928949999999
 20
314.52716600000002
 11
187.65509549999999
 21
314.22949699999998
  0
LINE
  8
_0-0_0
  6
CONTINUOUS
 62
    7
 10
189.29634149999998
 20
313.97437000000002
 11
190.11697849999999
 21
313.54919899999999
  0
LINE
  8
_0-0_0
  6
CONTINUOUS
 62
    7
 10
190.11697849999999
 20
313.54919899999999
 11
192.29341149999999
 21
312.48627199999999
  0
LINE
  8
_0-0_0
  6
CONTINUOUS
 62
    7
 10
192.29341149999999
 20
312.48627199999999
 11
193.64922749999999
 21
311.67841099999998
  0
LINE
  8
_0-0_0
  6
CONTINUOUS
 62
    7
 10
200.57102749999999
 20
306.49115499999999
 11
200.7137405
 21
306.108495
  0
LINE
  8
_0-0_0
  6
CONTINUOUS
 62
    7
 10
200.7137405
 20
306.108495
 11
201.39165149999999
 21
305.30060300000002
  0
LINE
  8
_0-0_0
  6
CONTINUOUS
 62
    7
 10
201.39165149999999
 20
305.30060300000002
 11
202.31931549999999
 21
304.19513499999999
  0
LINE
  8
_0-0_0
  6
CONTINUOUS
 62
    7
 10
202.74746349999998
 20
303.08966600000002
 11
203.7108125
 21
302.28180500000002
  0
LINE
  8
_0-0_0
  6
CONTINUOUS
 62
    7
 10
203.7108125
 20
302.28180500000002
 11
203.96057149999999
 21
301.72906999999998
  0
LINE
  8
_0-0_0
  6
CONTINUOUS
 62
    7
 10
204.24599849999998
 20
300.53851800000001
 11
205.31638649999999
 21
298.880315
  0
LINE
  8
_0-0_0
  6
CONTINUOUS
 62
    7
 10
205.31638649999999
 20
298.880315
 11
205.7445385
 21
297.94489099999998
  0
LINE
  8
_0-0_0
  6
CONTINUOUS
 62
    7
 10
205.7445385
 20
297.94489099999998
 11
205.99428849999998
 21
297.26459299999999
  0
LINE
  8
_0-0_0
  6
CONTINUOUS
 62
    7
 10
205.99428849999998
 20
297.26459299999999
 11
206.2797205
 21
296.03156000000001
  0
LINE
  8
_0-0_0
  6
CONTINUOUS
 62
    7
 10
206.2797205
 20
296.03156000000001
 11
206.52947749999998
 21
295.903997
  0
LINE
  8
_0-0_0
  6
CONTINUOUS
 62
    7
 10
206.52947749999998
 20
295.903997
 11
207.10035249999999
 21
294.41583800000001
  0
LINE
  8
_0-0_0
  6
CONTINUOUS
 62
    7
 10
207.10035249999999
 20
294.41583800000001
 11
207.49282349999999
 21
293.608068
  0
LINE
  8
_0-0_0
  6
CONTINUOUS
 62
    7
 10
207.49282349999999
 20
293.608068
 11
207.6355355
 21
292.50253800000002
  0
LINE
  8
_0-0_0
  6
CONTINUOUS
 62
    7
 10
207.6355355
 20
292.50253800000002
 11
207.6355465
 21
291.43958099999998
  0
LINE
  8
_0-0_0
  6
CONTINUOUS
 62
    7
 10
207.6355465
 20
291.43958099999998
 11
207.6355465
 21
289.526251
  0
LINE
  8
_0-0_0
  6
CONTINUOUS
 62
    7
 10
207.6355465
 20
289.526251
 11
207.49282149999999
 21
288.718389
  0
LINE
  8
_0-0_0
  6
CONTINUOUS
 62
    7
 10
207.49282149999999
 20
288.718389
 11
207.3501085
 21
287.74042300000002
  0
ARC
  8
_0-0_0
  6
CONTINUOUS
 62
    7
 10
242.21275549999999
 20
272.65085399999998
 40
36.749797000000001
 50
210.897581
 51
234.88597099999998
  0
ARC
  8
_0-0_0
  6
CONTINUOUS
 62
    7
 10
226.70147549999999
 20
265.02597600000001
 40
19.576094999999999
 50
188.073534
 51
215.06407899999999
  0
LINE
  8
_0-0_0
  6
CONTINUOUS
 62
    7
 10
183.2498775
 20
70.605576999999997
 11
186.7100485
 21
67.308495999999991
  0
LINE
  8
_0-0_0
  6
CONTINUOUS
 62
    7
 10
191.42705949999998
 20
71.016571999999996
 11
188.92345849999998
 21
73.854919999999993
  0
ARC
  8
_0-0_0
  6
CONTINUOUS
 62
    7
 10
176.79369650000001
 20
39.885582999999997
 40
2.985268
 50
93.474889000000005
 51
191.81558999999999
  0
ARC
  8
_0-0_0
  6
CONTINUOUS
 62
    7
 10
180.41448550000001
 20
43.450562999999988
 40
7.7620370000000003
 50
212.55000899999999
 51
306.55705799999998
  0
ARC
  8
_0-0_0
  6
CONTINUOUS
 62
    7
 10
185.35265649999999
 20
36.118836999999999
 40
1.141078
 50
335.96629600000006
 51
106.02137900000002
  0
ARC
  8
_0-0_0
  6
CONTINUOUS
 62
    7
 10
170.20650849999998
 20
60.298967000000005
 40
29.486105999999999
 50
277.29712900000004
 51
303.29938600000008
  0
ARC
  8
_0-0_0
  6
CONTINUOUS
 62
    7
 10
174.1243245
 20
25.573487999999998
 40
5.480899
 50
91.805003000000013
 51
135.40656100000004
  0
ARC
  8
_0-0_0
  6
CONTINUOUS
 62
    7
 10
172.80471349999999
 20
47.610185000000001
 40
27.148902
 50
274.687997
 51
325.47897699999999
  0
ARC
  8
_0-0_0
  6
CONTINUOUS
 62
    7
 10
171.69836049999998
 20
40.616433999999998
 40
24.929635999999999
 50
340.329093
 51
4.7589760000000219
  0
ARC
  8
_0-0_0
  6
CONTINUOUS
 62
    7
 10
222.98501049999999
 20
57.643411
 40
30.380763999999999
 50
209.49676400000001
 51
272.765626
  0
LINE
  8
_0-0_0
  6
CONTINUOUS
 62
    7
 10
224.45089250000001
 20
27.298029
 11
226.85000149999999
 21
27.995087999999996
  0
LINE
  8
_0-0_0
  6
CONTINUOUS
 62
    7
 10
226.85000149999999
 20
27.995087999999996
 11
228.93444349999999
 21
29.011765999999994
  0
LINE
  8
_0-0_0
  6
CONTINUOUS
 62
    7
 10
228.93444349999999
 20
29.011765999999994
 11
230.32158949999999
 21
29.830263000000002
  0
LINE
  8
_0-0_0
  6
CONTINUOUS
 62
    7
 10
230.32158949999999
 20
29.830263000000002
 11
230.87279749999999
 21
30.572130000000001
  0
LINE
  8
_0-0_0
  6
CONTINUOUS
 62
    7
 10
230.87279749999999
 20
30.572130000000001
 11
231.3121285
 21
31.543320999999992
  0
LINE
  8
_0-0_0
  6
CONTINUOUS
 62
    7
 10
231.3121285
 20
31.543320999999992
 11
231.3107555
 21
32.441461000000004
  0
LINE
  8
_0-0_0
  6
CONTINUOUS
 62
    7
 10
231.3107555
 20
32.441461000000004
 11
231.01034049999998
 21
33.382967000000008
  0
LINE
  8
_0-0_0
  6
CONTINUOUS
 62
    7
 10
231.01034049999998
 20
33.382967000000008
 11
230.5279185
 21
34.046509999999998
  0
LINE
  8
_0-0_0
  6
CONTINUOUS
 62
    7
 10
230.5279185
 20
34.046509999999998
 11
230.3579665
 21
34.720537000000007
  0
LINE
  8
_0-0_0
  6
CONTINUOUS
 62
    7
 10
230.3579665
 20
34.720537000000007
 11
231.84597249999999
 21
36.960076999999998
  0
LINE
  8
_0-0_0
  6
CONTINUOUS
 62
    7
 10
231.84597249999999
 20
36.960076999999998
 11
232.76854950000001
 21
37.835808999999998
  0
LINE
  8
_0-0_0
  6
CONTINUOUS
 62
    7
 10
232.76854950000001
 20
37.835808999999998
 11
233.39208450000001
 21
38.754907000000003
  0
LINE
  8
_0-0_0
  6
CONTINUOUS
 62
    7
 10
233.39208450000001
 20
38.754907000000003
 11
233.50255849999999
 21
39.423730000000006
  0
LINE
  8
_0-0_0
  6
CONTINUOUS
 62
    7
 10
233.50255849999999
 20
39.423730000000006
 11
233.64504449999998
 21
40.108232000000001
  0
ARC
  8
_0-0_0
  6
CONTINUOUS
 62
    7
 10
228.79558850000001
 20
38.456475999999995
 40
5.1230370000000001
 50
18.809175000000003
 51
67.549799000000007
  0
ARC
  8
_0-0_0
  6
CONTINUOUS
 62
    7
 10
235.89129149999999
 20
58.687416999999996
 40
16.326158
 50
209.22246399999997
 51
251.65187199999997
  0
ARC
  8
_0-0_0
  6
CONTINUOUS
 62
    7
 10
214.8542435
 20
45.041901999999993
 40
8.8483490000000007
 50
39.894080000000002
 51
103.24817900000001
  0
ARC
  8
_0-0_0
  6
CONTINUOUS
 62
    7
 10
209.99801149999999
 20
62.381844999999998
 40
9.1739829999999998
 50
204.045727
 51
287.95757900000001
  0
ARC
  8
_0-0_0
  6
CONTINUOUS
 62
    7
 10
203.52257950000001
 20
70.818703999999997
 40
12.322697
 50
261.11887000000007
 51
329.47327200000007
  0
ARC
  8
_0-0_0
  6
CONTINUOUS
 62
    7
 10
209.15453650000001
 20
60.267335000000003
 40
6.5764930000000001
 50
40.741917999999998
 51
119.653672
  0
LINE
  8
_0-0_0
  6
CONTINUOUS
 62
    7
 10
186.04146950000001
 20
36.948267000000001
 11
183.83013449999999
 21
34.970879999999994
  0
LINE
  8
_0-0_0
  6
CONTINUOUS
 62
    7
 10
183.83013449999999
 20
34.970879999999994
 11
179.69109649999999
 21
33.283304000000001
  0
LINE
  8
_0-0_0
  6
CONTINUOUS
 62
    7
 10
179.69109649999999
 20
33.283304000000001
 11
177.6954605
 21
32.735735000000005
  0
LINE
  8
_0-0_0
  6
CONTINUOUS
 62
    7
 10
177.6954605
 20
32.735735000000005
 11
175.2546955
 21
32.775216999999998
  0
LINE
  8
_0-0_0
  6
CONTINUOUS
 62
    7
 10
175.2546955
 20
32.775216999999998
 11
172.67138249999999
 21
32.130251000000001
  0
LINE
  8
_0-0_0
  6
CONTINUOUS
 62
    7
 10
172.67138249999999
 20
32.130251000000001
 11
170.82183449999999
 21
31.038941999999992
  0
LINE
  8
_0-0_0
  6
CONTINUOUS
 62
    7
 10
170.82183449999999
 20
31.038941999999992
 11
169.7567095
 21
29.478760999999992
  0
LINE
  8
_0-0_0
  6
CONTINUOUS
 62
    7
 10
169.7567095
 20
29.478760999999992
 11
167.48809449999999
 21
28.514168999999995
  0
ARC
  8
_0-0_0
  6
CONTINUOUS
 62
    7
 10
164.82183449999999
 20
35.77241699999999
 40
8.3359769999999997
 50
262.70680700000008
 51
310.37084500000003
  0
ARC
  8
_0-0_0
  6
CONTINUOUS
 62
    7
 10
163.63665349999999
 20
26.511979999999994
 40
1
 50
82.706358000000009
 51
219.57485900000003
  0
ARC
  8
_0-0_0
  6
CONTINUOUS
 62
    7
 10
174.21770850000001
 20
35.257424999999998
 40
14.727389000000001
 50
219.574422
 51
273.13677899999999
  0
LINE
  8
_0-0_0
  6
CONTINUOUS
 62
    7
 10
167.48809449999999
 20
28.514168999999995
 11
166.4058795
 21
28.141518999999988
  0
LINE
  8
_0-0_0
  6
CONTINUOUS
 62
    7
 10
166.4058795
 20
28.141518999999988
 11
166.0096695
 21
28.005296000000001
  0
LINE
  8
_0-0_0
  6
CONTINUOUS
 62
    7
 10
166.0096695
 20
28.005296000000001
 11
165.37096750000001
 21
27.940934999999996
  0
LINE
  8
_0-0_0
  6
CONTINUOUS
 62
    7
 10
165.37096750000001
 20
27.940934999999996
 11
164.8257715
 21
27.97925699999999
  0
LINE
  8
_0-0_0
  6
CONTINUOUS
 62
    7
 10
164.8257715
 20
27.97925699999999
 11
164.41936849999999
 21
27.983819999999994
  0
LINE
  8
_0-0_0
  6
CONTINUOUS
 62
    7
 10
164.41936849999999
 20
27.983819999999994
 11
163.9483295
 21
28.077294999999992
  0
LINE
  8
_0-0_0
  6
CONTINUOUS
 62
    7
 10
163.9483295
 20
28.077294999999992
 11
162.8074915
 21
27.13432499999999
  0
ARC
  8
_0-0_0
  6
CONTINUOUS
 62
    7
 10
211.2215525
 20
64.478493999999998
 40
10.823149000000001
 50
213.07135700000001
 51
283.325782
  0
ARC
  8
_0-0_0
  6
CONTINUOUS
 62
    7
 10
174.01235550000001
 20
58.246697999999995
 40
15.599602000000001
 50
279.59578800000008
 51
35.51382100000005
  0
ARC
  8
_0-0_0
  6
CONTINUOUS
 62
    7
 10
201.92492350000001
 20
79.922409999999999
 40
14.495789
 50
251.48510600000003
 51
285.91884900000002
  0
ARC
  8
_0-0_0
  6
CONTINUOUS
 62
    7
 10
200.49728049999999
 20
75.659347999999994
 40
10
 50
218.17129600000004
 51
251.48516100000001
  0
LINE
  8
_0-0_0
  6
CONTINUOUS
 62
    7
 10
192.6356165
 20
69.479202999999998
 11
191.42705949999998
 21
71.016571999999996
  0
ARC
  8
_0-0_0
  6
CONTINUOUS
 62
    7
 10
179.7027855
 20
52.280220999999997
 40
14.265333
 50
254.544375
 51
344.46859699999999
  0
LINE
  8
_0-0_0
  6
CONTINUOUS
 62
    7
 10
193.3175315
 20
49.296014
 11
193.67571649999999
 21
51.410286999999997
  0
LINE
  8
_0-0_0
  6
CONTINUOUS
 62
    7
 10
193.65792450000001
 20
52.016534000000007
 11
193.67217650000001
 21
52.638466999999991
  0
LINE
  8
_0-0_0
  6
CONTINUOUS
 62
    7
 10
193.4865685
 20
53.588701
 11
193.44488150000001
 21
54.325295999999994
  0
LINE
  8
_0-0_0
  6
CONTINUOUS
 62
    7
 10
193.21905150000001
 20
55.113923
 11
192.91863649999999
 21
56.055429000000004
  0
LINE
  8
_0-0_0
  6
CONTINUOUS
 62
    7
 10
192.8232385
 20
56.576577
 11
192.5466275
 21
57.387849000000003
  0
LINE
  8
_0-0_0
  6
CONTINUOUS
 62
    7
 10
192.03899749999999
 20
59.079767000000004
 11
191.25616149999999
 21
60.684815999999998
  0
LINE
  8
_0-0_0
  6
CONTINUOUS
 62
    7
 10
189.7672695
 20
63.411987999999994
 11
188.34988049999998
 21
65.748306999999997
  0
ARC
  8
_0-0_0
  6
CONTINUOUS
 62
    7
 10
181.0270955
 20
44.759079999999997
 40
8.3188659999999999
 50
241.57010300000002
 51
312.277041
  0
ARC
  8
_0-0_0
  6
CONTINUOUS
 62
    7
 10
175.08190450000001
 20
56.888925
 40
16.365713
 50
274.659966
 51
6.0205119999999832
  0
ARC
  8
_0-0_0
  6
CONTINUOUS
 62
    7
 10
174.6387895
 20
45.523690999999999
 40
21.91506
 50
239.68095499999998
 51
14.036900999999977
  0
ARC
  8
_0-0_0
  6
CONTINUOUS
 62
    7
 10
175.2818565
 20
48.875169
 40
20.425899000000001
 50
256.19454899999999
 51
358.87179900000001
  0
ARC
  8
_0-0_0
  6
CONTINUOUS
 62
    7
 10
220.10674549999999
 20
57.235497999999993
 40
24.774231
 50
196.28063499999999
 51
292.58254599999998
  0
LINE
  8
_0-0_0
  6
CONTINUOUS
 62
    7
 10
196.27004650000001
 20
50.404886000000005
 11
195.2040365
 21
53.811363999999998
  0
LINE
  8
_0-0_0
  6
CONTINUOUS
 62
    7
 10
194.8477135
 20
54.867531999999997
 11
193.0188565
 21
58.942757999999998
  0
LINE
  8
_0-0_0
  6
CONTINUOUS
 62
    7
 10
192.42245149999999
 20
60.165611999999996
 11
191.69771950000001
 21
61.325952000000001
  0
LINE
  8
_0-0_0
  6
CONTINUOUS
 62
    7
 10
189.29687150000001
 20
65.027519999999996
 11
189.1126975
 21
65.079605999999998
  0
ARC
  8
_0-0_0
  6
CONTINUOUS
 62
    7
 10
222.97478749999999
 20
69.923744999999997
 40
27.910098999999999
 50
215.49440799999999
 51
285.42704800000001
  0
ARC
  8
_0-0_0
  6
CONTINUOUS
 62
    7
 10
222.69707750000001
 20
66.625557999999998
 40
29.913747000000001
 50
196.54449900000003
 51
287.83917100000008
  0
LINE
  8
_0-0_0
  6
CONTINUOUS
 62
    7
 10
196.13195450000001
 20
62.164093999999992
 11
196.93120949999999
 21
60.850922999999995
  0
LINE
  8
_0-0_0
  6
CONTINUOUS
 62
    7
 10
196.93120949999999
 20
60.850922999999995
 11
198.23235750000001
 21
59.404031000000003
  0
LINE
  8
_0-0_0
  6
CONTINUOUS
 62
    7
 10
198.23235750000001
 20
59.404031000000003
 11
198.65887050000001
 21
58.855142000000001
  0
LINE
  8
_0-0_0
  6
CONTINUOUS
 62
    7
 10
201.00020949999998
 20
56.496422999999993
 11
203.09838450000001
 21
54.066461000000004
  0
LINE
  8
_0-0_0
  6
CONTINUOUS
 62
    7
 10
203.09838450000001
 20
54.066461000000004
 11
204.56069550000001
 21
53.265854999999988
  0
LINE
  8
_0-0_0
  6
CONTINUOUS
 62
    7
 10
204.56069550000001
 20
53.265854999999988
 11
205.5986905
 21
52.684076000000005
  0
LINE
  8
_0-0_0
  6
CONTINUOUS
 62
    7
 10
205.5986905
 20
52.684076000000005
 11
206.48977149999999
 21
52.077957999999995
  0
LINE
  8
_0-0_0
  6
CONTINUOUS
 62
    7
 10
206.48977149999999
 20
52.077957999999995
 11
207.7514295
 21
51.037607000000008
  0
LINE
  8
_0-0_0
  6
CONTINUOUS
 62
    7
 10
211.5693005
 20
48.500206999999989
 11
215.3529005
 21
46.277237999999997
  0
LINE
  8
_0-0_0
  6
CONTINUOUS
 62
    7
 10
215.3529005
 20
46.277237999999997
 11
217.53850850000001
 21
45.214478999999997
  0
LINE
  8
_0-0_0
  6
CONTINUOUS
 62
    7
 10
217.53850850000001
 20
45.214478999999997
 11
218.68615249999999
 21
44.733491000000001
  0
LINE
  8
_0-0_0
  6
CONTINUOUS
 62
    7
 10
220.20437150000001
 20
43.818222999999989
 11
221.3944655
 21
43.168733000000003
  0
LINE
  8
_0-0_0
  6
CONTINUOUS
 62
    7
 10
212.69417849999999
 20
63.855667999999994
 11
211.69921349999998
 21
62.802765999999991
  0
LINE
  8
_0-0_0
  6
CONTINUOUS
 62
    7
 10
210.4828445
 20
61.878334999999993
 11
209.48870349999999
 21
61.393463999999994
  0
LINE
  8
_0-0_0
  6
CONTINUOUS
 62
    7
 10
209.48870349999999
 20
61.393463999999994
 11
207.66082249999999
 21
60.501915999999994
  0
LINE
  8
_0-0_0
  6
CONTINUOUS
 62
    7
 10
207.66082249999999
 20
60.501915999999994
 11
205.71886849999999
 21
60.169792999999999
  0
LINE
  8
_0-0_0
  6
CONTINUOUS
 62
    7
 10
204.2579915
 20
60.072213000000005
 11
202.74337449999999
 21
59.759239999999991
  0
LINE
  8
_0-0_0
  6
CONTINUOUS
 62
    7
 10
202.74337449999999
 20
59.759239999999991
 11
201.50695450000001
 21
59.771164999999996
  0
LINE
  8
_0-0_0
  6
CONTINUOUS
 62
    7
 10
201.50695450000001
 20
59.771164999999996
 11
200.26308849999998
 21
60.205262000000005
  0
LINE
  8
_0-0_0
  6
CONTINUOUS
 62
    7
 10
200.26308849999998
 20
60.205262000000005
 11
199.22729150000001
 21
60.456986999999998
  0
LINE
  8
_0-0_0
  6
CONTINUOUS
 62
    7
 10
199.22729150000001
 20
60.456986999999998
 11
197.94698750000001
 21
61.535561999999999
  0
LINE
  8
_0-0_0
  6
CONTINUOUS
 62
    7
 10
197.94698750000001
 20
61.535561999999999
 11
196.2588465
 21
63.124794999999992
  0
LINE
  8
_0-0_0
  6
CONTINUOUS
 62
    7
 10
196.2588465
 20
63.124794999999992
 11
194.57067549999999
 21
64.714035999999993
  0
LINE
  8
_0-0_0
  6
CONTINUOUS
 62
    7
 10
194.57067549999999
 20
64.714035999999993
 11
191.3950165
 21
68.132317999999998
  0
LINE
  8
_0-0_0
  6
CONTINUOUS
 62
    7
 10
208.4657545
 20
63.165261000000001
 11
207.11669449999999
 21
62.838418000000004
  0
LINE
  8
_0-0_0
  6
CONTINUOUS
 62
    7
 10
207.11669449999999
 20
62.838418000000004
 11
205.97045549999999
 21
62.421266000000003
  0
LINE
  8
_0-0_0
  6
CONTINUOUS
 62
    7
 10
205.1210595
 20
62.290796
 11
204.04717650000001
 21
62.050865999999999
  0
LINE
  8
_0-0_0
  6
CONTINUOUS
 62
    7
 10
204.04717650000001
 20
62.050865999999999
 11
203.06728749999999
 21
62.187927999999999
  0
LINE
  8
_0-0_0
  6
CONTINUOUS
 62
    7
 10
203.06728749999999
 20
62.187927999999999
 11
201.49233649999999
 21
62.649773999999994
  0
LINE
  8
_0-0_0
  6
CONTINUOUS
 62
    7
 10
201.49233649999999
 20
62.649773999999994
 11
200.27236550000001
 21
62.953530000000001
  0
LINE
  8
_0-0_0
  6
CONTINUOUS
 62
    7
 10
200.27236550000001
 20
62.953530000000001
 11
198.03081950000001
 21
64.130997999999991
  0
LINE
  8
_0-0_0
  6
CONTINUOUS
 62
    7
 10
222.7670545
 20
46.865777000000008
 11
222.18844150000001
 21
47.482384999999994
  0
LINE
  8
_0-0_0
  6
CONTINUOUS
 62
    7
 10
222.18844150000001
 20
47.482384999999994
 11
221.24663849999999
 21
48.111092999999997
  0
LINE
  8
_0-0_0
  6
CONTINUOUS
 62
    7
 10
221.24663849999999
 20
48.111092999999997
 11
220.6845045
 21
49.019532999999996
  0
LINE
  8
_0-0_0
  6
CONTINUOUS
 62
    7
 10
220.6845045
 20
49.019532999999996
 11
220.31389849999999
 21
49.453812999999997
  0
LINE
  8
_0-0_0
  6
CONTINUOUS
 62
    7
 10
220.31389849999999
 20
49.453812999999997
 11
219.70321150000001
 21
50.054734999999994
  0
LINE
  8
_0-0_0
  6
CONTINUOUS
 62
    7
 10
219.70321150000001
 20
50.054734999999994
 11
219.18050650000001
 21
50.556740999999988
  0
LINE
  8
_0-0_0
  6
CONTINUOUS
 62
    7
 10
218.27300550000001
 20
50.870981
 11
217.4213815
 21
51.070611
  0
LINE
  8
_0-0_0
  6
CONTINUOUS
 62
    7
 10
217.4213815
 20
51.070611
 11
216.44149249999998
 21
51.207673
  0
LINE
  8
_0-0_0
  6
CONTINUOUS
 62
    7
 10
216.44149249999998
 20
51.207673
 11
215.35198449999999
 21
51.243950999999996
  0
LINE
  8
_0-0_0
  6
CONTINUOUS
 62
    7
 10
215.35198449999999
 20
51.243950999999996
 11
213.2236585
 21
51.293970000000002
  0
LINE
  8
_0-0_0
  6
CONTINUOUS
 62
    7
 10
213.2236585
 20
51.293970000000002
 11
212.24376949999998
 21
51.431031999999988
  0
LINE
  8
_0-0_0
  6
CONTINUOUS
 62
    7
 10
212.24376949999998
 20
51.431031999999988
 11
211.07973749999999
 21
51.620134000000007
  0
LINE
  8
_0-0_0
  6
CONTINUOUS
 62
    7
 10
211.07973749999999
 20
51.620134000000007
 11
209.9880015
 21
51.986519999999999
  0
LINE
  8
_0-0_0
  6
CONTINUOUS
 62
    7
 10
229.83700049999999
 20
30.823853999999997
 11
229.18960049999998
 21
30.035043000000002
  0
LINE
  8
_0-0_0
  6
CONTINUOUS
 62
    7
 10
229.18960049999998
 20
30.035043000000002
 11
228.50792949999999
 21
29.560654999999997
  0
LINE
  8
_0-0_0
  6
CONTINUOUS
 62
    7
 10
228.50792949999999
 20
29.560654999999997
 11
227.15886949999998
 21
29.233812
  0
LINE
  8
_0-0_0
  6
CONTINUOUS
 62
    7
 10
225.57189449999998
 20
28.743607999999995
 11
224.64794449999999
 21
28.766016000000008
  0
LINE
  8
_0-0_0
  6
CONTINUOUS
 62
    7
 10
224.64794449999999
 20
28.766016000000008
 11
222.22579450000001
 21
28.767327999999992
  0
LINE
  8
_0-0_0
  6
CONTINUOUS
 62
    7
 10
222.22579450000001
 20
28.767327999999992
 11
220.65307150000001
 21
28.899065000000007
  0
LINE
  8
_0-0_0
  6
CONTINUOUS
 62
    7
 10
212.15783249999998
 20
30.527032999999989
 11
211.86181149999999
 21
30.808435000000003
  0
LINE
  8
_0-0_0
  6
CONTINUOUS
 62
    7
 10
211.86181149999999
 20
30.808435000000003
 11
210.8983715
 21
31.237336999999997
  0
LINE
  8
_0-0_0
  6
CONTINUOUS
 62
    7
 10
210.8983715
 20
31.237336999999997
 11
209.5799815
 21
31.824258
  0
LINE
  8
_0-0_0
  6
CONTINUOUS
 62
    7
 10
208.71053649999999
 20
32.630196999999995
 11
207.4905655
 21
32.933962000000008
  0
LINE
  8
_0-0_0
  6
CONTINUOUS
 62
    7
 10
207.4905655
 20
32.933962000000008
 11
207.02376849999999
 21
33.321297999999999
  0
LINE
  8
_0-0_0
  6
CONTINUOUS
 62
    7
 10
206.24535749999998
 20
34.266199
 11
204.55636250000001
 21
35.287400999999988
  0
LINE
  8
_0-0_0
  6
CONTINUOUS
 62
    7
 10
204.55636250000001
 20
35.287400999999988
 11
203.76150150000001
 21
35.940415999999999
  0
LINE
  8
_0-0_0
  6
CONTINUOUS
 62
    7
 10
203.76150150000001
 20
35.940415999999999
 11
203.2387655
 21
36.442407000000003
  0
LINE
  8
_0-0_0
  6
CONTINUOUS
 62
    7
 10
203.2387655
 20
36.442407000000003
 11
202.44170750000001
 21
37.425522999999998
  0
LINE
  8
_0-0_0
  6
CONTINUOUS
 62
    7
 10
202.44170750000001
 20
37.425522999999998
 11
202.16131250000001
 21
37.430672999999999
  0
LINE
  8
_0-0_0
  6
CONTINUOUS
 62
    7
 10
202.16131250000001
 20
37.430672999999999
 11
200.9958455
 21
38.517968999999994
  0
LINE
  8
_0-0_0
  6
CONTINUOUS
 62
    7
 10
200.9958455
 20
38.517968999999994
 11
200.28896749999998
 21
39.072000000000003
  0
LINE
  8
_0-0_0
  6
CONTINUOUS
 62
    7
 10
200.28896749999998
 20
39.072000000000003
 11
199.67608250000001
 21
40.003029999999995
  0
LINE
  8
_0-0_0
  6
CONTINUOUS
 62
    7
 10
199.67608250000001
 20
40.003029999999995
 11
199.21014049999999
 21
40.958405999999997
  0
LINE
  8
_0-0_0
  6
CONTINUOUS
 62
    7
 10
199.21014049999999
 20
40.958405999999997
 11
198.3713645
 21
42.678117
  0
LINE
  8
_0-0_0
  6
CONTINUOUS
 62
    7
 10
198.3713645
 20
42.678117
 11
198.14547350000001
 21
43.466797999999997
  0
LINE
  8
_0-0_0
  6
CONTINUOUS
 62
    7
 10
198.14547350000001
 20
43.466797999999997
 11
197.84505849999999
 21
44.408304000000001
  0
ARC
  8
_0-0_0
  6
CONTINUOUS
 62
    7
 10
417.39919650000002
 20
529.17474500000003
 40
431.98644400000001
 50
229.18467500000003
 51
241.36566200000004
  0
ARC
  8
_0-0_0
  6
CONTINUOUS
 62
    7
 10
209.21432949999999
 20
277.78369700000002
 40
105.869978
 50
133.425532
 51
225.52567500000001
  0
ARC
  8
_0-0_0
  6
CONTINUOUS
 62
    7
 10
200.97125649999998
 20
269.91486199999997
 40
106.529776
 50
25.795425000000002
 51
127.28467300000003
  0
ARC
  8
_0-0_0
  6
CONTINUOUS
 62
    7
 10
241.5036145
 20
287.73016899999999
 40
62.304316999999998
 50
290.57654700000001
 51
27.265065
  0
ARC
  8
_0-0_0
  6
CONTINUOUS
 62
    7
 10
250.07687949999999
 20
283.06580100000002
 40
55.294471000000001
 50
222.22064200000003
 51
283.94361300000003
  0
ARC
  8
_0-0_0
  6
CONTINUOUS
 62
    7
 10
223.61385949999999
 20
262.76959799999997
 40
22.229203999999999
 50
184.53594699999999
 51
229.33272700000001
  0
ARC
  8
_0-0_0
  6
CONTINUOUS
 62
    7
 10
417.39919650000002
 20
529.17474500000003
 40
425.98644400000001
 50
229.21073899999999
 51
240.62794700000001
  0
ARC
  8
_0-0_0
  6
CONTINUOUS
 62
    7
 10
209.21432949999999
 20
277.78369700000002
 40
99.869978000000003
 50
133.610152
 51
225.41688300000001
  0
ARC
  8
_0-0_0
  6
CONTINUOUS
 62
    7
 10
200.97125649999998
 20
269.91486199999997
 40
100.52978400000001
 50
25.751045999999995
 51
127.101187
  0
ARC
  8
_0-0_0
  6
CONTINUOUS
 62
    7
 10
241.5036145
 20
287.73016899999999
 40
56.304313
 50
288.65576099999998
 51
27.342445999999981
  0
ARC
  8
_0-0_0
  6
CONTINUOUS
 62
    7
 10
248.43366449999999
 20
276.62012299999998
 40
43.665228999999997
 50
231.20201300000002
 51
284.70034399999997
  0
ARC
  8
_0-0_0
  6
CONTINUOUS
 62
    7
 10
5.6308004999999923
 20
-182.49321299999997
 40
390.49978099999998
 50
45.759063999999995
 51
58.376506999999997
  0
ARC
  8
_0-0_0
  6
CONTINUOUS
 62
    7
 10
205.2462745
 20
36.794686999999996
 40
94.660178000000002
 50
358.50714900000003
 51
39.703996000000039
  0
ARC
  8
_0-0_0
  6
CONTINUOUS
 62
    7
 10
201.5169405
 20
30.899538000000007
 40
98.417135999999999
 50
270.053112
 51
1.9966879999999982
  0
ARC
  8
_0-0_0
  6
CONTINUOUS
 62
    7
 10
213.9582585
 20
48.434883999999997
 40
116.608282
 50
215.44482100000002
 51
263.92034000000001
  0
ARC
  8
_0-0_0
  6
CONTINUOUS
 62
    7
 10
175.35625949999999
 20
17.221185999999989
 40
67.127830000000003
 50
118.937363
 51
212.846644
  0
ARC
  8
_0-0_0
  6
CONTINUOUS
 62
    7
 10
157.93120149999999
 20
34.649499999999989
 40
43.975845
 50
54.848492
 51
110.01987400000002
  0
ARC
  8
_0-0_0
  6
CONTINUOUS
 62
    7
 10
157.93120149999999
 20
34.649499999999989
 40
49.975845
 50
51.673293999999999
 51
110.56178800000002
  0
ARC
  8
_0-0_0
  6
CONTINUOUS
 62
    7
 10
175.35625949999999
 20
17.221185999999989
 40
73.127837
 50
118.57478900000001
 51
212.95406900000003
  0
ARC
  8
_0-0_0
  6
CONTINUOUS
 62
    7
 10
213.9582585
 20
48.434883999999997
 40
122.60829
 50
215.38172399999999
 51
264.07019400000001
  0
ARC
  8
_0-0_0
  6
CONTINUOUS
 62
    7
 10
201.5169405
 20
30.899538000000007
 40
104.417136
 50
269.87634700000001
 51
1.8964560000000414
  0
ARC
  8
_0-0_0
  6
CONTINUOUS
 62
    7
 10
205.2462745
 20
36.794686999999996
 40
100.660178
 50
358.61121400000007
 51
42.059390000000043
  0
ARC
  8
_0-0_0
  6
CONTINUOUS
 62
    7
 10
58.462525499999998
 20
-116.21883000000003
 40
312.51723800000002
 50
44.860877000000009
 51
61.316473000000016
  0
ENDSEC
  0
EOF
