  0
SECTION
  2
HEADER
  9
$ACADVER
  1
AC1009
  9
$INSBASE
 10
0
 20
0
 30
0
  9
$EXTMIN
 10
0
 20
0
  9
$EXTMAX
 10
420.5
 20
297
  9
$LIMMIN
 10
0
 20
0
  9
$LIMMAX
 10
420.5
 20
297
  9
$LTSCALE
 40
0.5
  0
ENDSEC
  0
SECTION
  2
TABLES
  0
TABLE
  2
LTYPE
 70
     9
  0
LTYPE
  2
CONTINUOUS
 70
    64
  3
実線
 72
    65
 73
     0
 40
0.0
  0
LTYPE
  2
DASHED1
 70
    64
  3
--  --  --  --  --  --  --  --  
 72
    65
 73
     2
 40
2.5
 49
1.25
 49
-1.25
  0
LTYPE
  2
DASHED2
 70
    64
  3
----    ----    ----    ----    
 72
    65
 73
     2
 40
5.0
 49
2.5
 49
-2.5
  0
LTYPE
  2
DASHED3
 70
    64
  3
------  ------  ------  ------  
 72
    65
 73
     2
 40
5.0
 49
3.75
 49
-1.25
  0
LTYPE
  2
CENTER1
 70
    64
  3
----- - ----- - ----- - ----- - 
 72
    65
 73
     4
 40
10.0
 49
6.25
 49
-1.25
 49
1.25
 49
-1.25
  0
LTYPE
  2
CENTER2
 70
    64
  3
----------  --  ----------  --  
 72
    65
 73
     4
 40
20.0
 49
12.5
 49
-2.5
 49
2.5
 49
-2.5
  0
LTYPE
  2
PHANTOM1
 70
    64
  3
--- - - --- - - --- - - --- - - 
 72
    65
 73
     6
 40
10.0
 49
3.25
 49
-1.25
 49
1.25
 49
-1.25
 49
1.25
 49
-1.25
  0
LTYPE
  2
PHANTOM2
 70
    64
  3
--------  -  -  --------  -  -  
 72
    65
 73
     6
 40
20.0
 49
10.0
 49
-2.5
 49
1.25
 49
-2.5
 49
1.25
 49
-2.5
  0
LTYPE
  2
DOT
 70
    64
  3
-   -   -   -   -   -   -   -   
 72
    65
 73
     2
 40
2.5
 49
0.625
 49
-1.875
  0
LTYPE
  2
DUMMY
 70
    64
  3
ダミー
 72
    65
 73
     0
 40
0.0
  0
LTYPE
  2
RAND1
 70
    64
  3
ランダム線1
 72
    65
 73
     4
 40
10.0
 49
1.0
 49
-2.0
 49
3.0
 49
-4.0
  0
LTYPE
  2
RAND2
 70
    64
  3
ランダム線2
 72
    65
 73
     4
 40
14.0
 49
2.0
 49
-3.0
 49
4.0
 49
-5.0
  0
LTYPE
  2
RAND3
 70
    64
  3
ランダム線3
 72
    65
 73
     4
 40
18.0
 49
3.0
 49
-4.0
 49
5.0
 49
-6.0
  0
LTYPE
  2
RAND4
 70
    64
  3
ランダム線4
 72
    65
 73
     4
 40
22.0
 49
4.0
 49
-5.0
 49
6.0
 49
-7.0
  0
LTYPE
  2
RAND5
 70
    64
  3
ランダム線5
 72
    65
 73
     4
 40
26.0
 49
5.0
 49
-6.0
 49
7.0
 49
-8.0
  0
LTYPE
  2
LONG1
 70
    64
  3
----------  --  ----------  --  
 72
    65
 73
     4
 40
40.0
 49
32.5
 49
-2.5
 49
2.5
 49
-2.5
  0
LTYPE
  2
LONG2
 70
    64
  3
--------  -  -  --------  -  -  
 72
    65
 73
     6
 40
40.0
 49
30.0
 49
-2.5
 49
1.25
 49
-2.5
 49
1.25
 49
-2.5
  0
LTYPE
  2
LONG3
 70
    64
  3
+++++++++++++++..+++++++++++++++
 72
    65
 73
     2
 40
40.0
 49
37.5
 49
-2.5
  0
LTYPE
  2
LONG4
 70
    64
  3
+++++++++++++++..+++++++++++++++
 72
    65
 73
     2
 40
80.0
 49
75.0
 49
-5.0
  0
LTYPE
  2
LONG5
 70
    64
  3
----------  --  ----------  --  
 72
    65
 73
     4
 40
60.0
 49
37.5
 49
-7.5
 49
7.5
 49
-7.5
  0
LTYPE
  2
dashed
 70
   64
  3
-------   -------------   ------
 72
   65
 73
    2
 40
7.5
 49
6
 49
-1.5
  0
LTYPE
  2
dashed_spaced
 70
   64
  3
----        --------        ----
 72
   65
 73
    2
 40
12
 49
6
 49
-6
  0
LTYPE
  2
long_dashed_dotted
 70
   64
  3
------------- --- --------------
 72
   65
 73
    4
 40
15.25
 49
12
 49
-1.5
 49
0.25
 49
-1.5
  0
LTYPE
  2
long_dashed_double-dotted
 70
   64
  3
----------- --- --- ------------
 72
   65
 73
    6
 40
17
 49
12
 49
-1.5
 49
0.25
 49
-1.5
 49
0.25
 49
-1.5
  0
LTYPE
  2
long_dashed_triplicate-dotted
 70
   64
  3
--------- --- --- --- ----------
 72
   65
 73
    8
 40
18.75
 49
12
 49
-1.5
 49
0.25
 49
-1.5
 49
0.25
 49
-1.5
 49
0.25
 49
-1.5
  0
LTYPE
  2
dotted
 70
   64
  3
   -       -       -       -    
 72
   65
 73
    2
 40
1.75
 49
0.25
 49
-1.5
  0
LTYPE
  2
chain
 70
   64
  3
-------------- -- --------------
 72
   65
 73
    4
 40
18.5
 49
12
 49
-1.5
 49
3.5
 49
-1.5
  0
LTYPE
  2
chain_double_dash
 70
   64
  3
------------ -- -- -------------
 72
   65
 73
    6
 40
23.5
 49
12
 49
-1.5
 49
3.5
 49
-1.5
 49
3.5
 49
-1.5
  0
LTYPE
  2
dashed_dotted
 70
   64
  3
-----------     -     ----------
 72
   65
 73
    4
 40
9.25
 49
6
 49
-1.5
 49
0.25
 49
-1.5
  0
LTYPE
  2
double-dashed_dotted
 70
   64
  3
------   -----------   -   -----
 72
   65
 73
    6
 40
16.75
 49
6
 49
-1.5
 49
6
 49
-1.5
 49
0.25
 49
-1.5
  0
LTYPE
  2
dashed_double-dotted
 70
   64
  3
---------    -    -    ---------
 72
   65
 73
    6
 40
11
 49
6
 49
-1.5
 49
0.25
 49
-1.5
 49
0.25
 49
-1.5
  0
LTYPE
  2
double-dashed_double-dotted
 70
   64
  3
-----   ---------   -   -   ----
 72
   65
 73
    8
 40
18.5
 49
6
 49
-1.5
 49
6
 49
-1.5
 49
0.25
 49
-1.5
 49
0.25
 49
-1.5
  0
LTYPE
  2
dashed_triplicate-dotted
 70
   64
  3
-------    -    -    -    ------
 72
   65
 73
    8
 40
12.75
 49
6
 49
-1.5
 49
0.25
 49
-1.5
 49
0.25
 49
-1.5
 49
0.25
 49
-1.5
  0
LTYPE
  2
double-dashed_triplicate-dotted
 70
   64
  3
-----  ---------  -  -  -  -----
 72
   65
 73
   10
 40
20.25
 49
6
 49
-1.5
 49
6
 49
-1.5
 49
0.25
 49
-1.5
 49
0.25
 49
-1.5
 49
0.25
 49
-1.5
  0
LTYPE
  2
undefined
 70
   64
  3
--------------------------------
 72
   65
 73
    0
 40
0
  0
LTYPE
  2
BORDER
 70
   64
  3
----     --------     -     ----
 72
   65
 73
    6
 40
1.76
 49
0.5
 49
-0.25
 49
0.5
 49
-0.25
 49
0.01
 49
-0.25
  0
LTYPE
  2
BORDER2
 70
   64
  3
----     --------     -     ----
 72
   65
 73
    6
 40
0.885
 49
0.25
 49
-0.125
 49
0.25
 49
-0.125
 49
0.01
 49
-0.125
  0
LTYPE
  2
BORDERX2
 70
   64
  3
----     --------     -     ----
 72
   65
 73
    6
 40
3.5099999999999998
 49
1
 49
-0.5
 49
1
 49
-0.5
 49
0.01
 49
-0.5
  0
LTYPE
  2
CENTER
 70
   64
  3
----------    ----    ----------
 72
   65
 73
    4
 40
2
 49
1.25
 49
-0.25
 49
0.25
 49
-0.25
  0
LTYPE
  2
CENTER2_21
 70
   64
  3
----------    ----    ----------
 72
   65
 73
    4
 40
1.125
 49
0.75
 49
-0.125
 49
0.125
 49
-0.125
  0
LTYPE
  2
CENTERX2
 70
   64
  3
----------    ----    ----------
 72
   65
 73
    4
 40
4
 49
2.5
 49
-0.5
 49
0.5
 49
-0.5
  0
LTYPE
  2
DASHDOT
 70
   64
  3
--------        -        -------
 72
   65
 73
    4
 40
1.01
 49
0.5
 49
-0.25
 49
0.01
 49
-0.25
  0
LTYPE
  2
DASHDOT2
 70
   64
  3
--------        -        -------
 72
   65
 73
    4
 40
0.51
 49
0.25
 49
-0.125
 49
0.01
 49
-0.125
  0
LTYPE
  2
DASHDOTX2
 70
   64
  3
--------        -        -------
 72
   65
 73
    4
 40
2.0099999999999998
 49
1
 49
-0.5
 49
0.01
 49
-0.5
  0
LTYPE
  2
DASHED
 70
   64
  3
------     -----------     -----
 72
   65
 73
    2
 40
0.75
 49
0.5
 49
-0.25
  0
LTYPE
  2
DASHED2_27
 70
   64
  3
------     -----------     -----
 72
   65
 73
    2
 40
0.375
 49
0.25
 49
-0.125
  0
LTYPE
  2
DASHEDX2
 70
   64
  3
------     -----------     -----
 72
   65
 73
    2
 40
1.5
 49
1
 49
-0.5
  0
LTYPE
  2
DIVIDE
 70
   64
  3
------      -      -      ------
 72
   65
 73
    6
 40
1.27
 49
0.5
 49
-0.25
 49
0.01
 49
-0.25
 49
0.01
 49
-0.25
  0
LTYPE
  2
DIVIDE2
 70
   64
  3
------      -      -      ------
 72
   65
 73
    6
 40
0.645
 49
0.25
 49
-0.125
 49
0.01
 49
-0.125
 49
0.01
 49
-0.125
  0
LTYPE
  2
DIVIDEX2
 70
   64
  3
------      -      -      ------
 72
   65
 73
    6
 40
2.5199999999999996
 49
1
 49
-0.5
 49
0.01
 49
-0.5
 49
0.01
 49
-0.5
  0
LTYPE
  2
DOT_32
 70
   64
  3
-               -               
 72
   65
 73
    2
 40
0.26
 49
0.01
 49
-0.25
  0
ENDTAB
  0
TABLE
  2
STYLE
  5
3
100
AcDbSymbolTable
 70
     1
  0
STYLE
  5
10
100
AcDbSymbolTableRecord
100
AcDbTextStyleTableRecord
  2
STANDARD
 70
     0
 40
0.0
 41
1.0
 50
0.0
 71
     0
 42
0.2
  3
txt
  4
bigfont.shx
  0
STYLE
  5
26
100
AcDbSymbolTableRecord
100
AcDbTextStyleTableRecord
  2
TATEGAKI
 70
    68
 40
0.0
 41
1.0
 50
0.0
 71
     0
 42
1.0
  3
txt
  4
bigfont.shx
  0
ENDTAB
  0
TABLE
  2
LAYER
 70
    2
  0
LAYER
  2
_0-0_0
 70
   64
 62
    7
  6
CONTINUOUS
  0
LAYER
  2
ADD_LINE
 70
   64
 62
    7
  6
CONTINUOUS
  0
ENDTAB
  0
ENDSEC
  0
SECTION
  2
BLOCKS
  0
ENDSEC
  0
SECTION
  2
ENTITIES
  0
ARC
  8
_0-0_0
  6
CONTINUOUS
 62
    7
 10
212.05597419111837
 20
289.89185342036319
 40
49.156570784954873
 50
130.64979640939021
 51
169.02065954348913
  0
ARC
  8
_0-0_0
  6
CONTINUOUS
 62
    7
 10
212.05531715960456
 20
289.89210847273228
 40
43.156067560827637
 50
130.6962783803182
 51
169.08026013249309
  0
ARC
  8
_0-0_0
  6
CONTINUOUS
 62
    7
 10
232.2395202502164
 20
285.44547610408961
 40
63.819453952552692
 50
168.59316385245771
 51
237.49926395804184
  0
ARC
  8
_0-0_0
  6
CONTINUOUS
 62
    7
 10
232.21507646975556
 20
285.44298470869433
 40
69.795986109081369
 50
168.58719051763492
 51
237.24675474910742
  0
ARC
  8
_0-0_0
  6
CONTINUOUS
 62
    7
 10
210.69089996276057
 20
304.62369820838558
 40
33.883270000000003
 50
29.725112999913549
 51
89.783054999877663
  0
ARC
  8
_0-0_0
  6
CONTINUOUS
 62
    7
 10
212.31010704798746
 20
310.57047522944526
 40
21.98845221323775
 50
10.620607774024279
 51
93.947219587070606
  0
ARC
  8
_0-0_0
  6
CONTINUOUS
 62
    7
 10
234.6058039627585
 20
297.46439720838589
 40
41.188029999999991
 50
197.81007799994339
 51
224.1259370001828
  0
ARC
  8
_0-0_0
  6
CONTINUOUS
 62
    7
 10
236.94256496276444
 20
300.94782520838532
 40
43.594042999999999
 50
198.48809799989931
 51
225.90423099986506
  0
ARC
  8
_0-0_0
  6
CONTINUOUS
 62
    7
 10
201.08875796276448
 20
287.21099420838345
 40
5.4910180000000004
 50
86.188354000101896
 51
180.90964999998411
  0
ARC
  8
_0-0_0
  6
CONTINUOUS
 62
    7
 10
200.47539296276045
 20
286.64678520838333
 40
5.3864130000000001
 50
129.79681700002959
 51
199.299851999998
  0
ARC
  8
_0-0_0
  6
CONTINUOUS
 62
    7
 10
208.23811496275948
 20
294.215144208384
 40
3.3249149999999998
 50
107.70737000012953
 51
202.39264400006437
  0
ARC
  8
_0-0_0
  6
CONTINUOUS
 62
    7
 10
212.00786696275941
 20
292.71630420838392
 40
6.6807239999999997
 50
93.290678000150251
 51
135.69629700003591
  0
ARC
  8
_0-0_0
  6
CONTINUOUS
 62
    7
 10
217.40857396276056
 20
320.00532020838625
 40
21.415244999999999
 50
254.3299620001203
 51
292.19494599990594
  0
ARC
  8
_0-0_0
  6
CONTINUOUS
 62
    7
 10
217.05793496276351
 20
314.77738520838363
 40
16.864649
 50
300.03185099997779
 51
359.47566999998111
  0
ARC
  8
_0-0_0
  6
CONTINUOUS
 62
    7
 10
223.15505896276341
 20
312.61956320838624
 40
19.10981
 50
353.98203999989897
 51
27.435341999890859
  0
ARC
  8
_0-0_0
  6
CONTINUOUS
 62
    7
 10
293.84845596275954
 20
313.35650120838454
 40
51.761496999999991
 50
183.034836000089
 51
216.06602700005303
  0
ARC
  8
_0-0_0
  6
CONTINUOUS
 62
    7
 10
258.80959996275942
 20
286.60784520838467
 40
7.7547979999999992
 50
208.70160700011809
 51
250.487187999951
  0
ARC
  8
_0-0_0
  6
CONTINUOUS
 62
    7
 10
254.80621996275841
 20
278.08654320838366
 40
1.861618999999999
 50
338.14138299995591
 51
40.615811999955049
  0
ARC
  8
_0-0_0
  6
CONTINUOUS
 62
    7
 10
244.06867896276344
 20
280.33576520838585
 40
12.934977
 50
325.21964899997113
 51
338.10417199998381
  0
ARC
  8
_0-0_0
  6
CONTINUOUS
 62
    7
 10
249.04360896275944
 20
278.51896220838444
 40
7.5744860000000003
 50
319.43863100007212
 51
351.4544599999486
  0
ARC
  8
_0-0_0
  6
CONTINUOUS
 62
    7
 10
256.37807296275946
 20
290.49358720838336
 40
19.047428
 50
233.57908199987412
 51
251.16329500007879
  0
ARC
  8
_0-0_0
  6
CONTINUOUS
 62
    7
 10
253.46998496276251
 20
284.70576020838325
 40
11.971624
 50
228.75302100020019
 51
254.8144140001026
  0
ARC
  8
_0-0_0
  6
CONTINUOUS
 62
    7
 10
252.04432596276251
 20
276.49613520838363
 40
4.4201759999999997
 50
245.74031600001695
 51
306.81037599989344
  0
ARC
  8
_0-0_0
  6
CONTINUOUS
 62
    7
 10
251.06115596276254
 20
275.71880720838362
 40
8.194742999999999
 50
191.44647299997851
 51
272.01009799985678
  0
ARC
  8
_0-0_0
  6
CONTINUOUS
 62
    7
 10
250.05550296276238
 20
264.76427820838489
 40
3.0522740000000002
 50
342.8370559999496
 51
64.934860999830036
  0
ARC
  8
_0-0_0
  6
CONTINUOUS
 62
    7
 10
210.87215896275848
 20
290.83958020838588
 40
47.667175000000007
 50
90.063660000015659
 51
130.31229100009048
  0
ARC
  8
_0-0_0
  6
CONTINUOUS
 62
    7
 10
210.87215896275848
 20
290.83958020838588
 40
41.667175
 50
90.063660000015659
 51
130.31229100009048
  0
ARC
  8
_0-0_0
  6
CONTINUOUS
 62
    7
 10
239.28698596275854
 20
255.69305020838419
 40
7.8034239999999997
 50
222.86968699990942
 51
300.22509000008841
  0
ARC
  8
_0-0_0
  6
CONTINUOUS
 62
    7
 10
239.83756196276045
 20
256.67895120838421
 40
7.7276949999999989
 50
219.7777560000001
 51
307.69270000013802
  0
ARC
  8
_0-0_0
  6
CONTINUOUS
 62
    7
 10
229.6414179627584
 20
269.30709420838593
 40
23.957066999999999
 50
308.52273200016532
 51
346.86656699997968
  0
ARC
  8
_0-0_0
  6
CONTINUOUS
 62
    7
 10
229.79505096276057
 20
268.3655962083858
 40
23.601862000000001
 50
304.6530749998638
 51
348.47775399997153
  0
ARC
  8
_0-0_0
  6
CONTINUOUS
 62
    7
 10
248.22965896276355
 20
265.48472220838357
 40
21.047502000000001
 50
169.21336000000551
 51
225.84463100008509
  0
ARC
  8
_0-0_0
  6
CONTINUOUS
 62
    7
 10
252.38247596275846
 20
268.80341720838533
 40
25.159412
 50
188.08593799997334
 51
222.72055699994263
  0
ARC
  8
_0-0_0
  6
CONTINUOUS
 62
    7
 10
217.74329496275936
 20
272.07287220838316
 40
10.130442
 50
348.6636720000181
 51
25.498286000007774
  0
ARC
  8
_0-0_0
  6
CONTINUOUS
 62
    7
 10
240.08817996275843
 20
253.17242020838501
 40
26.988536
 50
124.06638399999699
 51
136.50874800003871
  0
ARC
  8
_0-0_0
  6
CONTINUOUS
 62
    7
 10
229.77494696276449
 20
264.57560320838354
 40
12.956829000000001
 50
110.37548799997749
 51
142.2001810000977
  0
ARC
  8
_0-0_0
  6
CONTINUOUS
 62
    7
 10
225.7884819627634
 20
274.35172620838318
 40
1.4339230000000001
 50
55.216713999847315
 51
124.78328000012347
  0
ARC
  8
_0-0_0
  6
CONTINUOUS
 62
    7
 10
226.0224069627634
 20
276.27907920838595
 40
0.8783469999999998
 50
10.149850999959661
 51
149.73733599997561
  0
ARC
  8
_0-0_0
  6
CONTINUOUS
 62
    7
 10
209.49191796275954
 20
283.68568020838484
 40
15.021506
 50
272.66601499984881
 51
311.96793400003878
  0
ARC
  8
_0-0_0
  6
CONTINUOUS
 62
    7
 10
210.03488296275941
 20
281.79557420838591
 40
14.514450999999999
 50
271.20099399989169
 51
316.18696899987538
  0
ARC
  8
_0-0_0
  6
CONTINUOUS
 62
    7
 10
209.82341896275943
 20
275.5554312083832
 40
8.2871790000000001
 50
234.75054200004112
 51
273.56765400007663
  0
ARC
  8
_0-0_0
  6
CONTINUOUS
 62
    7
 10
209.90465296276443
 20
274.78556420838413
 40
6.111826999999999
 50
237.34934699988031
 51
272.6818610000829
  0
ARC
  8
_0-0_0
  6
CONTINUOUS
 62
    7
 10
252.15360896276047
 20
277.54378820838508
 40
4.7536500000000004
 50
247.49469100001909
 51
303.79962900001738
  0
ARC
  8
_0-0_0
  6
CONTINUOUS
 62
    7
 10
244.63071296275848
 20
274.38099220838455
 40
1.6270929999999999
 50
54.437400000081276
 51
190.21146599994731
  0
ARC
  8
_0-0_0
  6
CONTINUOUS
 62
    7
 10
242.12624996276054
 20
267.06010020838482
 40
14.762663999999999
 50
168.18989799995981
 51
186.98609999998041
  0
ARC
  8
_0-0_0
  6
CONTINUOUS
 62
    7
 10
208.00939696276146
 20
225.3939782083861
 40
67.614431999999994
 50
78.889450000163961
 51
95.563901999801715
  0
ARC
  8
_0-0_0
  6
CONTINUOUS
 62
    7
 10
224.30480896276049
 20
304.12775720838454
 40
12.809951999999999
 50
255.2292249998996
 51
304.20668099993583
  0
ARC
  8
_0-0_0
  6
CONTINUOUS
 62
    7
 10
244.37795196276147
 20
273.83622320838458
 40
1.499287
 50
62.537573999890427
 51
156.3479339999156
  0
ARC
  8
_0-0_0
  6
CONTINUOUS
 62
    7
 10
219.21803996275958
 20
270.78098620838409
 40
8.7827739999999999
 50
9.8411699999272795
 51
32.72820400007452
  0
ARC
  8
_0-0_0
  6
CONTINUOUS
 62
    7
 10
255.20466496276458
 20
276.70222020838537
 40
17.538238
 50
167.48436599990731
 51
251.04065200006278
  0
ARC
  8
_0-0_0
  6
CONTINUOUS
 62
    7
 10
259.15531796276446
 20
272.47344520838578
 40
25.724065
 50
163.45642599992894
 51
228.17591099994084
  0
ARC
  8
_0-0_0
  6
CONTINUOUS
 62
    7
 10
268.57330196276348
 20
292.45020620838386
 40
28.722078
 50
170.61824799997069
 51
214.38814999984541
  0
ARC
  8
_0-0_0
  6
CONTINUOUS
 62
    7
 10
211.59423596276338
 20
144.79590920838291
 40
142.153593
 50
86.037632000091904
 51
93.962365999905728
  0
ARC
  8
_0-0_0
  6
CONTINUOUS
 62
    7
 10
226.74477296275859
 20
247.65773420838661
 40
34.166679000000002
 50
93.198041000055454
 51
123.25846799981259
  0
ARC
  8
_0-0_0
  6
CONTINUOUS
 62
    7
 10
222.89050996276455
 20
301.15938920838278
 40
14.624084
 50
264.21797200009257
 51
323.60228699998316
  0
ARC
  8
_0-0_0
  6
CONTINUOUS
 62
    7
 10
223.59463396276055
 20
294.19030320838544
 40
12.481254
 50
275.72047499978441
 51
351.25996299998559
  0
ARC
  8
_0-0_0
  6
CONTINUOUS
 62
    7
 10
217.44716396276453
 20
312.81455520838335
 40
18.432366999999999
 50
248.01151800007761
 51
329.89059600000309
  0
ARC
  8
_0-0_0
  6
CONTINUOUS
 62
    7
 10
190.62519509740241
 20
148.50672578603576
 40
67.428934394107586
 50
317.57134117633888
 51
42.428658823675619
  0
ARC
  8
_0-0_0
  6
CONTINUOUS
 62
    7
 10
190.62884594658249
 20
148.50820011483984
 40
61.42765790894881
 50
317.72165108394785
 51
42.278348916050724
  0
ARC
  8
_0-0_0
  6
CONTINUOUS
 62
    7
 10
38.000757572440534
 20
8.4034624499987558
 40
274.60783171935373
 50
42.520745050663379
 51
54.376292078658736
  0
ARC
  8
_0-0_0
  6
CONTINUOUS
 62
    7
 10
38.000757572440534
 20
8.4034624499987558
 40
268.60783171935373
 50
42.520745050663379
 51
54.376292078658736
  0
ARC
  8
_0-0_0
  6
CONTINUOUS
 62
    7
 10
212.05597419111837
 20
7.1215981517060527
 40
49.156570784954873
 50
190.97934045651181
 51
229.35020359060718
  0
ARC
  8
_0-0_0
  6
CONTINUOUS
 62
    7
 10
212.05531715960456
 20
7.121343099336741
 40
43.156067560827637
 50
190.9197398675081
 51
229.30372161968302
  0
ARC
  8
_0-0_0
  6
CONTINUOUS
 62
    7
 10
232.2395202502164
 20
11.567975467979522
 40
63.819453952552692
 50
122.50073604195704
 51
191.40683614754232
  0
ARC
  8
_0-0_0
  6
CONTINUOUS
 62
    7
 10
232.21507646975556
 20
11.570466863374918
 40
69.795986109081369
 50
122.75324525089083
 51
191.4128094823626
  0
ARC
  8
_0-0_0
  6
CONTINUOUS
 62
    7
 10
210.69089996276057
 20
-7.610246636316333
 40
33.883270000000003
 50
270.21694500012228
 51
330.27488700008848
  0
ARC
  8
_0-0_0
  6
CONTINUOUS
 62
    7
 10
212.31010704798746
 20
-13.557023657376021
 40
21.98845221323775
 50
266.05278041292928
 51
349.37939222597834
  0
ARC
  8
_0-0_0
  6
CONTINUOUS
 62
    7
 10
234.6058039627585
 20
-0.4509456363167601
 40
41.188029999999991
 50
135.87406299981359
 51
162.18992200005832
  0
ARC
  8
_0-0_0
  6
CONTINUOUS
 62
    7
 10
236.94256496276444
 20
-3.9343736363161952
 40
43.594042999999999
 50
134.0957690001371
 51
161.51190200009961
  0
ARC
  8
_0-0_0
  6
CONTINUOUS
 62
    7
 10
201.08875796276448
 20
9.8024573636856758
 40
5.4910180000000004
 50
179.0903500000158
 51
273.81164599989785
  0
ARC
  8
_0-0_0
  6
CONTINUOUS
 62
    7
 10
200.47539296276045
 20
10.366666363685908
 40
5.3864130000000001
 50
160.7001480000072
 51
230.20318299997413
  0
ARC
  8
_0-0_0
  6
CONTINUOUS
 62
    7
 10
208.23811496275948
 20
2.7983073636851259
 40
3.3249149999999998
 50
157.6073559999308
 51
252.29262999987236
  0
ARC
  8
_0-0_0
  6
CONTINUOUS
 62
    7
 10
212.00786696275941
 20
4.2971473636853261
 40
6.6807239999999997
 50
224.30370299996116
 51
266.70932199984941
  0
ARC
  8
_0-0_0
  6
CONTINUOUS
 62
    7
 10
217.40857396276056
 20
-22.991868636317236
 40
21.415244999999999
 50
67.805054000092269
 51
105.67003799987968
  0
ARC
  8
_0-0_0
  6
CONTINUOUS
 62
    7
 10
217.05793496276351
 20
-17.763933636314505
 40
16.864649
 50
0.5243300000188414
 51
59.968149000021612
  0
ARC
  8
_0-0_0
  6
CONTINUOUS
 62
    7
 10
223.15505896276341
 20
-15.60611163631711
 40
19.10981
 50
332.56465800011358
 51
6.0179600001006017
  0
ARC
  8
_0-0_0
  6
CONTINUOUS
 62
    7
 10
293.84845596275954
 20
-16.3430496363153
 40
51.761496999999991
 50
143.93397299995064
 51
176.96516399991739
  0
ARC
  8
_0-0_0
  6
CONTINUOUS
 62
    7
 10
258.80959996275942
 20
10.405606363684456
 40
7.7547979999999992
 50
109.51281200004782
 51
151.29839299987901
  0
ARC
  8
_0-0_0
  6
CONTINUOUS
 62
    7
 10
254.80621996275841
 20
18.92690836368547
 40
1.861618999999999
 50
319.38418800004411
 51
21.858617000042127
  0
ARC
  8
_0-0_0
  6
CONTINUOUS
 62
    7
 10
244.06867896276344
 20
16.677686363683165
 40
12.934977
 50
21.895828000010699
 51
34.780351000026833
  0
ARC
  8
_0-0_0
  6
CONTINUOUS
 62
    7
 10
249.04360896275944
 20
18.494489363684806
 40
7.5744860000000003
 50
8.545540000057164
 51
40.561368999929009
  0
ARC
  8
_0-0_0
  6
CONTINUOUS
 62
    7
 10
256.37807296275946
 20
6.5198643636858833
 40
19.047428
 50
108.83670499991919
 51
126.4209180001269
  0
ARC
  8
_0-0_0
  6
CONTINUOUS
 62
    7
 10
253.46998496276251
 20
12.307691363685876
 40
11.971624
 50
105.185585999897
 51
131.24697899980401
  0
ARC
  8
_0-0_0
  6
CONTINUOUS
 62
    7
 10
252.04432596276251
 20
20.517316363685495
 40
4.4201759999999997
 50
53.189624000105567
 51
114.25968399998082
  0
ARC
  8
_0-0_0
  6
CONTINUOUS
 62
    7
 10
251.06115596276254
 20
21.29464436368562
 40
8.194742999999999
 50
87.989902000143289
 51
168.5535270000214
  0
ARC
  8
_0-0_0
  6
CONTINUOUS
 62
    7
 10
250.05550296276238
 20
32.249173363684349
 40
3.0522740000000002
 50
295.06513900017222
 51
17.162944000049542
  0
ARC
  8
_0-0_0
  6
CONTINUOUS
 62
    7
 10
210.87215896275848
 20
6.1738713636831335
 40
47.667175000000007
 50
229.6877089999123
 51
269.93633999998428
  0
ARC
  8
_0-0_0
  6
CONTINUOUS
 62
    7
 10
210.87215896275848
 20
6.1738713636831335
 40
41.667175
 50
229.6877089999123
 51
269.93633999998428
  0
ARC
  8
_0-0_0
  6
CONTINUOUS
 62
    7
 10
239.28698596275854
 20
41.320401363684937
 40
7.8034239999999997
 50
59.774909999912033
 51
137.13031300008643
  0
ARC
  8
_0-0_0
  6
CONTINUOUS
 62
    7
 10
239.83756196276045
 20
40.334500363684924
 40
7.7276949999999989
 50
52.307299999865862
 51
140.22224400000013
  0
ARC
  8
_0-0_0
  6
CONTINUOUS
 62
    7
 10
229.6414179627584
 20
27.70635736368331
 40
23.957066999999999
 50
13.133433000021562
 51
51.477267999834659
  0
ARC
  8
_0-0_0
  6
CONTINUOUS
 62
    7
 10
229.79505096276057
 20
28.647855363683448
 40
23.601862000000001
 50
11.522246000028581
 51
55.346925000132572
  0
ARC
  8
_0-0_0
  6
CONTINUOUS
 62
    7
 10
248.22965896276355
 20
31.528729363685557
 40
21.047502000000001
 50
134.1553689999171
 51
190.78663999999526
  0
ARC
  8
_0-0_0
  6
CONTINUOUS
 62
    7
 10
252.38247596275846
 20
28.210034363683917
 40
25.159412
 50
137.2794430000568
 51
171.91406200003266
  0
ARC
  8
_0-0_0
  6
CONTINUOUS
 62
    7
 10
217.74329496275936
 20
24.94057936368597
 40
10.130442
 50
334.50171399998737
 51
11.336327999981874
  0
ARC
  8
_0-0_0
  6
CONTINUOUS
 62
    7
 10
240.08817996275843
 20
43.841031363684124
 40
26.988536
 50
223.49125199996007
 51
235.93361600000605
  0
ARC
  8
_0-0_0
  6
CONTINUOUS
 62
    7
 10
229.77494696276449
 20
32.437848363685589
 40
12.956829000000001
 50
217.79981899990281
 51
249.62451200002374
  0
ARC
  8
_0-0_0
  6
CONTINUOUS
 62
    7
 10
225.7884819627634
 20
22.661725363685946
 40
1.4339230000000001
 50
235.21671999987507
 51
304.7832860001534
  0
ARC
  8
_0-0_0
  6
CONTINUOUS
 62
    7
 10
226.0224069627634
 20
20.734372363683178
 40
0.8783469999999998
 50
210.26266400002351
 51
349.85014900003472
  0
ARC
  8
_0-0_0
  6
CONTINUOUS
 62
    7
 10
209.49191796275954
 20
13.327771363684406
 40
15.021506
 50
48.032065999964367
 51
87.333985000151344
  0
ARC
  8
_0-0_0
  6
CONTINUOUS
 62
    7
 10
210.03488296275941
 20
15.217877363683328
 40
14.514450999999999
 50
43.813031000122137
 51
88.799006000108335
  0
ARC
  8
_0-0_0
  6
CONTINUOUS
 62
    7
 10
209.82341896275943
 20
21.458020363686046
 40
8.2871790000000001
 50
86.432345999923129
 51
125.24945799995521
  0
ARC
  8
_0-0_0
  6
CONTINUOUS
 62
    7
 10
209.90465296276443
 20
22.227887363685113
 40
6.111826999999999
 50
87.318138999917181
 51
122.65065300011941
  0
ARC
  8
_0-0_0
  6
CONTINUOUS
 62
    7
 10
252.15360896276047
 20
19.469663363683935
 40
4.7536500000000004
 50
56.20037099997937
 51
112.5053089999802
  0
ARC
  8
_0-0_0
  6
CONTINUOUS
 62
    7
 10
244.63071296275848
 20
22.632459363684575
 40
1.6270929999999999
 50
169.78853400005309
 51
305.56259999992062
  0
ARC
  8
_0-0_0
  6
CONTINUOUS
 62
    7
 10
242.12624996276054
 20
29.953351363684305
 40
14.762663999999999
 50
173.01390000001351
 51
191.81010200004553
  0
ARC
  8
_0-0_0
  6
CONTINUOUS
 62
    7
 10
208.00939696276146
 20
71.619473363683028
 40
67.614431999999994
 50
264.436098000198
 51
281.11054999983679
  0
ARC
  8
_0-0_0
  6
CONTINUOUS
 62
    7
 10
224.30480896276049
 20
-7.1143056363152937
 40
12.809951999999999
 50
55.793319000062198
 51
104.77077500009949
  0
ARC
  8
_0-0_0
  6
CONTINUOUS
 62
    7
 10
244.37795196276147
 20
23.177228363684549
 40
1.499287
 50
203.65206600009
 51
297.46242600010851
  0
ARC
  8
_0-0_0
  6
CONTINUOUS
 62
    7
 10
219.21803996275958
 20
26.232465363685037
 40
8.7827739999999999
 50
327.27179599992132
 51
350.15883000006727
  0
ARC
  8
_0-0_0
  6
CONTINUOUS
 62
    7
 10
255.20466496276458
 20
20.311231363683873
 40
17.538238
 50
108.95934799993699
 51
192.51563400009869
  0
ARC
  8
_0-0_0
  6
CONTINUOUS
 62
    7
 10
259.15531796276446
 20
24.540006363683347
 40
25.724065
 50
131.8240890000628
 51
196.54357400007669
  0
ARC
  8
_0-0_0
  6
CONTINUOUS
 62
    7
 10
268.57330196276348
 20
4.5632453636852688
 40
28.722078
 50
145.61185000015979
 51
189.38175200003519
  0
ARC
  8
_0-0_0
  6
CONTINUOUS
 62
    7
 10
211.59423596276338
 20
152.21754236368633
 40
142.153593
 50
266.03763400009461
 51
273.96236799990828
  0
ARC
  8
_0-0_0
  6
CONTINUOUS
 62
    7
 10
226.74477296275859
 20
49.355717363682629
 40
34.166679000000002
 50
236.74153200018853
 51
266.8019589999447
  0
ARC
  8
_0-0_0
  6
CONTINUOUS
 62
    7
 10
222.89050996276455
 20
-4.1459376363136471
 40
14.624084
 50
36.397713000019152
 51
95.782027999907115
  0
ARC
  8
_0-0_0
  6
CONTINUOUS
 62
    7
 10
223.59463396276055
 20
2.8231483636836856
 40
12.481254
 50
8.7400370000141194
 51
84.279525000215173
  0
ARC
  8
_0-0_0
  6
CONTINUOUS
 62
    7
 10
217.44716396276453
 20
-15.80110363631411
 40
18.432366999999999
 50
30.10940399999242
 51
111.9884819999223
  0
ARC
  8
_0-0_0
  6
CONTINUOUS
 62
    7
 10
38.000757572440534
 20
288.60998912207037
 40
274.60783171935373
 50
305.62370792134311
 51
317.47925494934071
  0
ARC
  8
_0-0_0
  6
CONTINUOUS
 62
    7
 10
38.000757572440534
 20
288.60998912207037
 40
268.60783171935373
 50
305.62370792134311
 51
317.47925494934071
  0
ENDSEC
  0
EOF
