  0
SECTION
  2
HEADER
  9
$ACADVER
  1
AC1009
  9
$INSBASE
 10
0
 20
0
 30
0
  9
$EXTMIN
 10
0
 20
0
  9
$EXTMAX
 10
420
 20
297
  9
$LIMMIN
 10
0
 20
0
  9
$LIMMAX
 10
420
 20
297
  9
$LTSCALE
 40
1
  0
ENDSEC
  0
SECTION
  2
TABLES
  0
TABLE
  2
LTYPE
 70
     9
  0
LTYPE
  2
CONTINUOUS
 70
    64
  3
実線
 72
    65
 73
     0
 40
0.0
  0
LTYPE
  2
DASHED1
 70
    64
  3
--  --  --  --  --  --  --  --  
 72
    65
 73
     2
 40
2.5
 49
1.25
 49
-1.25
  0
LTYPE
  2
DASHED2
 70
    64
  3
----    ----    ----    ----    
 72
    65
 73
     2
 40
5.0
 49
2.5
 49
-2.5
  0
LTYPE
  2
DASHED3
 70
    64
  3
------  ------  ------  ------  
 72
    65
 73
     2
 40
5.0
 49
3.75
 49
-1.25
  0
LTYPE
  2
CENTER1
 70
    64
  3
----- - ----- - ----- - ----- - 
 72
    65
 73
     4
 40
10.0
 49
6.25
 49
-1.25
 49
1.25
 49
-1.25
  0
LTYPE
  2
CENTER2
 70
    64
  3
----------  --  ----------  --  
 72
    65
 73
     4
 40
20.0
 49
12.5
 49
-2.5
 49
2.5
 49
-2.5
  0
LTYPE
  2
PHANTOM1
 70
    64
  3
--- - - --- - - --- - - --- - - 
 72
    65
 73
     6
 40
10.0
 49
3.25
 49
-1.25
 49
1.25
 49
-1.25
 49
1.25
 49
-1.25
  0
LTYPE
  2
PHANTOM2
 70
    64
  3
--------  -  -  --------  -  -  
 72
    65
 73
     6
 40
20.0
 49
10.0
 49
-2.5
 49
1.25
 49
-2.5
 49
1.25
 49
-2.5
  0
LTYPE
  2
DOT
 70
    64
  3
-   -   -   -   -   -   -   -   
 72
    65
 73
     2
 40
2.5
 49
0.625
 49
-1.875
  0
LTYPE
  2
DUMMY
 70
    64
  3
ダミー
 72
    65
 73
     0
 40
0.0
  0
LTYPE
  2
RAND1
 70
    64
  3
ランダム線1
 72
    65
 73
     4
 40
10.0
 49
1.0
 49
-2.0
 49
3.0
 49
-4.0
  0
LTYPE
  2
RAND2
 70
    64
  3
ランダム線2
 72
    65
 73
     4
 40
14.0
 49
2.0
 49
-3.0
 49
4.0
 49
-5.0
  0
LTYPE
  2
RAND3
 70
    64
  3
ランダム線3
 72
    65
 73
     4
 40
18.0
 49
3.0
 49
-4.0
 49
5.0
 49
-6.0
  0
LTYPE
  2
RAND4
 70
    64
  3
ランダム線4
 72
    65
 73
     4
 40
22.0
 49
4.0
 49
-5.0
 49
6.0
 49
-7.0
  0
LTYPE
  2
RAND5
 70
    64
  3
ランダム線5
 72
    65
 73
     4
 40
26.0
 49
5.0
 49
-6.0
 49
7.0
 49
-8.0
  0
LTYPE
  2
LONG1
 70
    64
  3
----------  --  ----------  --  
 72
    65
 73
     4
 40
40.0
 49
32.5
 49
-2.5
 49
2.5
 49
-2.5
  0
LTYPE
  2
LONG2
 70
    64
  3
--------  -  -  --------  -  -  
 72
    65
 73
     6
 40
40.0
 49
30.0
 49
-2.5
 49
1.25
 49
-2.5
 49
1.25
 49
-2.5
  0
LTYPE
  2
LONG3
 70
    64
  3
+++++++++++++++..+++++++++++++++
 72
    65
 73
     2
 40
40.0
 49
37.5
 49
-2.5
  0
LTYPE
  2
LONG4
 70
    64
  3
+++++++++++++++..+++++++++++++++
 72
    65
 73
     2
 40
80.0
 49
75.0
 49
-5.0
  0
LTYPE
  2
LONG5
 70
    64
  3
----------  --  ----------  --  
 72
    65
 73
     4
 40
60.0
 49
37.5
 49
-7.5
 49
7.5
 49
-7.5
  0
LTYPE
  2
dashed
 70
   64
  3
-------   -------------   ------
 72
   65
 73
    2
 40
7.5
 49
6
 49
-1.5
  0
LTYPE
  2
dashed_spaced
 70
   64
  3
----        --------        ----
 72
   65
 73
    2
 40
12
 49
6
 49
-6
  0
LTYPE
  2
long_dashed_dotted
 70
   64
  3
------------- --- --------------
 72
   65
 73
    4
 40
15.25
 49
12
 49
-1.5
 49
0.25
 49
-1.5
  0
LTYPE
  2
long_dashed_double-dotted
 70
   64
  3
----------- --- --- ------------
 72
   65
 73
    6
 40
17
 49
12
 49
-1.5
 49
0.25
 49
-1.5
 49
0.25
 49
-1.5
  0
LTYPE
  2
long_dashed_triplicate-dotted
 70
   64
  3
--------- --- --- --- ----------
 72
   65
 73
    8
 40
18.75
 49
12
 49
-1.5
 49
0.25
 49
-1.5
 49
0.25
 49
-1.5
 49
0.25
 49
-1.5
  0
LTYPE
  2
dotted
 70
   64
  3
   -       -       -       -    
 72
   65
 73
    2
 40
1.75
 49
0.25
 49
-1.5
  0
LTYPE
  2
chain
 70
   64
  3
-------------- -- --------------
 72
   65
 73
    4
 40
18.5
 49
12
 49
-1.5
 49
3.5
 49
-1.5
  0
LTYPE
  2
chain_double_dash
 70
   64
  3
------------ -- -- -------------
 72
   65
 73
    6
 40
23.5
 49
12
 49
-1.5
 49
3.5
 49
-1.5
 49
3.5
 49
-1.5
  0
LTYPE
  2
dashed_dotted
 70
   64
  3
-----------     -     ----------
 72
   65
 73
    4
 40
9.25
 49
6
 49
-1.5
 49
0.25
 49
-1.5
  0
LTYPE
  2
double-dashed_dotted
 70
   64
  3
------   -----------   -   -----
 72
   65
 73
    6
 40
16.75
 49
6
 49
-1.5
 49
6
 49
-1.5
 49
0.25
 49
-1.5
  0
LTYPE
  2
dashed_double-dotted
 70
   64
  3
---------    -    -    ---------
 72
   65
 73
    6
 40
11
 49
6
 49
-1.5
 49
0.25
 49
-1.5
 49
0.25
 49
-1.5
  0
LTYPE
  2
double-dashed_double-dotted
 70
   64
  3
-----   ---------   -   -   ----
 72
   65
 73
    8
 40
18.5
 49
6
 49
-1.5
 49
6
 49
-1.5
 49
0.25
 49
-1.5
 49
0.25
 49
-1.5
  0
LTYPE
  2
dashed_triplicate-dotted
 70
   64
  3
-------    -    -    -    ------
 72
   65
 73
    8
 40
12.75
 49
6
 49
-1.5
 49
0.25
 49
-1.5
 49
0.25
 49
-1.5
 49
0.25
 49
-1.5
  0
LTYPE
  2
double-dashed_triplicate-dotted
 70
   64
  3
-----  ---------  -  -  -  -----
 72
   65
 73
   10
 40
20.25
 49
6
 49
-1.5
 49
6
 49
-1.5
 49
0.25
 49
-1.5
 49
0.25
 49
-1.5
 49
0.25
 49
-1.5
  0
LTYPE
  2
undefined
 70
   64
  3
--------------------------------
 72
   65
 73
    0
 40
0
  0
LTYPE
  2
BORDER
 70
   64
  3
----     --------     -     ----
 72
   65
 73
    6
 40
1.76
 49
0.5
 49
-0.25
 49
0.5
 49
-0.25
 49
0.01
 49
-0.25
  0
LTYPE
  2
BORDER2
 70
   64
  3
----     --------     -     ----
 72
   65
 73
    6
 40
0.885
 49
0.25
 49
-0.125
 49
0.25
 49
-0.125
 49
0.01
 49
-0.125
  0
LTYPE
  2
BORDERX2
 70
   64
  3
----     --------     -     ----
 72
   65
 73
    6
 40
3.5099999999999998
 49
1
 49
-0.5
 49
1
 49
-0.5
 49
0.01
 49
-0.5
  0
LTYPE
  2
CENTER
 70
   64
  3
----------    ----    ----------
 72
   65
 73
    4
 40
2
 49
1.25
 49
-0.25
 49
0.25
 49
-0.25
  0
LTYPE
  2
CENTER2_21
 70
   64
  3
----------    ----    ----------
 72
   65
 73
    4
 40
1.125
 49
0.75
 49
-0.125
 49
0.125
 49
-0.125
  0
LTYPE
  2
CENTERX2
 70
   64
  3
----------    ----    ----------
 72
   65
 73
    4
 40
4
 49
2.5
 49
-0.5
 49
0.5
 49
-0.5
  0
LTYPE
  2
DASHDOT
 70
   64
  3
--------        -        -------
 72
   65
 73
    4
 40
1.01
 49
0.5
 49
-0.25
 49
0.01
 49
-0.25
  0
LTYPE
  2
DASHDOT2
 70
   64
  3
--------        -        -------
 72
   65
 73
    4
 40
0.51
 49
0.25
 49
-0.125
 49
0.01
 49
-0.125
  0
LTYPE
  2
DASHDOTX2
 70
   64
  3
--------        -        -------
 72
   65
 73
    4
 40
2.0099999999999998
 49
1
 49
-0.5
 49
0.01
 49
-0.5
  0
LTYPE
  2
DASHED
 70
   64
  3
------     -----------     -----
 72
   65
 73
    2
 40
0.75
 49
0.5
 49
-0.25
  0
LTYPE
  2
DASHED2_27
 70
   64
  3
------     -----------     -----
 72
   65
 73
    2
 40
0.375
 49
0.25
 49
-0.125
  0
LTYPE
  2
DASHEDX2
 70
   64
  3
------     -----------     -----
 72
   65
 73
    2
 40
1.5
 49
1
 49
-0.5
  0
LTYPE
  2
DIVIDE
 70
   64
  3
------      -      -      ------
 72
   65
 73
    6
 40
1.27
 49
0.5
 49
-0.25
 49
0.01
 49
-0.25
 49
0.01
 49
-0.25
  0
LTYPE
  2
DIVIDE2
 70
   64
  3
------      -      -      ------
 72
   65
 73
    6
 40
0.645
 49
0.25
 49
-0.125
 49
0.01
 49
-0.125
 49
0.01
 49
-0.125
  0
LTYPE
  2
DIVIDEX2
 70
   64
  3
------      -      -      ------
 72
   65
 73
    6
 40
2.5199999999999996
 49
1
 49
-0.5
 49
0.01
 49
-0.5
 49
0.01
 49
-0.5
  0
LTYPE
  2
DOT_32
 70
   64
  3
-               -               
 72
   65
 73
    2
 40
0.26
 49
0.01
 49
-0.25
  0
ENDTAB
  0
TABLE
  2
STYLE
  5
3
100
AcDbSymbolTable
 70
     1
  0
STYLE
  5
10
100
AcDbSymbolTableRecord
100
AcDbTextStyleTableRecord
  2
STANDARD
 70
     0
 40
0.0
 41
1.0
 50
0.0
 71
     0
 42
0.2
  3
txt
  4
bigfont.shx
  0
STYLE
  5
26
100
AcDbSymbolTableRecord
100
AcDbTextStyleTableRecord
  2
TATEGAKI
 70
    68
 40
0.0
 41
1.0
 50
0.0
 71
     0
 42
1.0
  3
txt
  4
bigfont.shx
  0
ENDTAB
  0
TABLE
  2
LAYER
 70
    2
  0
LAYER
  2
_0-0_0
 70
   64
 62
    7
  6
CONTINUOUS
  0
LAYER
  2
ADD_LINE
 70
   64
 62
    7
  6
CONTINUOUS
  0
ENDTAB
  0
ENDSEC
  0
SECTION
  2
BLOCKS
  0
BLOCK
  2
-001-64_F1
 70
   64
 10
0
 20
0
 30
0
  0
LINE
  8
_0-0_0
  6
CONTINUOUS
 62
    7
 10
-13.333948827836139
 20
172.32797979003948
 11
-1.320211827835009
 21
176.66666379003797
  0
LINE
  8
_0-0_0
  6
CONTINUOUS
 62
    7
 10
-1.320211827835009
 20
176.66666379003797
 11
10.693525172166122
 21
172.32797979003948
  0
ARC
  8
_0-0_0
  6
CONTINUOUS
 62
    7
 10
12.41740517216385
 20
63.838540790038678
 40
31.357395
 50
173.26549300007784
 51
213.20375400014373
  0
LINE
  8
_0-0_0
  6
CONTINUOUS
 62
    7
 10
-13.82021182783501
 20
46.666665790038678
 11
-13.8352968278341
 21
43.845498790040438
  0
ARC
  8
_0-0_0
  6
CONTINUOUS
 62
    7
 10
47.653039172160788
 20
17.934305790040529
 40
66.724845000000002
 50
157.14943000000579
 51
181.08857299996919
  0
ARC
  8
_0-0_0
  6
CONTINUOUS
 62
    7
 10
-1.320211827835009
 20
16.666665790038682
 40
6.104271999999999
 50
90.000002999880451
 51
180.00000500007863
  0
LINE
  8
_0-0_0
  6
CONTINUOUS
 62
    7
 10
-8.28299582783802
 20
17.385293790041036
 11
-18.78408682783629
 21
18.304483790037924
  0
LINE
  8
_0-0_0
  6
CONTINUOUS
 62
    7
 10
-8.28299582783802
 20
18.698465790039339
 11
-17.738000827834181
 21
23.097512790038312
  0
LINE
  8
_0-0_0
  6
CONTINUOUS
 62
    7
 10
-7.3576128278364177
 20
20.766702790038838
 11
-16.45050982783868
 21
27.004190790041321
  0
LINE
  8
_0-0_0
  6
CONTINUOUS
 62
    7
 10
-5.9494198278407548
 20
22.44095779004056
 11
-14.760679827835698
 21
31.00931779003804
  0
LINE
  8
_0-0_0
  6
CONTINUOUS
 62
    7
 10
-4.5009938278380996
 20
23.097512790038312
 11
-13.070848827839647
 21
36.327615790039999
  0
LINE
  8
_0-0_0
  6
CONTINUOUS
 62
    7
 10
-3.3342058278358291
 20
23.754129790038863
 11
-8.9267408278392377
 21
40.464089790038997
  0
LINE
  8
_0-0_0
  6
CONTINUOUS
 62
    7
 10
-2.0467168278410091
 20
24.016763790041299
 11
-3.0928028278358379
 21
42.532327790038842
  0
LINE
  8
_0-0_0
  6
CONTINUOUS
 62
    7
 10
-1.320211827835009
 20
176.66666379003797
 11
-1.320211827835009
 21
46.666665790038678
  0
LINE
  8
_0-0_0
  6
CONTINUOUS
 62
    7
 10
-8.143886827834649
 20
139.50797279004109
 11
-14.531656827835828
 21
134.7030417900387
  0
LINE
  8
_0-0_0
  6
CONTINUOUS
 62
    7
 10
-7.1457978278340288
 20
132.74851279004
 11
-14.232229827837727
 21
128.59513179003989
  0
LINE
  8
_0-0_0
  6
CONTINUOUS
 62
    7
 10
-2.6543988278353918
 20
129.89817079003839
 11
-5.5488568278378789
 21
125.66330779004058
  0
LINE
  8
_0-0_0
  6
CONTINUOUS
 62
    7
 10
-5.5488568278378789
 20
125.66330779004058
 11
-10.040254827836179
 21
122.16141579004028
  0
LINE
  8
_0-0_0
  6
CONTINUOUS
 62
    7
 10
-10.040254827836179
 20
122.16141579004028
 11
-15.230317827838
 21
118.33377879003818
  0
LINE
  8
_0-0_0
  6
CONTINUOUS
 62
    7
 10
-2.9538258278407721
 20
123.46445479003887
 11
-5.2494298278397746
 21
118.90384679003908
  0
LINE
  8
_0-0_0
  6
CONTINUOUS
 62
    7
 10
-5.2494298278397746
 20
118.90384679003908
 11
-8.143886827834649
 21
114.75046579003903
  0
LINE
  8
_0-0_0
  6
CONTINUOUS
 62
    7
 10
-8.143886827834649
 20
114.75046579003903
 11
-12.934713827838998
 21
109.61978979003834
  0
LINE
  8
_0-0_0
  6
CONTINUOUS
 62
    7
 10
-12.934713827838998
 20
109.61978979003834
 11
-16.52783382783673
 21
107.99100579003789
  0
LINE
  8
_0-0_0
  6
CONTINUOUS
 62
    7
 10
-2.6543988278353918
 20
117.03080079003848
 11
-5.2494298278397746
 21
109.61978979003834
  0
LINE
  8
_0-0_0
  6
CONTINUOUS
 62
    7
 10
-5.2494298278397746
 20
109.61978979003834
 11
-7.1457978278340288
 21
105.46640879003826
  0
LINE
  8
_0-0_0
  6
CONTINUOUS
 62
    7
 10
-7.1457978278340288
 20
105.46640879003826
 11
-9.4414028278406477
 21
101.88309579003908
  0
LINE
  8
_0-0_0
  6
CONTINUOUS
 62
    7
 10
-9.4414028278406477
 20
101.88309579003908
 11
-12.934713827838998
 21
98.381203790038853
  0
LINE
  8
_0-0_0
  6
CONTINUOUS
 62
    7
 10
-12.934713827838998
 20
98.381203790038853
 11
-15.529744827836108
 21
96.100929790038208
  0
LINE
  8
_0-0_0
  6
CONTINUOUS
 62
    7
 10
-1.0574558278385657
 20
104.48917479004012
 11
-2.6543988278353918
 21
100.33573279004123
  0
LINE
  8
_0-0_0
  6
CONTINUOUS
 62
    7
 10
-2.6543988278353918
 20
100.33573279004123
 11
-4.9500028278343944
 21
94.797890790039673
  0
LINE
  8
_0-0_0
  6
CONTINUOUS
 62
    7
 10
-4.9500028278343944
 20
94.797890790039673
 11
-7.8444598278365429
 21
91.295998790039448
  0
LINE
  8
_0-0_0
  6
CONTINUOUS
 62
    7
 10
-7.8444598278365429
 20
91.295998790039448
 11
-10.43949182783399
 21
88.364174790040124
  0
LINE
  8
_0-0_0
  6
CONTINUOUS
 62
    7
 10
-10.43949182783399
 20
88.364174790040124
 11
-12.934713827838998
 21
85.188088790040624
  0
LINE
  8
_0-0_0
  6
CONTINUOUS
 62
    7
 10
-12.934713827838998
 20
85.188088790040624
 11
-15.829172827834547
 21
83.233498790039448
  0
LINE
  8
_0-0_0
  6
CONTINUOUS
 62
    7
 10
-2.0555438278388456
 20
90.644509790039592
 11
-4.9500028278343944
 21
86.49106679004035
  0
LINE
  8
_0-0_0
  6
CONTINUOUS
 62
    7
 10
-4.9500028278343944
 20
86.49106679004035
 11
-7.8444598278365429
 21
82.90775379004117
  0
LINE
  8
_0-0_0
  6
CONTINUOUS
 62
    7
 10
-7.8444598278365429
 20
82.90775379004117
 11
-11.337770827834898
 21
79.731667790038045
  0
LINE
  8
_0-0_0
  6
CONTINUOUS
 62
    7
 10
-11.337770827834898
 20
79.731667790038045
 11
-17.126687827840207
 21
76.148293790040057
  0
LINE
  8
_0-0_0
  6
CONTINUOUS
 62
    7
 10
-3.6524868278356721
 20
80.383156790037901
 11
-7.1457978278340288
 21
74.275246790039091
  0
LINE
  8
_0-0_0
  6
CONTINUOUS
 62
    7
 10
-7.1457978278340288
 20
74.275246790039091
 11
-11.337770827834898
 21
70.691872790041089
  0
LINE
  8
_0-0_0
  6
CONTINUOUS
 62
    7
 10
-11.337770827834898
 20
70.691872790041089
 11
-15.829172827834547
 21
67.841530790039556
  0
LINE
  8
_0-0_0
  6
CONTINUOUS
 62
    7
 10
-4.2513408278391571
 20
71.669167790038045
 11
-7.8444598278365429
 21
67.841530790039556
  0
LINE
  8
_0-0_0
  6
CONTINUOUS
 62
    7
 10
-7.8444598278365429
 20
67.841530790039556
 11
-11.337770827834898
 21
64.909707790040557
  0
LINE
  8
_0-0_0
  6
CONTINUOUS
 62
    7
 10
-11.337770827834898
 20
64.909707790040557
 11
-17.825347827834769
 21
62.05936579003901
  0
LINE
  8
_0-0_0
  6
CONTINUOUS
 62
    7
 10
-3.6524868278356721
 20
63.688149790039461
 11
-5.5488568278378789
 21
60.104836790040281
  0
LINE
  8
_0-0_0
  6
CONTINUOUS
 62
    7
 10
-5.5488568278378789
 20
60.104836790040281
 11
-7.5450348278391157
 21
58.47605279003983
  0
LINE
  8
_0-0_0
  6
CONTINUOUS
 62
    7
 10
-7.5450348278391157
 20
58.47605279003983
 11
-10.73891882783937
 21
55.951394790037739
  0
LINE
  8
_0-0_0
  6
CONTINUOUS
 62
    7
 10
-10.73891882783937
 20
55.951394790037739
 11
-15.230317827838
 21
55.625649790039461
  0
LINE
  8
_0-0_0
  6
CONTINUOUS
 62
    7
 10
-1.7561168278407413
 20
59.779030790039542
 11
-4.2513408278391571
 21
56.928689790038348
  0
LINE
  8
_0-0_0
  6
CONTINUOUS
 62
    7
 10
-4.2513408278391571
 20
56.928689790038348
 11
-6.8463708278359254
 21
53.99686579003901
  0
LINE
  8
_0-0_0
  6
CONTINUOUS
 62
    7
 10
-6.8463708278359254
 20
53.99686579003901
 11
-10.43949182783399
 21
52.368081790038559
  0
LINE
  8
_0-0_0
  6
CONTINUOUS
 62
    7
 10
-10.43949182783399
 20
52.368081790038559
 11
-12.934713827838998
 21
51.716592790038703
  0
LINE
  8
_0-0_0
  6
CONTINUOUS
 62
    7
 10
-12.934713827838998
 20
51.716592790038703
 11
-11.337770827834898
 21
49.843484790038929
  0
LINE
  8
_0-0_0
  6
CONTINUOUS
 62
    7
 10
-11.337770827834898
 20
49.843484790038929
 11
-6.8463708278359254
 21
47.8889557900402
  0
LINE
  8
_0-0_0
  6
CONTINUOUS
 62
    7
 10
-6.8463708278359254
 20
47.8889557900402
 11
-5.5488568278378789
 21
46.911660790039612
  0
LINE
  8
_0-0_0
  6
CONTINUOUS
 62
    7
 10
-5.5488568278378789
 20
46.911660790039612
 11
-2.9538258278407721
 21
46.260171790039749
  0
LINE
  8
_0-0_0
  6
CONTINUOUS
 62
    7
 10
-1.320211827835009
 20
173.00662979004119
 11
-13.333948827836139
 21
166.54575279003978
  0
LINE
  8
_0-0_0
  6
CONTINUOUS
 62
    7
 10
-1.320211827835009
 20
168.83768479003987
 11
-13.633375827834239
 21
159.46054879004078
  0
LINE
  8
_0-0_0
  6
CONTINUOUS
 62
    7
 10
-1.320211827835009
 20
161.90964479004109
 11
-14.232229827837727
 21
149.76932579003909
  0
LINE
  8
_0-0_0
  6
CONTINUOUS
 62
    7
 10
-1.320211827835009
 20
147.15378579004027
 11
-5.848281827835307
 21
141.13675679003788
  0
LINE
  8
_0-0_0
  6
CONTINUOUS
 62
    7
 10
-1.320211827835009
 20
154.30893679003927
 11
-13.93280282783962
 21
140.81101279004
  0
LINE
  8
_0-0_0
  6
CONTINUOUS
 62
    7
 10
-1.320211827835009
 20
142.39115179003778
 11
-7.1457978278340288
 21
132.74851279004
  0
LINE
  8
_0-0_0
  6
CONTINUOUS
 62
    7
 10
-1.320211827835009
 20
134.32779679003937
 11
-2.6543988278353918
 21
129.89817079003839
  0
LINE
  8
_0-0_0
  6
CONTINUOUS
 62
    7
 10
-1.320211827835009
 20
127.76621279004029
 11
-2.9538258278407721
 21
123.46445479003887
  0
LINE
  8
_0-0_0
  6
CONTINUOUS
 62
    7
 10
-1.320211827835009
 20
120.29666979004098
 11
-2.6543988278353918
 21
117.03080079003848
  0
LINE
  8
_0-0_0
  6
CONTINUOUS
 62
    7
 10
-1.320211827835009
 20
94.806984790040588
 11
-2.0555438278388456
 21
90.644509790039592
  0
LINE
  8
_0-0_0
  6
CONTINUOUS
 62
    7
 10
-1.320211827835009
 20
84.149575790041126
 11
-3.6524868278356721
 21
80.383156790037901
  0
LINE
  8
_0-0_0
  6
CONTINUOUS
 62
    7
 10
-1.320211827835009
 20
71.259011790039949
 11
-2.6543988278353918
 21
68.167275790041458
  0
LINE
  8
_0-0_0
  6
CONTINUOUS
 62
    7
 10
-1.320211827835009
 20
75.867897790038114
 11
-4.2513408278391571
 21
71.669167790038045
  0
LINE
  8
_0-0_0
  6
CONTINUOUS
 62
    7
 10
-1.320211827835009
 20
60.873391790039022
 11
-1.7561168278407413
 21
59.779030790039542
  0
ARC
  8
_0-0_0
  6
CONTINUOUS
 62
    7
 10
-15.05782882783387
 20
63.838540790038678
 40
31.357395
 50
326.79624700008156
 51
6.7345069999221892
  0
LINE
  8
_0-0_0
  6
CONTINUOUS
 62
    7
 10
11.17978817216499
 20
46.666665790038678
 11
11.194871172163403
 21
43.845498790040438
  0
ARC
  8
_0-0_0
  6
CONTINUOUS
 62
    7
 10
-50.293462827838077
 20
17.934305790040529
 40
66.724845000000002
 50
358.9114420000592
 51
22.850565000100175
  0
ARC
  8
_0-0_0
  6
CONTINUOUS
 62
    7
 10
-1.320211827835009
 20
16.666665790038682
 40
6.104271999999999
 50
0
 51
90.000002999880451
  0
LINE
  8
_0-0_0
  6
CONTINUOUS
 62
    7
 10
5.642572172160726
 20
17.385293790041036
 11
16.143663172158991
 21
18.304483790037924
  0
LINE
  8
_0-0_0
  6
CONTINUOUS
 62
    7
 10
5.642572172160726
 20
18.698465790039339
 11
15.097577172164161
 21
23.097512790038312
  0
LINE
  8
_0-0_0
  6
CONTINUOUS
 62
    7
 10
4.7171871721657226
 20
20.766702790038838
 11
13.810086172161391
 21
27.004190790041321
  0
LINE
  8
_0-0_0
  6
CONTINUOUS
 62
    7
 10
3.3089961721634609
 20
22.44095779004056
 11
12.120256172165682
 21
31.00931779003804
  0
LINE
  8
_0-0_0
  6
CONTINUOUS
 62
    7
 10
1.8605701721608061
 20
23.097512790038312
 11
10.430425172162362
 21
36.327615790039999
  0
LINE
  8
_0-0_0
  6
CONTINUOUS
 62
    7
 10
0.693784172159213
 20
23.754129790038863
 11
6.2863171721619437
 21
40.464089790038997
  0
LINE
  8
_0-0_0
  6
CONTINUOUS
 62
    7
 10
-0.5937068278362849
 20
24.016763790041299
 11
0.4523791721658199
 21
42.532327790038842
  0
LINE
  8
_0-0_0
  6
CONTINUOUS
 62
    7
 10
-1.320211827835009
 20
176.66666379003797
 11
-1.320211827835009
 21
46.666665790038678
  0
LINE
  8
_0-0_0
  6
CONTINUOUS
 62
    7
 10
5.5034651721653072
 20
139.50797279004109
 11
11.891233172165812
 21
134.7030417900387
  0
LINE
  8
_0-0_0
  6
CONTINUOUS
 62
    7
 10
4.5053721721633337
 20
132.74851279004
 11
11.591806172160432
 21
128.59513179003989
  0
LINE
  8
_0-0_0
  6
CONTINUOUS
 62
    7
 10
0.013975172165374
 20
129.89817079003839
 11
2.9084331721605849
 21
125.66330779004058
  0
LINE
  8
_0-0_0
  6
CONTINUOUS
 62
    7
 10
2.9084331721605849
 20
125.66330779004058
 11
7.3998311721661603
 21
122.16141579004028
  0
LINE
  8
_0-0_0
  6
CONTINUOUS
 62
    7
 10
7.3998311721661603
 20
122.16141579004028
 11
12.589894172160712
 21
118.33377879003818
  0
LINE
  8
_0-0_0
  6
CONTINUOUS
 62
    7
 10
0.3134021721634781
 20
123.46445479003887
 11
2.6090061721624811
 21
118.90384679003908
  0
LINE
  8
_0-0_0
  6
CONTINUOUS
 62
    7
 10
2.6090061721624811
 20
118.90384679003908
 11
5.5034651721653072
 21
114.75046579003903
  0
LINE
  8
_0-0_0
  6
CONTINUOUS
 62
    7
 10
5.5034651721653072
 20
114.75046579003903
 11
10.294290172161713
 21
109.61978979003834
  0
LINE
  8
_0-0_0
  6
CONTINUOUS
 62
    7
 10
10.294290172161713
 20
109.61978979003834
 11
13.887410172159431
 21
107.99100579003789
  0
LINE
  8
_0-0_0
  6
CONTINUOUS
 62
    7
 10
0.013975172165374
 20
117.03080079003848
 11
2.6090061721624811
 21
109.61978979003834
  0
LINE
  8
_0-0_0
  6
CONTINUOUS
 62
    7
 10
2.6090061721624811
 20
109.61978979003834
 11
4.5053721721633337
 21
105.46640879003826
  0
LINE
  8
_0-0_0
  6
CONTINUOUS
 62
    7
 10
4.5053721721633337
 20
105.46640879003826
 11
6.8009811721640299
 21
101.88309579003908
  0
LINE
  8
_0-0_0
  6
CONTINUOUS
 62
    7
 10
6.8009811721640299
 20
101.88309579003908
 11
10.294290172161713
 21
98.381203790038853
  0
LINE
  8
_0-0_0
  6
CONTINUOUS
 62
    7
 10
10.294290172161713
 20
98.381203790038853
 11
12.889321172166092
 21
96.100929790038208
  0
LINE
  8
_0-0_0
  6
CONTINUOUS
 62
    7
 10
-1.5829678278387282
 20
104.48917479004012
 11
0.013975172165374
 21
100.33573279004123
  0
LINE
  8
_0-0_0
  6
CONTINUOUS
 62
    7
 10
0.013975172165374
 20
100.33573279004123
 11
2.3095791721643768
 21
94.797890790039673
  0
LINE
  8
_0-0_0
  6
CONTINUOUS
 62
    7
 10
2.3095791721643768
 20
94.797890790039673
 11
5.204038172159926
 21
91.295998790039448
  0
LINE
  8
_0-0_0
  6
CONTINUOUS
 62
    7
 10
5.204038172159926
 20
91.295998790039448
 11
7.7990661721632941
 21
88.364174790040124
  0
LINE
  8
_0-0_0
  6
CONTINUOUS
 62
    7
 10
7.7990661721632941
 20
88.364174790040124
 11
10.294290172161713
 21
85.188088790040624
  0
LINE
  8
_0-0_0
  6
CONTINUOUS
 62
    7
 10
10.294290172161713
 20
85.188088790040624
 11
13.188749172164531
 21
83.233498790039448
  0
LINE
  8
_0-0_0
  6
CONTINUOUS
 62
    7
 10
-0.5848798278384482
 20
90.644509790039592
 11
2.3095791721643768
 21
86.49106679004035
  0
LINE
  8
_0-0_0
  6
CONTINUOUS
 62
    7
 10
2.3095791721643768
 20
86.49106679004035
 11
5.204038172159926
 21
82.90775379004117
  0
LINE
  8
_0-0_0
  6
CONTINUOUS
 62
    7
 10
5.204038172159926
 20
82.90775379004117
 11
8.6973471721648821
 21
79.731667790038045
  0
LINE
  8
_0-0_0
  6
CONTINUOUS
 62
    7
 10
8.6973471721648821
 20
79.731667790038045
 11
14.486264172162922
 21
76.148293790040057
  0
LINE
  8
_0-0_0
  6
CONTINUOUS
 62
    7
 10
1.0120631721656541
 20
80.383156790037901
 11
4.5053721721633337
 21
74.275246790039091
  0
LINE
  8
_0-0_0
  6
CONTINUOUS
 62
    7
 10
4.5053721721633337
 20
74.275246790039091
 11
8.6973471721648821
 21
70.691872790041089
  0
LINE
  8
_0-0_0
  6
CONTINUOUS
 62
    7
 10
8.6973471721648821
 20
70.691872790041089
 11
13.188749172164531
 21
67.841530790039556
  0
LINE
  8
_0-0_0
  6
CONTINUOUS
 62
    7
 10
1.6109171721618631
 20
71.669167790038045
 11
5.204038172159926
 21
67.841530790039556
  0
LINE
  8
_0-0_0
  6
CONTINUOUS
 62
    7
 10
5.204038172159926
 20
67.841530790039556
 11
8.6973471721648821
 21
64.909707790040557
  0
LINE
  8
_0-0_0
  6
CONTINUOUS
 62
    7
 10
8.6973471721648821
 20
64.909707790040557
 11
15.184922172164079
 21
62.05936579003901
  0
LINE
  8
_0-0_0
  6
CONTINUOUS
 62
    7
 10
0.013975172165374
 20
68.167275790041458
 11
1.0120631721656541
 21
63.688149790039461
  0
LINE
  8
_0-0_0
  6
CONTINUOUS
 62
    7
 10
1.0120631721656541
 20
63.688149790039461
 11
2.9084331721605849
 21
60.104836790040281
  0
LINE
  8
_0-0_0
  6
CONTINUOUS
 62
    7
 10
2.9084331721605849
 20
60.104836790040281
 11
4.9046111721618217
 21
58.47605279003983
  0
LINE
  8
_0-0_0
  6
CONTINUOUS
 62
    7
 10
4.9046111721618217
 20
58.47605279003983
 11
8.0984971721627517
 21
55.951394790037739
  0
LINE
  8
_0-0_0
  6
CONTINUOUS
 62
    7
 10
8.0984971721627517
 20
55.951394790037739
 11
12.589894172160712
 21
55.625649790039461
  0
LINE
  8
_0-0_0
  6
CONTINUOUS
 62
    7
 10
-0.8843068278365526
 20
59.779030790039542
 11
1.6109171721618631
 21
56.928689790038348
  0
LINE
  8
_0-0_0
  6
CONTINUOUS
 62
    7
 10
1.6109171721618631
 20
56.928689790038348
 11
4.2059491721593076
 21
53.99686579003901
  0
LINE
  8
_0-0_0
  6
CONTINUOUS
 62
    7
 10
4.2059491721593076
 20
53.99686579003901
 11
7.7990661721632941
 21
52.368081790038559
  0
LINE
  8
_0-0_0
  6
CONTINUOUS
 62
    7
 10
7.7990661721632941
 20
52.368081790038559
 11
10.294290172161713
 21
51.716592790038703
  0
LINE
  8
_0-0_0
  6
CONTINUOUS
 62
    7
 10
10.294290172161713
 20
51.716592790038703
 11
8.6973471721648821
 21
49.843484790038929
  0
LINE
  8
_0-0_0
  6
CONTINUOUS
 62
    7
 10
8.6973471721648821
 20
49.843484790038929
 11
4.2059491721593076
 21
47.8889557900402
  0
LINE
  8
_0-0_0
  6
CONTINUOUS
 62
    7
 10
4.2059491721593076
 20
47.8889557900402
 11
2.9084331721605849
 21
46.911660790039612
  0
LINE
  8
_0-0_0
  6
CONTINUOUS
 62
    7
 10
2.9084331721605849
 20
46.911660790039612
 11
0.3134021721634781
 21
46.260171790039749
  0
LINE
  8
_0-0_0
  6
CONTINUOUS
 62
    7
 10
-1.320211827835009
 20
173.00662979004119
 11
10.693525172166122
 21
166.54575279003978
  0
LINE
  8
_0-0_0
  6
CONTINUOUS
 62
    7
 10
-1.320211827835009
 20
168.83768479003987
 11
10.99295217216422
 21
159.46054879004078
  0
LINE
  8
_0-0_0
  6
CONTINUOUS
 62
    7
 10
-1.320211827835009
 20
161.90964479004109
 11
11.591806172160432
 21
149.76932579003909
  0
LINE
  8
_0-0_0
  6
CONTINUOUS
 62
    7
 10
-1.320211827835009
 20
147.15378579004027
 11
3.2078601721659661
 21
141.13675679003788
  0
LINE
  8
_0-0_0
  6
CONTINUOUS
 62
    7
 10
-1.320211827835009
 20
154.30893679003927
 11
11.29237917216232
 21
140.81101279004
  0
LINE
  8
_0-0_0
  6
CONTINUOUS
 62
    7
 10
-1.320211827835009
 20
142.39115179003778
 11
4.5053721721633337
 21
132.74851279004
  0
LINE
  8
_0-0_0
  6
CONTINUOUS
 62
    7
 10
-1.320211827835009
 20
134.32779679003937
 11
0.013975172165374
 21
129.89817079003839
  0
LINE
  8
_0-0_0
  6
CONTINUOUS
 62
    7
 10
-1.320211827835009
 20
127.76621279004029
 11
0.3134021721634781
 21
123.46445479003887
  0
LINE
  8
_0-0_0
  6
CONTINUOUS
 62
    7
 10
-1.320211827835009
 20
120.29666979004098
 11
0.013975172165374
 21
117.03080079003848
  0
LINE
  8
_0-0_0
  6
CONTINUOUS
 62
    7
 10
-1.320211827835009
 20
94.806984790040588
 11
-0.5848798278384482
 21
90.644509790039592
  0
LINE
  8
_0-0_0
  6
CONTINUOUS
 62
    7
 10
-1.320211827835009
 20
84.149575790041126
 11
1.0120631721656541
 21
80.383156790037901
  0
LINE
  8
_0-0_0
  6
CONTINUOUS
 62
    7
 10
-1.320211827835009
 20
71.259011790039949
 11
0.013975172165374
 21
68.167275790041458
  0
LINE
  8
_0-0_0
  6
CONTINUOUS
 62
    7
 10
-1.320211827835009
 20
75.867897790038114
 11
1.6109171721618631
 21
71.669167790038045
  0
LINE
  8
_0-0_0
  6
CONTINUOUS
 62
    7
 10
-1.320211827835009
 20
60.873391790039022
 11
-0.8843068278365526
 21
59.779030790039542
  0
ARC
  8
_0-0_0
  6
CONTINUOUS
 62
    7
 10
12.41740517216385
 20
-30.50520820996098
 40
31.357395
 50
146.79624200010969
 51
186.73450300007491
  0
LINE
  8
_0-0_0
  6
CONTINUOUS
 62
    7
 10
-13.82021182783501
 20
-13.33333320996098
 11
-13.8352968278341
 21
-10.512166209959108
  0
ARC
  8
_0-0_0
  6
CONTINUOUS
 62
    7
 10
47.653039172160788
 20
15.399026790040811
 40
66.724845000000002
 50
178.91142299995693
 51
202.85056700009014
  0
ARC
  8
_0-0_0
  6
CONTINUOUS
 62
    7
 10
-1.320211827835009
 20
16.666665790038682
 40
6.104271999999999
 50
180.00000500007863
 51
270.00000100009913
  0
LINE
  8
_0-0_0
  6
CONTINUOUS
 62
    7
 10
-8.28299582783802
 20
15.948037790039965
 11
-18.78408682783629
 21
15.028848790039778
  0
LINE
  8
_0-0_0
  6
CONTINUOUS
 62
    7
 10
-8.28299582783802
 20
14.634866790038362
 11
-17.738000827834181
 21
10.235818790039051
  0
LINE
  8
_0-0_0
  6
CONTINUOUS
 62
    7
 10
-7.3576128278364177
 20
12.566629790038863
 11
-16.45050982783868
 21
6.3291417900400209
  0
LINE
  8
_0-0_0
  6
CONTINUOUS
 62
    7
 10
-5.9494198278407548
 20
10.892373790040441
 11
-14.760679827835698
 21
2.3240147900396622
  0
LINE
  8
_0-0_0
  6
CONTINUOUS
 62
    7
 10
-4.5009938278380996
 20
10.235818790039051
 11
-13.070848827839647
 21
-2.9942832099586596
  0
LINE
  8
_0-0_0
  6
CONTINUOUS
 62
    7
 10
-3.3342058278358291
 20
9.5792027900388383
 11
-8.9267408278392377
 21
-7.1307582099616376
  0
LINE
  8
_0-0_0
  6
CONTINUOUS
 62
    7
 10
-2.0467168278410091
 20
9.3165687900400407
 11
-3.0928028278358379
 21
-9.1989952099611401
  0
LINE
  8
_0-0_0
  6
CONTINUOUS
 62
    7
 10
-1.320211827835009
 20
-143.33333120996033
 11
-1.320211827835009
 21
-13.33333320996098
  0
LINE
  8
_0-0_0
  6
CONTINUOUS
 62
    7
 10
-8.143886827834649
 20
-106.17464020995972
 11
-14.531656827835828
 21
-101.36970920996102
  0
LINE
  8
_0-0_0
  6
CONTINUOUS
 62
    7
 10
-7.1457978278340288
 20
-99.415180209962216
 11
-14.232229827837727
 21
-95.261799209958525
  0
LINE
  8
_0-0_0
  6
CONTINUOUS
 62
    7
 10
-2.6543988278353918
 20
-96.564838209960726
 11
-5.5488568278378789
 21
-92.329975209959215
  0
LINE
  8
_0-0_0
  6
CONTINUOUS
 62
    7
 10
-5.5488568278378789
 20
-92.329975209959215
 11
-10.040254827836179
 21
-88.828083209959019
  0
LINE
  8
_0-0_0
  6
CONTINUOUS
 62
    7
 10
-10.040254827836179
 20
-88.828083209959019
 11
-15.230317827838
 21
-85.000446209960515
  0
LINE
  8
_0-0_0
  6
CONTINUOUS
 62
    7
 10
-2.9538258278407721
 20
-90.131123209961515
 11
-5.2494298278397746
 21
-85.570515209961727
  0
LINE
  8
_0-0_0
  6
CONTINUOUS
 62
    7
 10
-5.2494298278397746
 20
-85.570515209961727
 11
-8.143886827834649
 21
-81.417133209961321
  0
LINE
  8
_0-0_0
  6
CONTINUOUS
 62
    7
 10
-8.143886827834649
 20
-81.417133209961321
 11
-12.934713827838998
 21
-76.286457209960645
  0
LINE
  8
_0-0_0
  6
CONTINUOUS
 62
    7
 10
-12.934713827838998
 20
-76.286457209960645
 11
-16.52783382783673
 21
-74.65767320996018
  0
LINE
  8
_0-0_0
  6
CONTINUOUS
 62
    7
 10
-2.6543988278353918
 20
-83.697468209960718
 11
-5.2494298278397746
 21
-76.286457209960645
  0
LINE
  8
_0-0_0
  6
CONTINUOUS
 62
    7
 10
-5.2494298278397746
 20
-76.286457209960645
 11
-7.1457978278340288
 21
-72.133076209960564
  0
LINE
  8
_0-0_0
  6
CONTINUOUS
 62
    7
 10
-7.1457978278340288
 20
-72.133076209960564
 11
-9.4414028278406477
 21
-68.549763209961384
  0
LINE
  8
_0-0_0
  6
CONTINUOUS
 62
    7
 10
-9.4414028278406477
 20
-68.549763209961384
 11
-12.934713827838998
 21
-65.047871209961158
  0
LINE
  8
_0-0_0
  6
CONTINUOUS
 62
    7
 10
-12.934713827838998
 20
-65.047871209961158
 11
-15.529744827836108
 21
-62.767598209960852
  0
LINE
  8
_0-0_0
  6
CONTINUOUS
 62
    7
 10
-1.0574558278385657
 20
-71.155842209958791
 11
-2.6543988278353918
 21
-67.002400209959887
  0
LINE
  8
_0-0_0
  6
CONTINUOUS
 62
    7
 10
-2.6543988278353918
 20
-67.002400209959887
 11
-4.9500028278343944
 21
-61.464558209961979
  0
LINE
  8
_0-0_0
  6
CONTINUOUS
 62
    7
 10
-4.9500028278343944
 20
-61.464558209961979
 11
-7.8444598278365429
 21
-57.962666209961753
  0
LINE
  8
_0-0_0
  6
CONTINUOUS
 62
    7
 10
-7.8444598278365429
 20
-57.962666209961753
 11
-10.43949182783399
 21
-55.030842209958777
  0
LINE
  8
_0-0_0
  6
CONTINUOUS
 62
    7
 10
-10.43949182783399
 20
-55.030842209958777
 11
-12.934713827838998
 21
-51.854756209959305
  0
LINE
  8
_0-0_0
  6
CONTINUOUS
 62
    7
 10
-12.934713827838998
 20
-51.854756209959305
 11
-15.829172827834547
 21
-49.900166209961753
  0
LINE
  8
_0-0_0
  6
CONTINUOUS
 62
    7
 10
-2.0555438278388456
 20
-57.311177209961897
 11
-4.9500028278343944
 21
-53.157734209959017
  0
LINE
  8
_0-0_0
  6
CONTINUOUS
 62
    7
 10
-4.9500028278343944
 20
-53.157734209959017
 11
-7.8444598278365429
 21
-49.574422209960176
  0
LINE
  8
_0-0_0
  6
CONTINUOUS
 62
    7
 10
-7.8444598278365429
 20
-49.574422209960176
 11
-11.337770827834898
 21
-46.398335209960351
  0
LINE
  8
_0-0_0
  6
CONTINUOUS
 62
    7
 10
-11.337770827834898
 20
-46.398335209960351
 11
-17.126687827840207
 21
-42.81496120995871
  0
LINE
  8
_0-0_0
  6
CONTINUOUS
 62
    7
 10
-3.6524868278356721
 20
-47.049824209960192
 11
-7.1457978278340288
 21
-40.941914209961382
  0
LINE
  8
_0-0_0
  6
CONTINUOUS
 62
    7
 10
-7.1457978278340288
 20
-40.941914209961382
 11
-11.337770827834898
 21
-37.358540209959742
  0
LINE
  8
_0-0_0
  6
CONTINUOUS
 62
    7
 10
-11.337770827834898
 20
-37.358540209959742
 11
-15.829172827834547
 21
-34.508199209962186
  0
LINE
  8
_0-0_0
  6
CONTINUOUS
 62
    7
 10
-4.2513408278391571
 20
-38.335835209960337
 11
-7.8444598278365429
 21
-34.508199209962186
  0
LINE
  8
_0-0_0
  6
CONTINUOUS
 62
    7
 10
-7.8444598278365429
 20
-34.508199209962186
 11
-11.337770827834898
 21
-31.57637520995922
  0
LINE
  8
_0-0_0
  6
CONTINUOUS
 62
    7
 10
-11.337770827834898
 20
-31.57637520995922
 11
-17.825347827834769
 21
-28.726033209961312
  0
LINE
  8
_0-0_0
  6
CONTINUOUS
 62
    7
 10
-3.6524868278356721
 20
-30.354817209961755
 11
-5.5488568278378789
 21
-26.771504209958938
  0
LINE
  8
_0-0_0
  6
CONTINUOUS
 62
    7
 10
-5.5488568278378789
 20
-26.771504209958938
 11
-7.5450348278391157
 21
-25.142720209962132
  0
LINE
  8
_0-0_0
  6
CONTINUOUS
 62
    7
 10
-7.5450348278391157
 20
-25.142720209962132
 11
-10.73891882783937
 21
-22.618062209960041
  0
LINE
  8
_0-0_0
  6
CONTINUOUS
 62
    7
 10
-10.73891882783937
 20
-22.618062209960041
 11
-15.230317827838
 21
-22.292317209961769
  0
LINE
  8
_0-0_0
  6
CONTINUOUS
 62
    7
 10
-1.7561168278407413
 20
-26.445699209962175
 11
-4.2513408278391571
 21
-23.595357209960635
  0
LINE
  8
_0-0_0
  6
CONTINUOUS
 62
    7
 10
-4.2513408278391571
 20
-23.595357209960635
 11
-6.8463708278359254
 21
-20.663533209961312
  0
LINE
  8
_0-0_0
  6
CONTINUOUS
 62
    7
 10
-6.8463708278359254
 20
-20.663533209961312
 11
-10.43949182783399
 21
-19.034749209960861
  0
LINE
  8
_0-0_0
  6
CONTINUOUS
 62
    7
 10
-10.43949182783399
 20
-19.034749209960861
 11
-12.934713827838998
 21
-18.383260209961005
  0
LINE
  8
_0-0_0
  6
CONTINUOUS
 62
    7
 10
-12.934713827838998
 20
-18.383260209961005
 11
-11.337770827834898
 21
-16.51015220996123
  0
LINE
  8
_0-0_0
  6
CONTINUOUS
 62
    7
 10
-11.337770827834898
 20
-16.51015220996123
 11
-6.8463708278359254
 21
-14.55562320995886
  0
LINE
  8
_0-0_0
  6
CONTINUOUS
 62
    7
 10
-6.8463708278359254
 20
-14.55562320995886
 11
-5.5488568278378789
 21
-13.57832820996191
  0
LINE
  8
_0-0_0
  6
CONTINUOUS
 62
    7
 10
-5.5488568278378789
 20
-13.57832820996191
 11
-2.9538258278407721
 21
-12.926839209962047
  0
LINE
  8
_0-0_0
  6
CONTINUOUS
 62
    7
 10
-1.320211827835009
 20
-139.67329720995983
 11
-13.333948827836139
 21
-133.21242120995882
  0
LINE
  8
_0-0_0
  6
CONTINUOUS
 62
    7
 10
-1.320211827835009
 20
-135.50435220996224
 11
-13.633375827834239
 21
-126.12721620995941
  0
LINE
  8
_0-0_0
  6
CONTINUOUS
 62
    7
 10
-1.320211827835009
 20
-128.57631220995972
 11
-14.232229827837727
 21
-116.43599320996142
  0
LINE
  8
_0-0_0
  6
CONTINUOUS
 62
    7
 10
-1.320211827835009
 20
-113.82045320995891
 11
-5.848281827835307
 21
-107.80342520996052
  0
LINE
  8
_0-0_0
  6
CONTINUOUS
 62
    7
 10
-1.320211827835009
 20
-120.97560520996191
 11
-13.93280282783962
 21
-107.47768020996222
  0
LINE
  8
_0-0_0
  6
CONTINUOUS
 62
    7
 10
-1.320211827835009
 20
-109.05781920996012
 11
-7.1457978278340288
 21
-99.415180209962216
  0
LINE
  8
_0-0_0
  6
CONTINUOUS
 62
    7
 10
-1.320211827835009
 20
-100.99446520996202
 11
-2.6543988278353918
 21
-96.564838209960726
  0
LINE
  8
_0-0_0
  6
CONTINUOUS
 62
    7
 10
-1.320211827835009
 20
-94.432880209958924
 11
-2.9538258278407721
 21
-90.131123209961515
  0
LINE
  8
_0-0_0
  6
CONTINUOUS
 62
    7
 10
-1.320211827835009
 20
-86.963337209959718
 11
-2.6543988278353918
 21
-83.697468209960718
  0
LINE
  8
_0-0_0
  6
CONTINUOUS
 62
    7
 10
-1.320211827835009
 20
-61.473652209959255
 11
-2.0555438278388456
 21
-57.311177209961897
  0
LINE
  8
_0-0_0
  6
CONTINUOUS
 62
    7
 10
-1.320211827835009
 20
-50.816243209959794
 11
-3.6524868278356721
 21
-47.049824209960192
  0
LINE
  8
_0-0_0
  6
CONTINUOUS
 62
    7
 10
-1.320211827835009
 20
-37.925679209958602
 11
-2.6543988278353918
 21
-34.833943209960125
  0
LINE
  8
_0-0_0
  6
CONTINUOUS
 62
    7
 10
-1.320211827835009
 20
-42.534566209960744
 11
-4.2513408278391571
 21
-38.335835209960337
  0
LINE
  8
_0-0_0
  6
CONTINUOUS
 62
    7
 10
-1.320211827835009
 20
-27.540059209961331
 11
-1.7561168278407413
 21
-26.445699209962175
  0
ARC
  8
_0-0_0
  6
CONTINUOUS
 62
    7
 10
-15.05782882783387
 20
-30.50520820996098
 40
31.357395
 50
353.26549800002982
 51
33.20375900011544
  0
LINE
  8
_0-0_0
  6
CONTINUOUS
 62
    7
 10
11.17978817216499
 20
-13.33333320996098
 11
11.194871172163403
 21
-10.512166209959108
  0
ARC
  8
_0-0_0
  6
CONTINUOUS
 62
    7
 10
-50.293462827838077
 20
15.399026790040811
 40
66.724845000000002
 50
337.14944800010755
 51
1.0885710000285371
  0
ARC
  8
_0-0_0
  6
CONTINUOUS
 62
    7
 10
-1.320211827835009
 20
16.666665790038682
 40
6.104271999999999
 50
270.00000100009908
 51
0
  0
LINE
  8
_0-0_0
  6
CONTINUOUS
 62
    7
 10
5.642572172160726
 20
15.948037790039965
 11
16.143663172158991
 21
15.028848790039778
  0
LINE
  8
_0-0_0
  6
CONTINUOUS
 62
    7
 10
5.642572172160726
 20
14.634866790038362
 11
15.097577172164161
 21
10.235818790039051
  0
LINE
  8
_0-0_0
  6
CONTINUOUS
 62
    7
 10
4.7171871721657226
 20
12.566629790038863
 11
13.810086172161391
 21
6.3291417900400209
  0
LINE
  8
_0-0_0
  6
CONTINUOUS
 62
    7
 10
3.3089961721634609
 20
10.892373790040441
 11
12.120256172165682
 21
2.3240147900396622
  0
LINE
  8
_0-0_0
  6
CONTINUOUS
 62
    7
 10
1.8605701721608061
 20
10.235818790039051
 11
10.430425172162362
 21
-2.9942832099586596
  0
LINE
  8
_0-0_0
  6
CONTINUOUS
 62
    7
 10
0.693784172159213
 20
9.5792027900388383
 11
6.2863171721619437
 21
-7.1307582099616376
  0
LINE
  8
_0-0_0
  6
CONTINUOUS
 62
    7
 10
-0.5937068278362849
 20
9.3165687900400407
 11
0.4523791721658199
 21
-9.1989952099611401
  0
LINE
  8
_0-0_0
  6
CONTINUOUS
 62
    7
 10
-1.320211827835009
 20
-143.33333120996033
 11
-1.320211827835009
 21
-13.33333320996098
  0
LINE
  8
_0-0_0
  6
CONTINUOUS
 62
    7
 10
5.5034651721653072
 20
-106.17464020995972
 11
11.891233172165812
 21
-101.36970920996102
  0
LINE
  8
_0-0_0
  6
CONTINUOUS
 62
    7
 10
4.5053721721633337
 20
-99.415180209962216
 11
11.591806172160432
 21
-95.261799209958525
  0
LINE
  8
_0-0_0
  6
CONTINUOUS
 62
    7
 10
0.013975172165374
 20
-96.564838209960726
 11
2.9084331721605849
 21
-92.329975209959215
  0
LINE
  8
_0-0_0
  6
CONTINUOUS
 62
    7
 10
2.9084331721605849
 20
-92.329975209959215
 11
7.3998311721661603
 21
-88.828083209959019
  0
LINE
  8
_0-0_0
  6
CONTINUOUS
 62
    7
 10
7.3998311721661603
 20
-88.828083209959019
 11
12.589894172160712
 21
-85.000446209960515
  0
LINE
  8
_0-0_0
  6
CONTINUOUS
 62
    7
 10
0.3134021721634781
 20
-90.131123209961515
 11
2.6090061721624811
 21
-85.570515209961727
  0
LINE
  8
_0-0_0
  6
CONTINUOUS
 62
    7
 10
2.6090061721624811
 20
-85.570515209961727
 11
5.5034651721653072
 21
-81.417133209961321
  0
LINE
  8
_0-0_0
  6
CONTINUOUS
 62
    7
 10
5.5034651721653072
 20
-81.417133209961321
 11
10.294290172161713
 21
-76.286457209960645
  0
LINE
  8
_0-0_0
  6
CONTINUOUS
 62
    7
 10
10.294290172161713
 20
-76.286457209960645
 11
13.887410172159431
 21
-74.65767320996018
  0
LINE
  8
_0-0_0
  6
CONTINUOUS
 62
    7
 10
0.013975172165374
 20
-83.697468209960718
 11
2.6090061721624811
 21
-76.286457209960645
  0
LINE
  8
_0-0_0
  6
CONTINUOUS
 62
    7
 10
2.6090061721624811
 20
-76.286457209960645
 11
4.5053721721633337
 21
-72.133076209960564
  0
LINE
  8
_0-0_0
  6
CONTINUOUS
 62
    7
 10
4.5053721721633337
 20
-72.133076209960564
 11
6.8009811721640299
 21
-68.549763209961384
  0
LINE
  8
_0-0_0
  6
CONTINUOUS
 62
    7
 10
6.8009811721640299
 20
-68.549763209961384
 11
10.294290172161713
 21
-65.047871209961158
  0
LINE
  8
_0-0_0
  6
CONTINUOUS
 62
    7
 10
10.294290172161713
 20
-65.047871209961158
 11
12.889321172166092
 21
-62.767598209960852
  0
LINE
  8
_0-0_0
  6
CONTINUOUS
 62
    7
 10
-1.5829678278387282
 20
-71.155842209958791
 11
0.013975172165374
 21
-67.002400209959887
  0
LINE
  8
_0-0_0
  6
CONTINUOUS
 62
    7
 10
0.013975172165374
 20
-67.002400209959887
 11
2.3095791721643768
 21
-61.464558209961979
  0
LINE
  8
_0-0_0
  6
CONTINUOUS
 62
    7
 10
2.3095791721643768
 20
-61.464558209961979
 11
5.204038172159926
 21
-57.962666209961753
  0
LINE
  8
_0-0_0
  6
CONTINUOUS
 62
    7
 10
5.204038172159926
 20
-57.962666209961753
 11
7.7990661721632941
 21
-55.030842209958777
  0
LINE
  8
_0-0_0
  6
CONTINUOUS
 62
    7
 10
7.7990661721632941
 20
-55.030842209958777
 11
10.294290172161713
 21
-51.854756209959305
  0
LINE
  8
_0-0_0
  6
CONTINUOUS
 62
    7
 10
10.294290172161713
 20
-51.854756209959305
 11
13.188749172164531
 21
-49.900166209961753
  0
LINE
  8
_0-0_0
  6
CONTINUOUS
 62
    7
 10
-0.5848798278384482
 20
-57.311177209961897
 11
2.3095791721643768
 21
-53.157734209959017
  0
LINE
  8
_0-0_0
  6
CONTINUOUS
 62
    7
 10
2.3095791721643768
 20
-53.157734209959017
 11
5.204038172159926
 21
-49.574422209960176
  0
LINE
  8
_0-0_0
  6
CONTINUOUS
 62
    7
 10
5.204038172159926
 20
-49.574422209960176
 11
8.6973471721648821
 21
-46.398335209960351
  0
LINE
  8
_0-0_0
  6
CONTINUOUS
 62
    7
 10
8.6973471721648821
 20
-46.398335209960351
 11
14.486264172162922
 21
-42.81496120995871
  0
LINE
  8
_0-0_0
  6
CONTINUOUS
 62
    7
 10
1.0120631721656541
 20
-47.049824209960192
 11
4.5053721721633337
 21
-40.941914209961382
  0
LINE
  8
_0-0_0
  6
CONTINUOUS
 62
    7
 10
4.5053721721633337
 20
-40.941914209961382
 11
8.6973471721648821
 21
-37.358540209959742
  0
LINE
  8
_0-0_0
  6
CONTINUOUS
 62
    7
 10
8.6973471721648821
 20
-37.358540209959742
 11
13.188749172164531
 21
-34.508199209962186
  0
LINE
  8
_0-0_0
  6
CONTINUOUS
 62
    7
 10
1.6109171721618631
 20
-38.335835209960337
 11
5.204038172159926
 21
-34.508199209962186
  0
LINE
  8
_0-0_0
  6
CONTINUOUS
 62
    7
 10
5.204038172159926
 20
-34.508199209962186
 11
8.6973471721648821
 21
-31.57637520995922
  0
LINE
  8
_0-0_0
  6
CONTINUOUS
 62
    7
 10
8.6973471721648821
 20
-31.57637520995922
 11
15.184922172164079
 21
-28.726033209961312
  0
LINE
  8
_0-0_0
  6
CONTINUOUS
 62
    7
 10
0.013975172165374
 20
-34.833943209960125
 11
1.0120631721656541
 21
-30.354817209961755
  0
LINE
  8
_0-0_0
  6
CONTINUOUS
 62
    7
 10
1.0120631721656541
 20
-30.354817209961755
 11
2.9084331721605849
 21
-26.771504209958938
  0
LINE
  8
_0-0_0
  6
CONTINUOUS
 62
    7
 10
2.9084331721605849
 20
-26.771504209958938
 11
4.9046111721618217
 21
-25.142720209962132
  0
LINE
  8
_0-0_0
  6
CONTINUOUS
 62
    7
 10
4.9046111721618217
 20
-25.142720209962132
 11
8.0984971721627517
 21
-22.618062209960041
  0
LINE
  8
_0-0_0
  6
CONTINUOUS
 62
    7
 10
8.0984971721627517
 20
-22.618062209960041
 11
12.589894172160712
 21
-22.292317209961769
  0
LINE
  8
_0-0_0
  6
CONTINUOUS
 62
    7
 10
-0.8843068278365526
 20
-26.445699209962175
 11
1.6109171721618631
 21
-23.595357209960635
  0
LINE
  8
_0-0_0
  6
CONTINUOUS
 62
    7
 10
1.6109171721618631
 20
-23.595357209960635
 11
4.2059491721593076
 21
-20.663533209961312
  0
LINE
  8
_0-0_0
  6
CONTINUOUS
 62
    7
 10
4.2059491721593076
 20
-20.663533209961312
 11
7.7990661721632941
 21
-19.034749209960861
  0
LINE
  8
_0-0_0
  6
CONTINUOUS
 62
    7
 10
7.7990661721632941
 20
-19.034749209960861
 11
10.294290172161713
 21
-18.383260209961005
  0
LINE
  8
_0-0_0
  6
CONTINUOUS
 62
    7
 10
10.294290172161713
 20
-18.383260209961005
 11
8.6973471721648821
 21
-16.51015220996123
  0
LINE
  8
_0-0_0
  6
CONTINUOUS
 62
    7
 10
8.6973471721648821
 20
-16.51015220996123
 11
4.2059491721593076
 21
-14.55562320995886
  0
LINE
  8
_0-0_0
  6
CONTINUOUS
 62
    7
 10
4.2059491721593076
 20
-14.55562320995886
 11
2.9084331721605849
 21
-13.57832820996191
  0
LINE
  8
_0-0_0
  6
CONTINUOUS
 62
    7
 10
2.9084331721605849
 20
-13.57832820996191
 11
0.3134021721634781
 21
-12.926839209962047
  0
LINE
  8
_0-0_0
  6
CONTINUOUS
 62
    7
 10
-1.320211827835009
 20
-139.67329720995983
 11
10.693525172166122
 21
-133.21242120995882
  0
LINE
  8
_0-0_0
  6
CONTINUOUS
 62
    7
 10
-1.320211827835009
 20
-135.50435220996224
 11
10.99295217216422
 21
-126.12721620995941
  0
LINE
  8
_0-0_0
  6
CONTINUOUS
 62
    7
 10
-1.320211827835009
 20
-128.57631220995972
 11
11.591806172160432
 21
-116.43599320996142
  0
LINE
  8
_0-0_0
  6
CONTINUOUS
 62
    7
 10
-1.320211827835009
 20
-113.82045320995891
 11
3.2078601721659661
 21
-107.80342520996052
  0
LINE
  8
_0-0_0
  6
CONTINUOUS
 62
    7
 10
-1.320211827835009
 20
-120.97560520996191
 11
11.29237917216232
 21
-107.47768020996222
  0
LINE
  8
_0-0_0
  6
CONTINUOUS
 62
    7
 10
-1.320211827835009
 20
-109.05781920996012
 11
4.5053721721633337
 21
-99.415180209962216
  0
LINE
  8
_0-0_0
  6
CONTINUOUS
 62
    7
 10
-1.320211827835009
 20
-100.99446520996202
 11
0.013975172165374
 21
-96.564838209960726
  0
LINE
  8
_0-0_0
  6
CONTINUOUS
 62
    7
 10
-1.320211827835009
 20
-94.432880209958924
 11
0.3134021721634781
 21
-90.131123209961515
  0
LINE
  8
_0-0_0
  6
CONTINUOUS
 62
    7
 10
-1.320211827835009
 20
-86.963337209959718
 11
0.013975172165374
 21
-83.697468209960718
  0
LINE
  8
_0-0_0
  6
CONTINUOUS
 62
    7
 10
-1.320211827835009
 20
-61.473652209959255
 11
-0.5848798278384482
 21
-57.311177209961897
  0
LINE
  8
_0-0_0
  6
CONTINUOUS
 62
    7
 10
-1.320211827835009
 20
-50.816243209959794
 11
1.0120631721656541
 21
-47.049824209960192
  0
LINE
  8
_0-0_0
  6
CONTINUOUS
 62
    7
 10
-1.320211827835009
 20
-37.925679209958602
 11
0.013975172165374
 21
-34.833943209960125
  0
LINE
  8
_0-0_0
  6
CONTINUOUS
 62
    7
 10
-1.320211827835009
 20
-42.534566209960744
 11
1.6109171721618631
 21
-38.335835209960337
  0
LINE
  8
_0-0_0
  6
CONTINUOUS
 62
    7
 10
-1.320211827835009
 20
-27.540059209961331
 11
-0.8843068278365526
 21
-26.445699209962175
  0
LINE
  8
_0-0_0
  6
CONTINUOUS
 62
    7
 10
-1.320211827835009
 20
176.66666379003797
 11
11.385929639152891
 21
172.07792236141177
  0
LINE
  8
_0-0_0
  6
CONTINUOUS
 62
    7
 10
-1.320211827835009
 20
176.66666379003797
 11
-14.026353209352241
 21
172.07792239228357
  0
LINE
  8
_0-0_0
  6
CONTINUOUS
 62
    7
 10
-1.320211827835009
 20
-143.33333120996033
 11
11.385929639152891
 21
-138.74458978133401
  0
LINE
  8
_0-0_0
  6
CONTINUOUS
 62
    7
 10
-1.320211827835009
 20
-143.33333120996033
 11
-14.026353209352241
 21
-138.74458981220232
  0
LINE
  8
_0-0_0
  6
CONTINUOUS
 62
    7
 10
-14.026353209352241
 20
-138.74458981220232
 11
-18.723628827836361
 21
-34.18245420996027
  0
ENDBLK
  0
ENDSEC
  0
SECTION
  2
ENTITIES
  0
ARC
  8
_0-0_0
  6
CONTINUOUS
 62
    7
 10
118.87227366200321
 20
270.36823022463955
 40
2.1439005348070852
 50
326.88033729168984
 51
119.58225807942932
  0
ARC
  8
_0-0_0
  6
CONTINUOUS
 62
    7
 10
137.6497023089062
 20
255.58164447411434
 40
21.76594165891234
 50
141.27913180641809
 51
157.12732613219907
  0
ARC
  8
_0-0_0
  6
CONTINUOUS
 62
    7
 10
123.10297262177029
 20
261.54117917195379
 40
6.0488298792050852
 50
155.58177131355384
 51
293.56391420831653
  0
ARC
  8
_0-0_0
  6
CONTINUOUS
 62
    7
 10
119.53414127640625
 20
270.16800023664825
 40
15.384043225463319
 50
292.90276288576439
 51
20.802848020915633
  0
ARC
  8
_0-0_0
  6
CONTINUOUS
 62
    7
 10
124.05841191434936
 20
269.39579852904831
 40
19.477695133255871
 50
266.25231425693198
 51
30.569199848156131
  0
ARC
  8
_0-0_0
  6
CONTINUOUS
 62
    7
 10
116.96146979084122
 20
266.36846648255141
 40
19.319386760957141
 50
28.651343791545806
 51
95.0902174436264
  0
ARC
  8
_0-0_0
  6
CONTINUOUS
 62
    7
 10
115.40502592050532
 20
264.65572994466891
 40
29.340833910860649
 50
29.944977039234921
 51
94.3539003316247
  0
ARC
  8
_0-0_0
  6
CONTINUOUS
 62
    7
 10
120.2837501706622
 20
255.94105727084877
 40
30.09501436835734
 50
99.633734621411193
 51
151.42332789745191
  0
ARC
  8
_0-0_0
  6
CONTINUOUS
 62
    7
 10
116.97684906415317
 20
259.23001787664555
 40
34.889351900517539
 50
96.251635810307206
 51
143.11650492262279
  0
ARC
  8
_0-0_0
  6
CONTINUOUS
 62
    7
 10
127.9547415092093
 20
255.82456445688035
 40
37.059294303166247
 50
156.94665954109092
 51
205.26187400193197
  0
ARC
  8
_0-0_0
  6
CONTINUOUS
 62
    7
 10
123.38494155984019
 20
257.16249457630374
 40
41.314029744152769
 50
146.1583603188873
 51
209.16553397032462
  0
LINE
  8
_0-0_0
  6
CONTINUOUS
 62
    7
 10
94.439548936000179
 20
240.00928194187478
 11
135.98250160660632
 21
154.98656897820683
  0
ARC
  8
_0-0_0
  6
CONTINUOUS
 62
    7
 10
126.09225211636227
 20
139.60134605927499
 40
18.289945851327179
 50
354.18514799392301
 51
57.265435028291506
  0
ARC
  8
_0-0_0
  6
CONTINUOUS
 62
    7
 10
129.40190151547336
 20
105.16641695085288
 40
27.41609796114107
 50
345.86123939839661
 51
39.34271461715997
  0
ARC
  8
_0-0_0
  6
CONTINUOUS
 62
    7
 10
139.46699981661732
 20
134.00506993314832
 40
6.1036680143285116
 50
346.37967785450491
 51
37.826901672431234
  0
ARC
  8
_0-0_0
  6
CONTINUOUS
 62
    7
 10
141.0707008377683
 20
127.47946693420523
 40
6.6801806065263101
 50
5.5634892565158971
 51
49.613977556515287
  0
ARC
  8
_0-0_0
  6
CONTINUOUS
 62
    7
 10
145.22588203453029
 20
123.30186151376542
 40
5.4314494061935381
 50
352.01183304835547
 51
62.671508315736844
  0
ARC
  8
_0-0_0
  6
CONTINUOUS
 62
    7
 10
48.636118270655288
 20
87.433150235904378
 40
107.9171702882434
 50
333.8239386275863
 51
5.8696983441643624
  0
ARC
  8
_0-0_0
  6
CONTINUOUS
 62
    7
 10
62.917061257279329
 20
88.600078916026206
 40
95.897463473711085
 50
269.76332771825412
 51
329.43001653111872
  0
ARC
  8
_0-0_0
  6
CONTINUOUS
 62
    7
 10
66.967925533723246
 20
89.420710328822594
 40
84.833912325685873
 50
266.9951819975476
 51
328.27977056324278
  0
LINE
  8
_0-0_0
  6
CONTINUOUS
 62
    7
 10
-50.217703542354684
 20
-7.2965664206779479
 11
62.520937718281175
 21
-7.2965664206780048
  0
LINE
  8
_0-0_0
  6
CONTINUOUS
 62
    7
 10
-50.217703542354684
 20
4.7034335793221658
 11
62.520937718281175
 21
4.7034335793221089
  0
ARC
  8
_0-0_0
  6
CONTINUOUS
 62
    7
 10
147.96464132285519
 20
151.89521082978513
 40
18.648823425943519
 50
178.60293183336699
 51
237.57845618094697
  0
ARC
  8
_0-0_0
  6
CONTINUOUS
 62
    7
 10
142.56916277151322
 20
135.53800828196449
 40
4.6439152418665399
 50
172.38691661078107
 51
249.33917154963041
  0
ARC
  8
_0-0_0
  6
CONTINUOUS
 62
    7
 10
148.27298262720433
 20
131.16432939621882
 40
7.3424117894234646
 50
179.7781108846799
 51
228.83453968348761
  0
ARC
  8
_0-0_0
  6
CONTINUOUS
 62
    7
 10
149.6554171446603
 20
124.89848657674567
 40
6.2591785354148008
 50
173.22510531681965
 51
222.96198111860238
  0
ARC
  8
_0-0_0
  6
CONTINUOUS
 62
    7
 10
180.95028358771833
 20
114.89275584415442
 40
36.331667971136142
 50
170.90978491270471
 51
208.00388346889198
  0
LINE
  8
_0-0_0
  6
CONTINUOUS
 62
    7
 10
87.308894997597264
 20
237.0287438542056
 11
129.3213614709573
 21
152.34988822732055
  0
ARC
  8
_0-0_0
  6
CONTINUOUS
 62
    7
 10
47.670288177328302
 20
89.028059028612603
 40
101.5845785675665
 50
334.20132944076431
 51
4.9729137473710239
  0
LINE
  8
_0-0_0
  6
CONTINUOUS
 62
    7
 10
117.81388871188031
 20
272.23266869251654
 11
112.59963071524227
 21
263.82500352359409
  0
ARC
  8
_0-0_0
  6
CONTINUOUS
 62
    7
 10
123.08499739342416
 20
260.85383357020714
 40
10.89820009303531
 50
164.17920733633568
 51
268.4241561431474
  0
LINE
  8
_0-0_0
  6
CONTINUOUS
 62
    7
 10
-50.217703542354684
 20
-7.2965664206779479
 11
-50.217703542354684
 21
4.7034335793221658
  0
LINE
  8
_0-0_0
  6
CONTINUOUS
 62
    7
 10
278.79321013588924
 20
42.548409452202449
 11
278.79321013588924
 21
-7.2973845576849499
  0
LINE
  8
_0-0_0
  6
CONTINUOUS
 62
    7
 10
266.79321013588924
 20
42.548409452206428
 11
266.79321013588924
 21
-7.2973845576849499
  0
LINE
  8
_0-0_0
  6
CONTINUOUS
 62
    7
 10
278.79321013588924
 20
-7.2973845576849499
 11
266.79321013588924
 21
-7.2973845576849499
  0
LINE
  8
_0-0_0
  6
CONTINUOUS
 62
    7
 10
266.79321013589515
 20
293.91189081332766
 11
278.79321013589515
 21
293.91189081332766
  0
LINE
  8
_0-0_0
  6
CONTINUOUS
 62
    7
 10
266.79321013589515
 20
218.59799790308625
 11
266.79321013589515
 21
249.9597551973643
  0
LINE
  8
_0-0_0
  6
CONTINUOUS
 62
    7
 10
278.79321013589515
 20
218.59799790308682
 11
278.79321013589515
 21
249.9597551973643
  0
ARC
  8
_0-0_0
  6
CONTINUOUS
 62
    7
 10
245.31003157124817
 20
265.52382485570899
 40
39.745104742123971
 50
341.9850174392937
 51
7.4580570581561005
  0
ARC
  8
_0-0_0
  6
CONTINUOUS
 62
    7
 10
278.56403028285422
 20
254.74094670701425
 40
4.7866810690695241
 50
272.7442940480571
 51
341.62513381316421
  0
LINE
  8
_0-0_0
  6
CONTINUOUS
 62
    7
 10
278.79321013589515
 20
249.95975519736442
 11
266.79321013589515
 21
249.9597551973643
  0
ARC
  8
_0-0_0
  6
CONTINUOUS
 62
    7
 10
172.49013347215126
 20
254.42388855126796
 40
113.4003810876593
 50
8.2432343867004239
 51
20.378330875162206
  0
ARC
  8
_0-0_0
  6
CONTINUOUS
 62
    7
 10
300.27638870054329
 20
265.52382485570899
 40
39.745104742123971
 50
172.54194294184427
 51
198.01498256070977
  0
ARC
  8
_0-0_0
  6
CONTINUOUS
 62
    7
 10
267.02238998893631
 20
254.74094670701425
 40
4.7866810690695241
 50
198.37486618683207
 51
267.25570595194284
  0
ARC
  8
_0-0_0
  6
CONTINUOUS
 62
    7
 10
373.09628679964021
 20
254.42388855126796
 40
113.4003810876593
 50
159.62166912483571
 51
171.7567656132988
  0
INSERT
  2
-001-64_F1
  8
_0-0_0
 10
272.21143427343804
 20
140.38796997300108
 41
0.5636978569999655
 42
0.5636978570000224
 50
180
  0
LINE
  8
_0-0_0
  6
CONTINUOUS
 62
    7
 10
265.79321013589515
 20
218.59799790308625
 11
263.14536504412263
 21
159.656544670062
  0
LINE
  8
_0-0_0
  6
CONTINUOUS
 62
    7
 10
282.76590447813766
 20
102.32946560200872
 11
280.11805951907445
 21
43.388013883454647
  0
LINE
  8
_0-0_0
  6
CONTINUOUS
 62
    7
 10
263.14536522501163
 20
102.32946560200872
 11
265.79321013589515
 21
43.388013900857018
  0
ENDSEC
  0
EOF
