  0
SECTION
  2
HEADER
  9
$ACADVER
  1
AC1009
  9
$INSBASE
 10
0
 20
0
 30
0
  9
$EXTMIN
 10
0
 20
0
  9
$EXTMAX
 10
420
 20
297
  9
$LIMMIN
 10
0
 20
0
  9
$LIMMAX
 10
420
 20
297
  9
$LTSCALE
 40
1
  0
ENDSEC
  0
SECTION
  2
TABLES
  0
TABLE
  2
LTYPE
 70
     9
  0
LTYPE
  2
CONTINUOUS
 70
    64
  3
実線
 72
    65
 73
     0
 40
0.0
  0
LTYPE
  2
DASHED1
 70
    64
  3
--  --  --  --  --  --  --  --  
 72
    65
 73
     2
 40
2.5
 49
1.25
 49
-1.25
  0
LTYPE
  2
DASHED2
 70
    64
  3
----    ----    ----    ----    
 72
    65
 73
     2
 40
5.0
 49
2.5
 49
-2.5
  0
LTYPE
  2
DASHED3
 70
    64
  3
------  ------  ------  ------  
 72
    65
 73
     2
 40
5.0
 49
3.75
 49
-1.25
  0
LTYPE
  2
CENTER1
 70
    64
  3
----- - ----- - ----- - ----- - 
 72
    65
 73
     4
 40
10.0
 49
6.25
 49
-1.25
 49
1.25
 49
-1.25
  0
LTYPE
  2
CENTER2
 70
    64
  3
----------  --  ----------  --  
 72
    65
 73
     4
 40
20.0
 49
12.5
 49
-2.5
 49
2.5
 49
-2.5
  0
LTYPE
  2
PHANTOM1
 70
    64
  3
--- - - --- - - --- - - --- - - 
 72
    65
 73
     6
 40
10.0
 49
3.25
 49
-1.25
 49
1.25
 49
-1.25
 49
1.25
 49
-1.25
  0
LTYPE
  2
PHANTOM2
 70
    64
  3
--------  -  -  --------  -  -  
 72
    65
 73
     6
 40
20.0
 49
10.0
 49
-2.5
 49
1.25
 49
-2.5
 49
1.25
 49
-2.5
  0
LTYPE
  2
DOT
 70
    64
  3
-   -   -   -   -   -   -   -   
 72
    65
 73
     2
 40
2.5
 49
0.625
 49
-1.875
  0
LTYPE
  2
DUMMY
 70
    64
  3
ダミー
 72
    65
 73
     0
 40
0.0
  0
LTYPE
  2
RAND1
 70
    64
  3
ランダム線1
 72
    65
 73
     4
 40
10.0
 49
1.0
 49
-2.0
 49
3.0
 49
-4.0
  0
LTYPE
  2
RAND2
 70
    64
  3
ランダム線2
 72
    65
 73
     4
 40
14.0
 49
2.0
 49
-3.0
 49
4.0
 49
-5.0
  0
LTYPE
  2
RAND3
 70
    64
  3
ランダム線3
 72
    65
 73
     4
 40
18.0
 49
3.0
 49
-4.0
 49
5.0
 49
-6.0
  0
LTYPE
  2
RAND4
 70
    64
  3
ランダム線4
 72
    65
 73
     4
 40
22.0
 49
4.0
 49
-5.0
 49
6.0
 49
-7.0
  0
LTYPE
  2
RAND5
 70
    64
  3
ランダム線5
 72
    65
 73
     4
 40
26.0
 49
5.0
 49
-6.0
 49
7.0
 49
-8.0
  0
LTYPE
  2
LONG1
 70
    64
  3
----------  --  ----------  --  
 72
    65
 73
     4
 40
40.0
 49
32.5
 49
-2.5
 49
2.5
 49
-2.5
  0
LTYPE
  2
LONG2
 70
    64
  3
--------  -  -  --------  -  -  
 72
    65
 73
     6
 40
40.0
 49
30.0
 49
-2.5
 49
1.25
 49
-2.5
 49
1.25
 49
-2.5
  0
LTYPE
  2
LONG3
 70
    64
  3
+++++++++++++++..+++++++++++++++
 72
    65
 73
     2
 40
40.0
 49
37.5
 49
-2.5
  0
LTYPE
  2
LONG4
 70
    64
  3
+++++++++++++++..+++++++++++++++
 72
    65
 73
     2
 40
80.0
 49
75.0
 49
-5.0
  0
LTYPE
  2
LONG5
 70
    64
  3
----------  --  ----------  --  
 72
    65
 73
     4
 40
60.0
 49
37.5
 49
-7.5
 49
7.5
 49
-7.5
  0
LTYPE
  2
dashed
 70
   64
  3
-------   -------------   ------
 72
   65
 73
    2
 40
7.5
 49
6
 49
-1.5
  0
LTYPE
  2
dashed_spaced
 70
   64
  3
----        --------        ----
 72
   65
 73
    2
 40
12
 49
6
 49
-6
  0
LTYPE
  2
long_dashed_dotted
 70
   64
  3
------------- --- --------------
 72
   65
 73
    4
 40
15.25
 49
12
 49
-1.5
 49
0.25
 49
-1.5
  0
LTYPE
  2
long_dashed_double-dotted
 70
   64
  3
----------- --- --- ------------
 72
   65
 73
    6
 40
17
 49
12
 49
-1.5
 49
0.25
 49
-1.5
 49
0.25
 49
-1.5
  0
LTYPE
  2
long_dashed_triplicate-dotted
 70
   64
  3
--------- --- --- --- ----------
 72
   65
 73
    8
 40
18.75
 49
12
 49
-1.5
 49
0.25
 49
-1.5
 49
0.25
 49
-1.5
 49
0.25
 49
-1.5
  0
LTYPE
  2
dotted
 70
   64
  3
   -       -       -       -    
 72
   65
 73
    2
 40
1.75
 49
0.25
 49
-1.5
  0
LTYPE
  2
chain
 70
   64
  3
-------------- -- --------------
 72
   65
 73
    4
 40
18.5
 49
12
 49
-1.5
 49
3.5
 49
-1.5
  0
LTYPE
  2
chain_double_dash
 70
   64
  3
------------ -- -- -------------
 72
   65
 73
    6
 40
23.5
 49
12
 49
-1.5
 49
3.5
 49
-1.5
 49
3.5
 49
-1.5
  0
LTYPE
  2
dashed_dotted
 70
   64
  3
-----------     -     ----------
 72
   65
 73
    4
 40
9.25
 49
6
 49
-1.5
 49
0.25
 49
-1.5
  0
LTYPE
  2
double-dashed_dotted
 70
   64
  3
------   -----------   -   -----
 72
   65
 73
    6
 40
16.75
 49
6
 49
-1.5
 49
6
 49
-1.5
 49
0.25
 49
-1.5
  0
LTYPE
  2
dashed_double-dotted
 70
   64
  3
---------    -    -    ---------
 72
   65
 73
    6
 40
11
 49
6
 49
-1.5
 49
0.25
 49
-1.5
 49
0.25
 49
-1.5
  0
LTYPE
  2
double-dashed_double-dotted
 70
   64
  3
-----   ---------   -   -   ----
 72
   65
 73
    8
 40
18.5
 49
6
 49
-1.5
 49
6
 49
-1.5
 49
0.25
 49
-1.5
 49
0.25
 49
-1.5
  0
LTYPE
  2
dashed_triplicate-dotted
 70
   64
  3
-------    -    -    -    ------
 72
   65
 73
    8
 40
12.75
 49
6
 49
-1.5
 49
0.25
 49
-1.5
 49
0.25
 49
-1.5
 49
0.25
 49
-1.5
  0
LTYPE
  2
double-dashed_triplicate-dotted
 70
   64
  3
-----  ---------  -  -  -  -----
 72
   65
 73
   10
 40
20.25
 49
6
 49
-1.5
 49
6
 49
-1.5
 49
0.25
 49
-1.5
 49
0.25
 49
-1.5
 49
0.25
 49
-1.5
  0
LTYPE
  2
undefined
 70
   64
  3
--------------------------------
 72
   65
 73
    0
 40
0
  0
LTYPE
  2
BORDER
 70
   64
  3
----     --------     -     ----
 72
   65
 73
    6
 40
1.76
 49
0.5
 49
-0.25
 49
0.5
 49
-0.25
 49
0.01
 49
-0.25
  0
LTYPE
  2
BORDER2
 70
   64
  3
----     --------     -     ----
 72
   65
 73
    6
 40
0.885
 49
0.25
 49
-0.125
 49
0.25
 49
-0.125
 49
0.01
 49
-0.125
  0
LTYPE
  2
BORDERX2
 70
   64
  3
----     --------     -     ----
 72
   65
 73
    6
 40
3.5099999999999998
 49
1
 49
-0.5
 49
1
 49
-0.5
 49
0.01
 49
-0.5
  0
LTYPE
  2
CENTER
 70
   64
  3
----------    ----    ----------
 72
   65
 73
    4
 40
2
 49
1.25
 49
-0.25
 49
0.25
 49
-0.25
  0
LTYPE
  2
CENTER2_21
 70
   64
  3
----------    ----    ----------
 72
   65
 73
    4
 40
1.125
 49
0.75
 49
-0.125
 49
0.125
 49
-0.125
  0
LTYPE
  2
CENTERX2
 70
   64
  3
----------    ----    ----------
 72
   65
 73
    4
 40
4
 49
2.5
 49
-0.5
 49
0.5
 49
-0.5
  0
LTYPE
  2
DASHDOT
 70
   64
  3
--------        -        -------
 72
   65
 73
    4
 40
1.01
 49
0.5
 49
-0.25
 49
0.01
 49
-0.25
  0
LTYPE
  2
DASHDOT2
 70
   64
  3
--------        -        -------
 72
   65
 73
    4
 40
0.51
 49
0.25
 49
-0.125
 49
0.01
 49
-0.125
  0
LTYPE
  2
DASHDOTX2
 70
   64
  3
--------        -        -------
 72
   65
 73
    4
 40
2.0099999999999998
 49
1
 49
-0.5
 49
0.01
 49
-0.5
  0
LTYPE
  2
DASHED
 70
   64
  3
------     -----------     -----
 72
   65
 73
    2
 40
0.75
 49
0.5
 49
-0.25
  0
LTYPE
  2
DASHED2_27
 70
   64
  3
------     -----------     -----
 72
   65
 73
    2
 40
0.375
 49
0.25
 49
-0.125
  0
LTYPE
  2
DASHEDX2
 70
   64
  3
------     -----------     -----
 72
   65
 73
    2
 40
1.5
 49
1
 49
-0.5
  0
LTYPE
  2
DIVIDE
 70
   64
  3
------      -      -      ------
 72
   65
 73
    6
 40
1.27
 49
0.5
 49
-0.25
 49
0.01
 49
-0.25
 49
0.01
 49
-0.25
  0
LTYPE
  2
DIVIDE2
 70
   64
  3
------      -      -      ------
 72
   65
 73
    6
 40
0.645
 49
0.25
 49
-0.125
 49
0.01
 49
-0.125
 49
0.01
 49
-0.125
  0
LTYPE
  2
DIVIDEX2
 70
   64
  3
------      -      -      ------
 72
   65
 73
    6
 40
2.5199999999999996
 49
1
 49
-0.5
 49
0.01
 49
-0.5
 49
0.01
 49
-0.5
  0
LTYPE
  2
DOT_32
 70
   64
  3
-               -               
 72
   65
 73
    2
 40
0.26
 49
0.01
 49
-0.25
  0
ENDTAB
  0
TABLE
  2
STYLE
  5
3
100
AcDbSymbolTable
 70
     1
  0
STYLE
  5
10
100
AcDbSymbolTableRecord
100
AcDbTextStyleTableRecord
  2
STANDARD
 70
     0
 40
0.0
 41
1.0
 50
0.0
 71
     0
 42
0.2
  3
txt
  4
bigfont.shx
  0
STYLE
  5
26
100
AcDbSymbolTableRecord
100
AcDbTextStyleTableRecord
  2
TATEGAKI
 70
    68
 40
0.0
 41
1.0
 50
0.0
 71
     0
 42
1.0
  3
txt
  4
bigfont.shx
  0
ENDTAB
  0
TABLE
  2
LAYER
 70
    2
  0
LAYER
  2
_0-0_0
 70
   64
 62
    7
  6
CONTINUOUS
  0
LAYER
  2
ADD_LINE
 70
   64
 62
    7
  6
CONTINUOUS
  0
ENDTAB
  0
ENDSEC
  0
SECTION
  2
BLOCKS
  0
ENDSEC
  0
SECTION
  2
ENTITIES
  0
ARC
  8
_0-0_0
  6
CONTINUOUS
 62
    7
 10
208.46411875302994
 20
138.25705531477945
 40
6.4012626702084141
 50
108.8393223617332
 51
194.01087482877259
  0
ARC
  8
_0-0_0
  6
CONTINUOUS
 62
    7
 10
209.74885600662375
 20
133.03100626687052
 40
11.77165534124634
 50
53.70540682351546
 51
106.54301239032699
  0
ARC
  8
_0-0_0
  6
CONTINUOUS
 62
    7
 10
205.54076964201386
 20
128.711394062191
 40
17.763739084133221
 50
353.03885863025857
 51
51.012105826739145
  0
ARC
  8
_0-0_0
  6
CONTINUOUS
 62
    7
 10
203.56060088304454
 20
129.5311035756126
 40
19.836953854623481
 50
295.3355254585249
 51
351.381652311094
  0
ARC
  8
_0-0_0
  6
CONTINUOUS
 62
    7
 10
200.18120328147515
 20
140.75287972537663
 40
31.47405442767343
 50
234.65030983026526
 51
292.15245161732099
  0
ARC
  8
_0-0_0
  6
CONTINUOUS
 62
    7
 10
209.40040633916266
 20
149.17455191136148
 40
43.757122301349277
 50
177.69372140215023
 51
231.18216079377734
  0
ARC
  8
_0-0_0
  6
CONTINUOUS
 62
    7
 10
207.63435880800614
 20
150.78550950391562
 40
41.955898853752053
 50
126.42998165332153
 51
179.79531334023864
  0
ARC
  8
_0-0_0
  6
CONTINUOUS
 62
    7
 10
210.01164421480235
 20
149.64991280586483
 40
44.298620456946637
 50
65.93748689918155
 51
128.03188499459864
  0
ARC
  8
_0-0_0
  6
CONTINUOUS
 62
    7
 10
206.51844356606125
 20
147.61545896188872
 40
47.639074860985453
 50
5.513762514140736
 51
63.09778151242093
  0
ARC
  8
_0-0_0
  6
CONTINUOUS
 62
    7
 10
209.27621645056325
 20
146.73755252011213
 40
44.992830135637959
 50
279.47551014376052
 51
6.9641450895160526
  0
LINE
  8
_0-0_0
  6
CONTINUOUS
 62
    7
 10
202.25329498100194
 20
136.70727086337465
 11
204.48208575568003
 21
125.49377797233247
  0
ARC
  8
_0-0_0
  6
CONTINUOUS
 62
    7
 10
201.93160574592764
 20
125.04644398183038
 40
2.5894122845165262
 50
209.21425893312681
 51
9.9480409765323721
  0
ARC
  8
_0-0_0
  6
CONTINUOUS
 62
    7
 10
209.78036060489245
 20
165.07425647445206
 40
68.028068706065625
 50
244.15619409486129
 51
280.38091603953779
  0
LINE
  8
_0-0_0
  6
CONTINUOUS
 62
    7
 10
199.67156504966795
 20
123.78261170242952
 11
196.28102809842073
 21
134.91067465340342
  0
ARC
  8
_0-0_0
  6
CONTINUOUS
 62
    7
 10
208.97426000397604
 20
137.81821383433495
 40
13.02197835572071
 50
108.3666229178841
 51
192.90171979447859
  0
ARC
  8
_0-0_0
  6
CONTINUOUS
 62
    7
 10
209.78236655952995
 20
132.59026007697571
 40
18.259485517189209
 50
42.54027498994148
 51
105.6030794010067
  0
ARC
  8
_0-0_0
  6
CONTINUOUS
 62
    7
 10
202.30914221166125
 20
128.05794802564654
 40
26.884755091564639
 50
354.22484970489609
 51
38.88649721280261
  0
ARC
  8
_0-0_0
  6
CONTINUOUS
 62
    7
 10
207.61128084653205
 20
150.79908854469682
 40
47.929181768525801
 50
126.61793246220292
 51
179.5484184945449
  0
ARC
  8
_0-0_0
  6
CONTINUOUS
 62
    7
 10
210.01164421480235
 20
149.64991280586483
 40
50.298620456946637
 50
65.93748689918155
 51
128.03188499459864
  0
ARC
  8
_0-0_0
  6
CONTINUOUS
 62
    7
 10
209.40040633916266
 20
149.17455191136148
 40
49.75712230134927
 50
177.69372140215023
 51
231.18216079377734
  0
ARC
  8
_0-0_0
  6
CONTINUOUS
 62
    7
 10
206.55094137625824
 20
147.63290514493832
 40
53.602390011731693
 50
5.6993652043413867
 51
63.438056695882246
  0
ARC
  8
_0-0_0
  6
CONTINUOUS
 62
    7
 10
211.11519565004136
 20
146.17516723420641
 40
49.242280549736172
 50
282.81633951432832
 51
7.9150834279151994
  0
ARC
  8
_0-0_0
  6
CONTINUOUS
 62
    7
 10
200.17505588948475
 20
140.68704533409291
 40
37.407908822625473
 50
234.04370823438012
 51
292.7094861724853
  0
ARC
  8
_0-0_0
  6
CONTINUOUS
 62
    7
 10
203.56060088304454
 20
129.5311035756126
 40
25.836953854623449
 50
295.33552545852478
 51
350.69308292918993
  0
ARC
  8
_0-0_0
  6
CONTINUOUS
 62
    7
 10
181.38406252513033
 20
105.56369941360282
 40
2.126167479086539
 50
57.403709630694557
 51
233.70895981609161
  0
ARC
  8
_0-0_0
  6
CONTINUOUS
 62
    7
 10
208.58746428532584
 20
166.24923449490308
 40
64.401506018349679
 50
246.13281626680191
 51
277.22160639550867
  0
LINE
  8
_0-0_0
  6
CONTINUOUS
 62
    7
 10
201.00778346184924
 20
123.13813700172416
 11
200.67836555729025
 21
125.30644166268047
  0
LINE
  8
_0-0_0
  6
CONTINUOUS
 62
    7
 10
200.67836555729025
 20
125.30644166268047
 11
200.30498373732334
 21
127.2249132342161
  0
LINE
  8
_0-0_0
  6
CONTINUOUS
 62
    7
 10
200.30498373732334
 20
127.2249132342161
 11
199.96579974233745
 21
128.50587953949332
  0
LINE
  8
_0-0_0
  6
CONTINUOUS
 62
    7
 10
199.96579974233745
 20
128.50587953949332
 11
199.87809009415355
 21
129.86917961474887
  0
LINE
  8
_0-0_0
  6
CONTINUOUS
 62
    7
 10
199.87809009415355
 20
129.86917961474887
 11
199.08901708414365
 21
131.52459437206474
  0
LINE
  8
_0-0_0
  6
CONTINUOUS
 62
    7
 10
199.08901708414365
 20
131.52459437206474
 11
197.70047637503714
 21
133.45700782106189
  0
LINE
  8
_0-0_0
  6
CONTINUOUS
 62
    7
 10
202.20563014527883
 20
129.79486213939714
 11
202.60613977112124
 21
128.78178547295158
  0
LINE
  8
_0-0_0
  6
CONTINUOUS
 62
    7
 10
202.60613977112124
 20
128.78178547295158
 11
202.84718614933095
 21
127.64738072763224
  0
LINE
  8
_0-0_0
  6
CONTINUOUS
 62
    7
 10
201.99184454449966
 20
127.72552125320658
 11
202.32164693695876
 21
126.60961409707093
  0
LINE
  8
_0-0_0
  6
CONTINUOUS
 62
    7
 10
202.32164693695876
 20
126.60961409707093
 11
202.64687803958395
 21
123.12427853217697
  0
LINE
  8
_0-0_0
  6
CONTINUOUS
 62
    7
 10
201.82211919386214
 20
133.14340364586423
 11
202.22262881970445
 21
132.13032697941844
  0
LINE
  8
_0-0_0
  6
CONTINUOUS
 62
    7
 10
202.22262881970445
 20
132.13032697941844
 11
202.46367519791426
 21
130.99592223409928
  0
LINE
  8
_0-0_0
  6
CONTINUOUS
 62
    7
 10
199.89376078514195
 20
132.7143048250615
 11
200.36830337929143
 21
131.73372253946434
  0
LINE
  8
_0-0_0
  6
CONTINUOUS
 62
    7
 10
200.36830337929143
 20
131.73372253946434
 11
200.69282034249176
 21
130.62031954717173
  0
LINE
  8
_0-0_0
  6
CONTINUOUS
 62
    7
 10
196.38807139728223
 20
139.76869792696749
 11
197.64758663905835
 21
138.07473231379021
  0
LINE
  8
_0-0_0
  6
CONTINUOUS
 62
    7
 10
197.64758663905835
 20
138.07473231379021
 11
198.20798348956185
 21
137.27346116632384
  0
LINE
  8
_0-0_0
  6
CONTINUOUS
 62
    7
 10
198.20798348956185
 20
137.27346116632384
 11
198.84692025881864
 21
135.8198033353645
  0
LINE
  8
_0-0_0
  6
CONTINUOUS
 62
    7
 10
198.84692025881864
 20
135.8198033353645
 11
199.23645664967705
 21
135.15657625279025
  0
LINE
  8
_0-0_0
  6
CONTINUOUS
 62
    7
 10
199.23645664967705
 20
135.15657625279025
 11
199.58011741621965
 21
134.47103931193737
  0
LINE
  8
_0-0_0
  6
CONTINUOUS
 62
    7
 10
199.58011741621965
 20
134.47103931193737
 11
199.91684750218843
 21
133.46976327479587
  0
LINE
  8
_0-0_0
  6
CONTINUOUS
 62
    7
 10
198.15726977559714
 20
140.70578548971395
 11
199.23441770158385
 21
139.08390320613915
  0
LINE
  8
_0-0_0
  6
CONTINUOUS
 62
    7
 10
199.23441770158385
 20
139.08390320613915
 11
199.97718186787665
 21
137.24451518689375
  0
LINE
  8
_0-0_0
  6
CONTINUOUS
 62
    7
 10
199.97718186787665
 20
137.24451518689375
 11
200.61611863713355
 21
136.59212850340077
  0
LINE
  8
_0-0_0
  6
CONTINUOUS
 62
    7
 10
200.61611863713355
 20
136.59212850340077
 11
201.00565502799185
 21
135.92890142082652
  0
LINE
  8
_0-0_0
  6
CONTINUOUS
 62
    7
 10
201.00565502799185
 20
135.92890142082652
 11
201.34931579453453
 21
135.24336447997362
  0
LINE
  8
_0-0_0
  6
CONTINUOUS
 62
    7
 10
201.34931579453453
 20
135.24336447997362
 11
201.68604588050334
 21
134.24208844283214
  0
LINE
  8
_0-0_0
  6
CONTINUOUS
 62
    7
 10
181.64657352872123
 20
106.81857497159143
 11
183.63985539010923
 21
105.90375877167443
  0
LINE
  8
_0-0_0
  6
CONTINUOUS
 62
    7
 10
183.63985539010923
 20
105.90375877167443
 11
185.44843570675764
 21
105.16282396178602
  0
LINE
  8
_0-0_0
  6
CONTINUOUS
 62
    7
 10
185.44843570675764
 20
105.16282396178602
 11
186.70536024814885
 21
104.74322754264183
  0
LINE
  8
_0-0_0
  6
CONTINUOUS
 62
    7
 10
186.70536024814885
 20
104.74322754264183
 11
187.89307358180645
 21
104.06823338368321
  0
LINE
  8
_0-0_0
  6
CONTINUOUS
 62
    7
 10
187.89307358180645
 20
104.06823338368321
 11
189.70993834666746
 21
103.81916178740666
  0
LINE
  8
_0-0_0
  6
CONTINUOUS
 62
    7
 10
189.70993834666746
 20
103.81916178740666
 11
194.56050237367666
 21
102.46353785753736
  0
LINE
  8
_0-0_0
  6
CONTINUOUS
 62
    7
 10
186.55337507418534
 20
102.16345683893765
 11
185.48671560477476
 21
102.38474820525278
  0
LINE
  8
_0-0_0
  6
CONTINUOUS
 62
    7
 10
185.48671560477476
 20
102.38474820525278
 11
184.40616784634665
 21
102.80592990524359
  0
LINE
  8
_0-0_0
  6
CONTINUOUS
 62
    7
 10
184.94097829642504
 20
103.47801099051479
 11
183.82717468749175
 21
103.81484911174452
  0
LINE
  8
_0-0_0
  6
CONTINUOUS
 62
    7
 10
183.82717468749175
 20
103.81484911174452
 11
180.73529704870865
 21
105.45607790043383
  0
LINE
  8
_0-0_0
  6
CONTINUOUS
 62
    7
 10
189.56289740129264
 20
100.64602933390424
 11
188.49623793188195
 21
100.86732070021958
  0
LINE
  8
_0-0_0
  6
CONTINUOUS
 62
    7
 10
188.49623793188195
 20
100.86732070021958
 11
187.41569017345395
 21
101.28850240021018
  0
LINE
  8
_0-0_0
  6
CONTINUOUS
 62
    7
 10
190.26268573237684
 20
102.49345679991598
 11
189.18255162030596
 21
102.63502866304495
  0
LINE
  8
_0-0_0
  6
CONTINUOUS
 62
    7
 10
189.18255162030596
 20
102.63502866304495
 11
188.07374236917886
 21
102.97491030018649
  0
LINE
  8
_0-0_0
  6
CONTINUOUS
 62
    7
 10
201.32133350582126
 20
100.67922174579765
 11
198.04905924869806
 21
100.69382084099256
  0
LINE
  8
_0-0_0
  6
CONTINUOUS
 62
    7
 10
198.04905924869806
 20
100.69382084099256
 11
195.82906632286654
 21
101.37778868997357
  0
LINE
  8
_0-0_0
  6
CONTINUOUS
 62
    7
 10
195.82906632286654
 20
101.37778868997357
 11
193.43314956951204
 21
101.66390563062917
  0
LINE
  8
_0-0_0
  6
CONTINUOUS
 62
    7
 10
193.43314956951204
 20
101.66390563062917
 11
192.66494928058356
 21
101.70233841550257
  0
LINE
  8
_0-0_0
  6
CONTINUOUS
 62
    7
 10
192.66494928058356
 20
101.70233841550257
 11
191.90328133107906
 21
101.79136399852371
  0
LINE
  8
_0-0_0
  6
CONTINUOUS
 62
    7
 10
191.90328133107906
 20
101.79136399852371
 11
190.88149422680624
 21
102.0594907724426
  0
LINE
  8
_0-0_0
  6
CONTINUOUS
 62
    7
 10
199.28046422994115
 20
99.454414982990912
 11
195.97171606820984
 21
99.242448136945782
  0
LINE
  8
_0-0_0
  6
CONTINUOUS
 62
    7
 10
195.97171606820984
 20
99.242448136945782
 11
194.00365699160903
 21
99.482083581392217
  0
LINE
  8
_0-0_0
  6
CONTINUOUS
 62
    7
 10
194.00365699160903
 20
99.482083581392217
 11
193.10762324324955
 21
99.76112301616044
  0
LINE
  8
_0-0_0
  6
CONTINUOUS
 62
    7
 10
193.10762324324955
 20
99.76112301616044
 11
192.33942295432115
 21
99.799555801033847
  0
LINE
  8
_0-0_0
  6
CONTINUOUS
 62
    7
 10
192.33942295432115
 20
99.799555801033847
 11
191.57775500481665
 21
99.888581384054987
  0
LINE
  8
_0-0_0
  6
CONTINUOUS
 62
    7
 10
191.57775500481665
 20
99.888581384054987
 11
190.55596790054383
 21
100.15670815797387
  0
ENDSEC
  0
EOF
