  0
SECTION
  2
HEADER
  9
$ACADVER
  1
AC1009
  9
$INSBASE
 10
0
 20
0
 30
0
  9
$EXTMIN
 10
0
 20
0
  9
$EXTMAX
 10
840
 20
594
  9
$LIMMIN
 10
0
 20
0
  9
$LIMMAX
 10
840
 20
594
  9
$LTSCALE
 40
2
  0
ENDSEC
  0
SECTION
  2
TABLES
  0
TABLE
  2
LTYPE
 70
     9
  0
LTYPE
  2
CONTINUOUS
 70
    64
  3
実線
 72
    65
 73
     0
 40
0.0
  0
LTYPE
  2
DASHED1
 70
    64
  3
--  --  --  --  --  --  --  --  
 72
    65
 73
     2
 40
2.5
 49
1.25
 49
-1.25
  0
LTYPE
  2
DASHED2
 70
    64
  3
----    ----    ----    ----    
 72
    65
 73
     2
 40
5.0
 49
2.5
 49
-2.5
  0
LTYPE
  2
DASHED3
 70
    64
  3
------  ------  ------  ------  
 72
    65
 73
     2
 40
5.0
 49
3.75
 49
-1.25
  0
LTYPE
  2
CENTER1
 70
    64
  3
----- - ----- - ----- - ----- - 
 72
    65
 73
     4
 40
10.0
 49
6.25
 49
-1.25
 49
1.25
 49
-1.25
  0
LTYPE
  2
CENTER2
 70
    64
  3
----------  --  ----------  --  
 72
    65
 73
     4
 40
20.0
 49
12.5
 49
-2.5
 49
2.5
 49
-2.5
  0
LTYPE
  2
PHANTOM1
 70
    64
  3
--- - - --- - - --- - - --- - - 
 72
    65
 73
     6
 40
10.0
 49
3.25
 49
-1.25
 49
1.25
 49
-1.25
 49
1.25
 49
-1.25
  0
LTYPE
  2
PHANTOM2
 70
    64
  3
--------  -  -  --------  -  -  
 72
    65
 73
     6
 40
20.0
 49
10.0
 49
-2.5
 49
1.25
 49
-2.5
 49
1.25
 49
-2.5
  0
LTYPE
  2
DOT
 70
    64
  3
-   -   -   -   -   -   -   -   
 72
    65
 73
     2
 40
2.5
 49
0.625
 49
-1.875
  0
LTYPE
  2
DUMMY
 70
    64
  3
ダミー
 72
    65
 73
     0
 40
0.0
  0
LTYPE
  2
RAND1
 70
    64
  3
ランダム線1
 72
    65
 73
     4
 40
10.0
 49
1.0
 49
-2.0
 49
3.0
 49
-4.0
  0
LTYPE
  2
RAND2
 70
    64
  3
ランダム線2
 72
    65
 73
     4
 40
14.0
 49
2.0
 49
-3.0
 49
4.0
 49
-5.0
  0
LTYPE
  2
RAND3
 70
    64
  3
ランダム線3
 72
    65
 73
     4
 40
18.0
 49
3.0
 49
-4.0
 49
5.0
 49
-6.0
  0
LTYPE
  2
RAND4
 70
    64
  3
ランダム線4
 72
    65
 73
     4
 40
22.0
 49
4.0
 49
-5.0
 49
6.0
 49
-7.0
  0
LTYPE
  2
RAND5
 70
    64
  3
ランダム線5
 72
    65
 73
     4
 40
26.0
 49
5.0
 49
-6.0
 49
7.0
 49
-8.0
  0
LTYPE
  2
LONG1
 70
    64
  3
----------  --  ----------  --  
 72
    65
 73
     4
 40
40.0
 49
32.5
 49
-2.5
 49
2.5
 49
-2.5
  0
LTYPE
  2
LONG2
 70
    64
  3
--------  -  -  --------  -  -  
 72
    65
 73
     6
 40
40.0
 49
30.0
 49
-2.5
 49
1.25
 49
-2.5
 49
1.25
 49
-2.5
  0
LTYPE
  2
LONG3
 70
    64
  3
+++++++++++++++..+++++++++++++++
 72
    65
 73
     2
 40
40.0
 49
37.5
 49
-2.5
  0
LTYPE
  2
LONG4
 70
    64
  3
+++++++++++++++..+++++++++++++++
 72
    65
 73
     2
 40
80.0
 49
75.0
 49
-5.0
  0
LTYPE
  2
LONG5
 70
    64
  3
----------  --  ----------  --  
 72
    65
 73
     4
 40
60.0
 49
37.5
 49
-7.5
 49
7.5
 49
-7.5
  0
LTYPE
  2
dashed
 70
   64
  3
-------   -------------   ------
 72
   65
 73
    2
 40
7.5
 49
6
 49
-1.5
  0
LTYPE
  2
dashed_spaced
 70
   64
  3
----        --------        ----
 72
   65
 73
    2
 40
12
 49
6
 49
-6
  0
LTYPE
  2
long_dashed_dotted
 70
   64
  3
------------- --- --------------
 72
   65
 73
    4
 40
15.25
 49
12
 49
-1.5
 49
0.25
 49
-1.5
  0
LTYPE
  2
long_dashed_double-dotted
 70
   64
  3
----------- --- --- ------------
 72
   65
 73
    6
 40
17
 49
12
 49
-1.5
 49
0.25
 49
-1.5
 49
0.25
 49
-1.5
  0
LTYPE
  2
long_dashed_triplicate-dotted
 70
   64
  3
--------- --- --- --- ----------
 72
   65
 73
    8
 40
18.75
 49
12
 49
-1.5
 49
0.25
 49
-1.5
 49
0.25
 49
-1.5
 49
0.25
 49
-1.5
  0
LTYPE
  2
dotted
 70
   64
  3
   -       -       -       -    
 72
   65
 73
    2
 40
1.75
 49
0.25
 49
-1.5
  0
LTYPE
  2
chain
 70
   64
  3
-------------- -- --------------
 72
   65
 73
    4
 40
18.5
 49
12
 49
-1.5
 49
3.5
 49
-1.5
  0
LTYPE
  2
chain_double_dash
 70
   64
  3
------------ -- -- -------------
 72
   65
 73
    6
 40
23.5
 49
12
 49
-1.5
 49
3.5
 49
-1.5
 49
3.5
 49
-1.5
  0
LTYPE
  2
dashed_dotted
 70
   64
  3
-----------     -     ----------
 72
   65
 73
    4
 40
9.25
 49
6
 49
-1.5
 49
0.25
 49
-1.5
  0
LTYPE
  2
double-dashed_dotted
 70
   64
  3
------   -----------   -   -----
 72
   65
 73
    6
 40
16.75
 49
6
 49
-1.5
 49
6
 49
-1.5
 49
0.25
 49
-1.5
  0
LTYPE
  2
dashed_double-dotted
 70
   64
  3
---------    -    -    ---------
 72
   65
 73
    6
 40
11
 49
6
 49
-1.5
 49
0.25
 49
-1.5
 49
0.25
 49
-1.5
  0
LTYPE
  2
double-dashed_double-dotted
 70
   64
  3
-----   ---------   -   -   ----
 72
   65
 73
    8
 40
18.5
 49
6
 49
-1.5
 49
6
 49
-1.5
 49
0.25
 49
-1.5
 49
0.25
 49
-1.5
  0
LTYPE
  2
dashed_triplicate-dotted
 70
   64
  3
-------    -    -    -    ------
 72
   65
 73
    8
 40
12.75
 49
6
 49
-1.5
 49
0.25
 49
-1.5
 49
0.25
 49
-1.5
 49
0.25
 49
-1.5
  0
LTYPE
  2
double-dashed_triplicate-dotted
 70
   64
  3
-----  ---------  -  -  -  -----
 72
   65
 73
   10
 40
20.25
 49
6
 49
-1.5
 49
6
 49
-1.5
 49
0.25
 49
-1.5
 49
0.25
 49
-1.5
 49
0.25
 49
-1.5
  0
LTYPE
  2
undefined
 70
   64
  3
--------------------------------
 72
   65
 73
    0
 40
0
  0
LTYPE
  2
BORDER
 70
   64
  3
----     --------     -     ----
 72
   65
 73
    6
 40
1.76
 49
0.5
 49
-0.25
 49
0.5
 49
-0.25
 49
0.01
 49
-0.25
  0
LTYPE
  2
BORDER2
 70
   64
  3
----     --------     -     ----
 72
   65
 73
    6
 40
0.885
 49
0.25
 49
-0.125
 49
0.25
 49
-0.125
 49
0.01
 49
-0.125
  0
LTYPE
  2
BORDERX2
 70
   64
  3
----     --------     -     ----
 72
   65
 73
    6
 40
3.5099999999999998
 49
1
 49
-0.5
 49
1
 49
-0.5
 49
0.01
 49
-0.5
  0
LTYPE
  2
CENTER
 70
   64
  3
----------    ----    ----------
 72
   65
 73
    4
 40
2
 49
1.25
 49
-0.25
 49
0.25
 49
-0.25
  0
LTYPE
  2
CENTER2_21
 70
   64
  3
----------    ----    ----------
 72
   65
 73
    4
 40
1.125
 49
0.75
 49
-0.125
 49
0.125
 49
-0.125
  0
LTYPE
  2
CENTERX2
 70
   64
  3
----------    ----    ----------
 72
   65
 73
    4
 40
4
 49
2.5
 49
-0.5
 49
0.5
 49
-0.5
  0
LTYPE
  2
DASHDOT
 70
   64
  3
--------        -        -------
 72
   65
 73
    4
 40
1.01
 49
0.5
 49
-0.25
 49
0.01
 49
-0.25
  0
LTYPE
  2
DASHDOT2
 70
   64
  3
--------        -        -------
 72
   65
 73
    4
 40
0.51
 49
0.25
 49
-0.125
 49
0.01
 49
-0.125
  0
LTYPE
  2
DASHDOTX2
 70
   64
  3
--------        -        -------
 72
   65
 73
    4
 40
2.0099999999999998
 49
1
 49
-0.5
 49
0.01
 49
-0.5
  0
LTYPE
  2
DASHED
 70
   64
  3
------     -----------     -----
 72
   65
 73
    2
 40
0.75
 49
0.5
 49
-0.25
  0
LTYPE
  2
DASHED2_27
 70
   64
  3
------     -----------     -----
 72
   65
 73
    2
 40
0.375
 49
0.25
 49
-0.125
  0
LTYPE
  2
DASHEDX2
 70
   64
  3
------     -----------     -----
 72
   65
 73
    2
 40
1.5
 49
1
 49
-0.5
  0
LTYPE
  2
DIVIDE
 70
   64
  3
------      -      -      ------
 72
   65
 73
    6
 40
1.27
 49
0.5
 49
-0.25
 49
0.01
 49
-0.25
 49
0.01
 49
-0.25
  0
LTYPE
  2
DIVIDE2
 70
   64
  3
------      -      -      ------
 72
   65
 73
    6
 40
0.645
 49
0.25
 49
-0.125
 49
0.01
 49
-0.125
 49
0.01
 49
-0.125
  0
LTYPE
  2
DIVIDEX2
 70
   64
  3
------      -      -      ------
 72
   65
 73
    6
 40
2.5199999999999996
 49
1
 49
-0.5
 49
0.01
 49
-0.5
 49
0.01
 49
-0.5
  0
LTYPE
  2
DOT_32
 70
   64
  3
-               -               
 72
   65
 73
    2
 40
0.26
 49
0.01
 49
-0.25
  0
ENDTAB
  0
TABLE
  2
STYLE
  5
3
100
AcDbSymbolTable
 70
     1
  0
STYLE
  5
10
100
AcDbSymbolTableRecord
100
AcDbTextStyleTableRecord
  2
STANDARD
 70
     0
 40
0.0
 41
1.0
 50
0.0
 71
     0
 42
0.2
  3
txt
  4
bigfont.shx
  0
STYLE
  5
26
100
AcDbSymbolTableRecord
100
AcDbTextStyleTableRecord
  2
TATEGAKI
 70
    68
 40
0.0
 41
1.0
 50
0.0
 71
     0
 42
1.0
  3
txt
  4
bigfont.shx
  0
ENDTAB
  0
TABLE
  2
LAYER
 70
    2
  0
LAYER
  2
_0-0_0
 70
   64
 62
    7
  6
CONTINUOUS
  0
LAYER
  2
ADD_LINE
 70
   64
 62
    7
  6
CONTINUOUS
  0
ENDTAB
  0
ENDSEC
  0
SECTION
  2
BLOCKS
  0
ENDSEC
  0
SECTION
  2
ENTITIES
  0
ARC
  8
_0-0_0
  6
CONTINUOUS
 62
    7
 10
504.01948799999991
 20
383.69325599999996
 40
8.7217719999999996
 50
62.639575999999998
 51
105.784836
  0
LINE
  8
_0-0_0
  6
CONTINUOUS
 62
    7
 10
507.32319899999993
 20
384.00922200000002
 11
505.74764999999991
 21
389.60150099999998
  0
ARC
  8
_0-0_0
  6
CONTINUOUS
 62
    7
 10
503.28683499999994
 20
380.66288399999996
 40
11.773273
 50
17.295735000000001
 51
66.253101000000015
  0
LINE
  8
_0-0_0
  6
CONTINUOUS
 62
    7
 10
505.51130999999992
 20
378.41694299999995
 11
510.63190299999997
 21
375.65294199999994
  0
LINE
  8
_0-0_0
  6
CONTINUOUS
 62
    7
 10
501.17852199999993
 20
374.62447499999996
 11
505.03865299999995
 21
372.37471299999999
  0
ARC
  8
_0-0_0
  6
CONTINUOUS
 62
    7
 10
504.61824299999995
 20
382.84214500000002
 40
10.969372999999999
 50
285.94425799999999
 51
322.99669500000016
  0
ARC
  8
_0-0_0
  6
CONTINUOUS
 62
    7
 10
503.83464999999995
 20
381.66946399999995
 40
10.980009000000001
 50
330.3648300000001
 51
13.126913000000094
  0
LINE
  8
_0-0_0
  6
CONTINUOUS
 62
    7
 10
502.99042399999996
 20
380.47387700000002
 11
501.17852199999993
 21
387.54457400000001
  0
LINE
  8
_0-0_0
  6
CONTINUOUS
 62
    7
 10
509.05634099999997
 20
382.46652799999998
 11
513.86178599999994
 21
380.47387700000002
  0
LINE
  8
_0-0_0
  6
CONTINUOUS
 62
    7
 10
527.25127599999996
 20
342.26664999999997
 11
527.36986699999989
 21
342.26974799999999
  0
LINE
  8
_0-0_0
  6
CONTINUOUS
 62
    7
 10
525.93843399999992
 20
343.875204
 11
525.38789699999995
 21
343.01135599999998
  0
LINE
  8
_0-0_0
  6
CONTINUOUS
 62
    7
 10
534.76832899999999
 20
333.034561
 11
534.59076499999992
 21
332.95785799999999
  0
LINE
  8
_0-0_0
  6
CONTINUOUS
 62
    7
 10
535.42741099999989
 20
331.74771399999997
 11
535.60407099999998
 21
331.76759900000002
  0
LINE
  8
_0-0_0
  6
CONTINUOUS
 62
    7
 10
513.25682999999992
 20
349.00001199999997
 11
516.83150000000001
 21
352.94073500000002
  0
LINE
  8
_0-0_0
  6
CONTINUOUS
 62
    7
 10
515.20005500000002
 20
353.376349
 11
513.52304099999992
 21
351.110004
  0
ARC
  8
_0-0_0
  6
CONTINUOUS
 62
    7
 10
506.41740099999993
 20
336.07864699999999
 40
19.392019999999999
 50
46.889293000000016
 51
60.64449800000002
  0
LINE
  8
_0-0_0
  6
CONTINUOUS
 62
    7
 10
501.70029899999997
 20
349.49500399999999
 11
501.77225899999996
 21
352.19602699999996
  0
LINE
  8
_0-0_0
  6
CONTINUOUS
 62
    7
 10
501.13300199999992
 20
357.31764499999997
 11
500.02285799999993
 21
349.72274199999998
  0
LINE
  8
_0-0_0
  6
CONTINUOUS
 62
    7
 10
501.77225899999996
 20
352.19602699999996
 11
503.51543599999991
 21
357.09527600000001
  0
ARC
  8
_0-0_0
  6
CONTINUOUS
 62
    7
 10
506.41740099999993
 20
336.07864699999999
 40
11.635204
 50
46.889290000000003
 51
60.644559999999984
  0
LINE
  8
_0-0_0
  6
CONTINUOUS
 62
    7
 10
521.56218899999999
 20
337.12760900000001
 11
521.62308999999993
 21
337.86048899999997
  0
LINE
  8
_0-0_0
  6
CONTINUOUS
 62
    7
 10
521.96533799999997
 20
339.69121999999999
 11
520.3576599999999
 21
338.48231799999996
  0
ARC
  8
_0-0_0
  6
CONTINUOUS
 62
    7
 10
443.85370799999993
 20
269.24655100000001
 40
103.18161600000001
 50
39.085344000000006
 51
46.889334000000005
  0
ARC
  8
_0-0_0
  6
CONTINUOUS
 62
    7
 10
499.14546499999994
 20
323.14954799999998
 40
26.469042999999999
 50
60.644553000000009
 51
86.541037999999986
  0
LINE
  8
_0-0_0
  6
CONTINUOUS
 62
    7
 10
512.1712829999999
 20
346.19155899999998
 11
513.25682999999992
 21
349.00001199999997
  0
LINE
  8
_0-0_0
  6
CONTINUOUS
 62
    7
 10
513.52304099999992
 20
351.110004
 11
510.51862199999994
 21
347.05062899999996
  0
ARC
  8
_0-0_0
  6
CONTINUOUS
 62
    7
 10
443.85370799999993
 20
269.24655100000001
 40
110.938428
 50
39.186909
 51
46.889333999999998
  0
LINE
  8
_0-0_0
  6
CONTINUOUS
 62
    7
 10
541.34053299999994
 20
320.25370899999996
 11
539.38236699999993
 21
319.49113299999999
  0
LINE
  8
_0-0_0
  6
CONTINUOUS
 62
    7
 10
531.51046699999995
 20
329.66874999999999
 11
533.98232999999993
 21
330.878894
  0
LINE
  8
_0-0_0
  6
CONTINUOUS
 62
    7
 10
528.95248399999991
 20
327.76965899999999
 11
529.57102699999996
 21
328.30346099999997
  0
LINE
  8
_0-0_0
  6
CONTINUOUS
 62
    7
 10
528.46819499999992
 20
329.54463199999998
 11
527.71362899999997
 21
329.59594100000004
  0
LINE
  8
_0-0_0
  6
CONTINUOUS
 62
    7
 10
529.57102699999996
 20
328.30346099999997
 11
531.51046699999995
 21
329.66874999999999
  0
LINE
  8
_0-0_0
  6
CONTINUOUS
 62
    7
 10
534.41329899999994
 20
316.21228499999995
 11
536.68234199999995
 21
317.03981799999997
  0
LINE
  8
_0-0_0
  6
CONTINUOUS
 62
    7
 10
536.68234199999995
 20
317.03981799999997
 11
542.18336799999997
 21
317.81204400000001
  0
LINE
  8
_0-0_0
  6
CONTINUOUS
 62
    7
 10
539.38236699999993
 20
319.49113299999999
 11
534.04288899999995
 21
317.42168400000003
  0
LINE
  8
_0-0_0
  6
CONTINUOUS
 62
    7
 10
538.50768399999993
 20
302.58015599999999
 11
542.04434199999992
 21
303.82132899999999
  0
LINE
  8
_0-0_0
  6
CONTINUOUS
 62
    7
 10
542.04434199999992
 20
303.82132899999999
 11
544.90286199999991
 21
303.58004399999999
  0
LINE
  8
_0-0_0
  6
CONTINUOUS
 62
    7
 10
544.82943699999987
 20
304.555724
 11
540.94150999999988
 21
304.31779799999998
  0
LINE
  8
_0-0_0
  6
CONTINUOUS
 62
    7
 10
540.94150999999988
 20
304.31779799999998
 11
536.84876099999997
 21
302.84510699999998
  0
LINE
  8
_0-0_0
  6
CONTINUOUS
 62
    7
 10
536.93480799999998
 20
301.46661899999998
 11
538.50768399999993
 21
302.58015599999999
  0
LINE
  8
_0-0_0
  6
CONTINUOUS
 62
    7
 10
502.20264299999997
 20
327.18651699999998
 11
503.77819199999993
 21
326.15805399999999
  0
LINE
  8
_0-0_0
  6
CONTINUOUS
 62
    7
 10
502.75408299999992
 20
324.61535600000002
 11
499.68173199999995
 21
324.61535600000002
  0
LINE
  8
_0-0_0
  6
CONTINUOUS
 62
    7
 10
499.20906399999996
 20
321.33712500000001
 11
499.44540399999994
 21
319.537308
  0
ARC
  8
_0-0_0
  6
CONTINUOUS
 62
    7
 10
496.31016199999993
 20
327.97261000000003
 40
9.9315770000000008
 50
345.371712
 51
69.382570999999984
  0
ARC
  8
_0-0_0
  6
CONTINUOUS
 62
    7
 10
485.4550109999999
 20
299.59634900000003
 40
51.824370999999999
 50
21.786369000000004
 51
42.039568000000003
  0
LINE
  8
_0-0_0
  6
CONTINUOUS
 62
    7
 10
533.98232999999993
 20
330.878894
 11
535.42741099999989
 21
331.74771399999997
  0
LINE
  8
_0-0_0
  6
CONTINUOUS
 62
    7
 10
464.61423299999996
 20
405.087085
 11
460.16664999999995
 21
398.711816
  0
LINE
  8
_0-0_0
  6
CONTINUOUS
 62
    7
 10
451.28701799999993
 20
413.50433299999997
 11
450.20906999999994
 21
410.94216299999994
  0
LINE
  8
_0-0_0
  6
CONTINUOUS
 62
    7
 10
452.91611299999994
 20
412.68045699999999
 11
448.43670599999996
 21
406.259546
  0
LINE
  8
_0-0_0
  6
CONTINUOUS
 62
    7
 10
462.31044899999995
 20
406.84254099999998
 11
457.58207999999996
 21
400.69039899999996
  0
ARC
  8
_0-0_0
  6
CONTINUOUS
 62
    7
 10
465.21096799999992
 20
397.95779400000004
 40
33.699990999999997
 50
331.22912200000007
 51
342.14198900000002
  0
LINE
  8
_0-0_0
  6
CONTINUOUS
 62
    7
 10
478.09652699999992
 20
382.98075599999999
 11
473.59827899999993
 21
382.078217
  0
LINE
  8
_0-0_0
  6
CONTINUOUS
 62
    7
 10
480.84109499999994
 20
384.87566499999997
 11
478.09652699999992
 21
382.98075599999999
  0
LINE
  8
_0-0_0
  6
CONTINUOUS
 62
    7
 10
496.60937499999994
 20
373.33889799999997
 11
495.34893799999998
 21
377.64559899999995
  0
ARC
  8
_0-0_0
  6
CONTINUOUS
 62
    7
 10
479.97877799999992
 20
382.93212900000003
 40
14.544014000000001
 50
313.48248799999999
 51
341.08576799999997
  0
ARC
  8
_0-0_0
  6
CONTINUOUS
 62
    7
 10
495.50649999999996
 20
371.30943000000002
 40
3.868641999999999
 50
138.88919200000001
 51
313.81645700000001
  0
ARC
  8
_0-0_0
  6
CONTINUOUS
 62
    7
 10
459.49673499999994
 20
373.63362999999998
 40
15.154030000000001
 50
336.22324700000001
 51
352.41737999999998
  0
ARC
  8
_0-0_0
  6
CONTINUOUS
 62
    7
 10
451.75399199999993
 20
374.891437
 40
30.752960000000002
 50
352.73492900000002
 51
40.635223999999994
  0
ARC
  8
_0-0_0
  6
CONTINUOUS
 62
    7
 10
458.96054699999991
 20
390.13411899999994
 40
36.761910999999998
 50
341.0857410000001
 51
346.797145
  0
LINE
  8
_0-0_0
  6
CONTINUOUS
 62
    7
 10
481.65098299999994
 20
382.09659399999998
 11
474.27718499999997
 21
379.53135399999996
  0
LINE
  8
_0-0_0
  6
CONTINUOUS
 62
    7
 10
470.57390699999996
 20
368.39558099999999
 11
468.08859199999995
 21
366.05428499999999
  0
ARC
  8
_0-0_0
  6
CONTINUOUS
 62
    7
 10
471.55193499999996
 20
367.139679
 40
1.5918060000000001
 50
49.37707000000001
 51
127.90949900000001
  0
LINE
  8
_0-0_0
  6
CONTINUOUS
 62
    7
 10
456.10954599999997
 20
368.51368400000001
 11
458.37835699999994
 21
372.28472299999999
  0
ARC
  8
_0-0_0
  6
CONTINUOUS
 62
    7
 10
451.64038699999992
 20
375.61424599999998
 40
10.238194999999999
 50
268.23488900000001
 51
314.76473299999998
  0
LINE
  8
_0-0_0
  6
CONTINUOUS
 62
    7
 10
449.05103799999995
 20
378.93546100000003
 11
451.23581499999989
 21
371.77048300000001
  0
LINE
  8
_0-0_0
  6
CONTINUOUS
 62
    7
 10
453.67268099999995
 20
371.359106
 11
455.43731699999995
 21
379.20971699999996
  0
LINE
  8
_0-0_0
  6
CONTINUOUS
 62
    7
 10
455.56335399999995
 20
371.90761699999996
 11
457.45402799999994
 21
376.36430099999995
  0
LINE
  8
_0-0_0
  6
CONTINUOUS
 62
    7
 10
452.83238499999993
 20
367.96516699999995
 11
452.03409999999997
 21
377.28992299999999
  0
ARC
  8
_0-0_0
  6
CONTINUOUS
 62
    7
 10
452.77120999999994
 20
372.85647599999999
 40
7.570041999999999
 50
323.41937500000012
 51
73.769547000000031
  0
ARC
  8
_0-0_0
  6
CONTINUOUS
 62
    7
 10
451.75399199999993
 20
374.891437
 40
22.996148999999999
 50
351.85651200000007
 51
40.712869000000055
  0
LINE
  8
_0-0_0
  6
CONTINUOUS
 62
    7
 10
474.16110199999991
 20
396.00036
 11
468.62805199999997
 21
390.543024
  0
ARC
  8
_0-0_0
  6
CONTINUOUS
 62
    7
 10
418.96295499999997
 20
347.56556399999999
 40
73.435455000000019
 50
40.153002000000001
 51
67.239893000000009
  0
LINE
  8
_0-0_0
  6
CONTINUOUS
 62
    7
 10
472.42793599999993
 20
397.90698899999995
 11
467.52897899999994
 21
391.78123799999997
  0
LINE
  8
_0-0_0
  6
CONTINUOUS
 62
    7
 10
442.6975829999999
 20
417.02375499999999
 11
442.88270899999998
 21
415.24886500000002
  0
ARC
  8
_0-0_0
  6
CONTINUOUS
 62
    7
 10
421.88459799999998
 20
363.09469000000001
 40
50.338433999999999
 50
63.451153000000012
 51
90.000698999999983
  0
LINE
  8
_0-0_0
  6
CONTINUOUS
 62
    7
 10
442.88270899999998
 20
414.47751499999998
 11
441.07081599999992
 21
410.42793
  0
LINE
  8
_0-0_0
  6
CONTINUOUS
 62
    7
 10
428.09160799999995
 20
420.07552499999997
 11
427.65803199999993
 21
413.10095200000001
  0
LINE
  8
_0-0_0
  6
CONTINUOUS
 62
    7
 10
426.10296599999992
 20
420.23118899999997
 11
426.10296599999992
 21
413.256055
  0
LINE
  8
_0-0_0
  6
CONTINUOUS
 62
    7
 10
440.97677899999996
 20
417.56584499999997
 11
439.44241299999993
 21
410.27181400000001
  0
LINE
  8
_0-0_0
  6
CONTINUOUS
 62
    7
 10
397.30242099999998
 20
417.02375499999999
 11
397.11729499999996
 21
415.24886500000002
  0
LINE
  8
_0-0_0
  6
CONTINUOUS
 62
    7
 10
397.11729499999996
 20
414.47751499999998
 11
398.92920099999992
 21
410.42793
  0
LINE
  8
_0-0_0
  6
CONTINUOUS
 62
    7
 10
399.02322599999991
 20
417.56584499999997
 11
400.55759099999995
 21
410.27181400000001
  0
LINE
  8
_0-0_0
  6
CONTINUOUS
 62
    7
 10
411.90839699999992
 20
420.07552499999997
 11
412.34197099999994
 21
413.10095200000001
  0
LINE
  8
_0-0_0
  6
CONTINUOUS
 62
    7
 10
413.89703799999995
 20
420.23118899999997
 11
413.89703799999995
 21
413.256055
  0
LINE
  8
_0-0_0
  6
CONTINUOUS
 62
    7
 10
418.11602199999993
 20
413.43311800000004
 11
421.88398399999994
 21
413.43311800000004
  0
LINE
  8
_0-0_0
  6
CONTINUOUS
 62
    7
 10
421.88398399999994
 20
420.36289099999999
 11
418.11602199999993
 21
420.36289099999999
  0
LINE
  8
_0-0_0
  6
CONTINUOUS
 62
    7
 10
445.1436369999999
 20
372.69610599999999
 11
442.95886199999995
 21
376.50142800000003
  0
LINE
  8
_0-0_0
  6
CONTINUOUS
 62
    7
 10
444.34534899999994
 20
367.14239499999996
 11
439.72370599999994
 21
371.49622799999997
  0
LINE
  8
_0-0_0
  6
CONTINUOUS
 62
    7
 10
441.06818799999996
 20
367.69090600000004
 11
438.63130799999993
 21
368.37654999999995
  0
ARC
  8
_0-0_0
  6
CONTINUOUS
 62
    7
 10
451.71743199999992
 20
365.26681499999995
 40
15.571075
 50
125.214989
 51
172.40099599999999
  0
LINE
  8
_0-0_0
  6
CONTINUOUS
 62
    7
 10
395.65465599999993
 20
367.14239499999996
 11
400.27629799999994
 21
371.49622799999997
  0
LINE
  8
_0-0_0
  6
CONTINUOUS
 62
    7
 10
398.93181699999991
 20
367.69090600000004
 11
401.36869699999994
 21
368.37654999999995
  0
ARC
  8
_0-0_0
  6
CONTINUOUS
 62
    7
 10
388.28257499999995
 20
365.26681499999995
 40
15.571075
 50
7.5990060000000001
 51
54.785012000000002
  0
ARC
  8
_0-0_0
  6
CONTINUOUS
 62
    7
 10
451.18323999999996
 20
365.57748400000003
 40
15.011429
 50
75.715755000000001
 51
124.23293099999999
  0
ARC
  8
_0-0_0
  6
CONTINUOUS
 62
    7
 10
421.92652299999997
 20
354.09058199999998
 40
66.272313999999994
 50
67.420101000000003
 51
90.036776000000003
  0
ARC
  8
_0-0_0
  6
CONTINUOUS
 62
    7
 10
418.96295499999997
 20
347.56556399999999
 40
65.678650000000005
 50
40.123238999999998
 51
67.228910000000013
  0
LINE
  8
_0-0_0
  6
CONTINUOUS
 62
    7
 10
447.95863599999996
 20
365.80538899999999
 11
440.8160949999999
 21
373.93026099999997
  0
LINE
  8
_0-0_0
  6
CONTINUOUS
 62
    7
 10
449.34513499999991
 20
367.005267
 11
447.0343079999999
 21
371.359106
  0
LINE
  8
_0-0_0
  6
CONTINUOUS
 62
    7
 10
450.68961799999994
 20
368.10229499999997
 11
446.61415999999997
 21
376.22717299999999
  0
LINE
  8
_0-0_0
  6
CONTINUOUS
 62
    7
 10
448.71229199999993
 20
409.91370799999999
 11
446.68514999999991
 21
407.10684800000001
  0
LINE
  8
_0-0_0
  6
CONTINUOUS
 62
    7
 10
479.99556299999995
 20
360.48497299999997
 11
480.06614999999994
 21
360.41004599999997
  0
LINE
  8
_0-0_0
  6
CONTINUOUS
 62
    7
 10
485.41301899999991
 20
354.73425900000001
 11
485.34243799999996
 21
354.80919199999994
  0
ARC
  8
_0-0_0
  6
CONTINUOUS
 62
    7
 10
491.55241699999993
 20
345.908862
 40
1.5918060000000001
 50
318.67222900000002
 51
37.204358000000006
  0
LINE
  8
_0-0_0
  6
CONTINUOUS
 62
    7
 10
492.74777799999993
 20
344.85768400000001
 11
490.26243899999997
 21
342.51638800000001
  0
LINE
  8
_0-0_0
  6
CONTINUOUS
 62
    7
 10
493.37948599999993
 20
332.264566
 11
496.92449299999993
 21
336.57126799999998
  0
ARC
  8
_0-0_0
  6
CONTINUOUS
 62
    7
 10
487.81133399999993
 20
340.87620800000002
 40
2.9492699999999998
 50
232.79295500000003
 51
33.788826000000022
  0
LINE
  8
_0-0_0
  6
CONTINUOUS
 62
    7
 10
473.89882799999992
 20
344.33231499999999
 11
473.99546499999997
 21
344.22974499999998
  0
ARC
  8
_0-0_0
  6
CONTINUOUS
 62
    7
 10
482.55207499999995
 20
336.91478599999999
 40
1.229767999999998
 50
213.63320900000002
 51
323.65313100000014
  0
LINE
  8
_0-0_0
  6
CONTINUOUS
 62
    7
 10
486.02791699999995
 20
338.527243
 11
483.54257799999999
 21
336.18594100000001
  0
LINE
  8
_0-0_0
  6
CONTINUOUS
 62
    7
 10
482.7042909999999
 20
357.60961299999997
 11
492.82026400000001
 21
346.87136199999998
  0
LINE
  8
_0-0_0
  6
CONTINUOUS
 62
    7
 10
463.85404699999992
 20
362.06514299999998
 11
461.36872599999992
 21
359.72384599999998
  0
ARC
  8
_0-0_0
  6
CONTINUOUS
 62
    7
 10
462.03720699999997
 20
358.69163800000001
 40
1.229767999999998
 50
122.92801
 51
232.94816399999999
  0
LINE
  8
_0-0_0
  6
CONTINUOUS
 62
    7
 10
468.92557399999993
 20
349.61149899999998
 11
468.82894299999992
 21
349.71407799999997
  0
ARC
  8
_0-0_0
  6
CONTINUOUS
 62
    7
 10
460.46069299999994
 20
369.02050800000001
 40
13.975588999999999
 50
211.84425899999999
 51
243.65992299999999
  0
LINE
  8
_0-0_0
  6
CONTINUOUS
 62
    7
 10
448.67289999999991
 20
359.18893400000002
 11
447.95863599999996
 21
354.97222299999999
  0
ARC
  8
_0-0_0
  6
CONTINUOUS
 62
    7
 10
457.84340799999995
 20
365.55225799999999
 40
9.7396039999999982
 50
248.41097500000004
 51
296.189323
  0
LINE
  8
_0-0_0
  6
CONTINUOUS
 62
    7
 10
458.25231899999994
 20
332.791653
 11
458.25231899999994
 21
336.04846499999996
  0
ARC
  8
_0-0_0
  6
CONTINUOUS
 62
    7
 10
415.75639499999994
 20
405.262878
 40
78.790576000000001
 50
294.01623000000006
 51
302.48369700000006
  0
LINE
  8
_0-0_0
  6
CONTINUOUS
 62
    7
 10
461.29622799999993
 20
357.71017499999999
 11
471.41220099999992
 21
346.97190899999998
  0
ARC
  8
_0-0_0
  6
CONTINUOUS
 62
    7
 10
416.27148299999993
 20
393.13783599999999
 40
68.555847
 50
307.56956500000001
 51
320.39614200000005
  0
LINE
  8
_0-0_0
  6
CONTINUOUS
 62
    7
 10
463.85404699999992
 20
362.06514299999998
 11
486.02791699999995
 21
338.527243
  0
ARC
  8
_0-0_0
  6
CONTINUOUS
 62
    7
 10
644.91542399999992
 20
174.498694
 40
240.52145999999999
 50
135.20280199999999
 51
138.67150000000007
  0
LINE
  8
_0-0_0
  6
CONTINUOUS
 62
    7
 10
481.52817399999992
 20
336.23365200000001
 11
471.41220099999992
 21
346.97190899999998
  0
ARC
  8
_0-0_0
  6
CONTINUOUS
 62
    7
 10
487.86610099999996
 20
327.23267799999996
 40
2.5295149999999991
 50
254.14234999999999
 51
12.772444000000014
  0
LINE
  8
_0-0_0
  6
CONTINUOUS
 62
    7
 10
497.39717399999995
 20
318.05889000000002
 11
494.87625699999995
 21
319.344472
  0
LINE
  8
_0-0_0
  6
CONTINUOUS
 62
    7
 10
486.76212799999996
 20
321.85135500000001
 11
486.52578699999992
 21
318.05889000000002
  0
LINE
  8
_0-0_0
  6
CONTINUOUS
 62
    7
 10
491.80391799999995
 20
320.56577500000003
 11
495.34893799999998
 21
315.48772700000001
  0
LINE
  8
_0-0_0
  6
CONTINUOUS
 62
    7
 10
491.33124999999995
 20
323.39405199999999
 11
497.63351399999993
 21
321.33712500000001
  0
LINE
  8
_0-0_0
  6
CONTINUOUS
 62
    7
 10
480.38109099999997
 20
319.537308
 11
481.40521199999995
 21
316.77330799999999
  0
LINE
  8
_0-0_0
  6
CONTINUOUS
 62
    7
 10
485.18655999999993
 20
322.87982199999999
 11
483.21710199999995
 21
316.77330799999999
  0
LINE
  8
_0-0_0
  6
CONTINUOUS
 62
    7
 10
478.64796699999994
 20
321.08000600000003
 11
479.1206479999999
 21
318.57312200000001
  0
LINE
  8
_0-0_0
  6
CONTINUOUS
 62
    7
 10
483.45342999999997
 20
324.61535600000002
 11
479.90842299999991
 21
320.82289100000003
  0
LINE
  8
_0-0_0
  6
CONTINUOUS
 62
    7
 10
481.64153999999996
 20
324.35824000000002
 11
480.38109099999997
 21
322.622704
  0
ARC
  8
_0-0_0
  6
CONTINUOUS
 62
    7
 10
491.67368799999997
 20
330.50176699999997
 40
19.255279999999999
 50
206.15255300000004
 51
247.88371200000012
  0
LINE
  8
_0-0_0
  6
CONTINUOUS
 62
    7
 10
489.28301399999998
 20
322.365588
 11
490.30713499999996
 21
314.71637699999997
  0
LINE
  8
_0-0_0
  6
CONTINUOUS
 62
    7
 10
454.89111899999995
 20
326.96368699999999
 11
458.92456699999997
 21
325.35242299999999
  0
LINE
  8
_0-0_0
  6
CONTINUOUS
 62
    7
 10
447.5805049999999
 20
319.66158099999996
 11
450.56357999999989
 21
318.29029500000001
  0
ARC
  8
_0-0_0
  6
CONTINUOUS
 62
    7
 10
451.12781999999993
 20
325.30745200000001
 40
7.7568080000000004
 50
284.90052300000002
 51
334.79500000000007
  0
LINE
  8
_0-0_0
  6
CONTINUOUS
 62
    7
 10
450.01737099999991
 20
322.09561600000001
 11
454.89111899999995
 21
319.93583999999998
  0
LINE
  8
_0-0_0
  6
CONTINUOUS
 62
    7
 10
452.83238499999993
 20
324.80390899999998
 11
457.87418199999991
 21
322.64413300000001
  0
LINE
  8
_0-0_0
  6
CONTINUOUS
 62
    7
 10
457.87418199999991
 20
329.946237
 11
460.81523999999996
 21
328.57494800000001
  0
ARC
  8
_0-0_0
  6
CONTINUOUS
 62
    7
 10
506.08424699999995
 20
328.45564000000002
 40
15.765188999999999
 50
154.87918400000001
 51
182.412947
  0
ARC
  8
_0-0_0
  6
CONTINUOUS
 62
    7
 10
494.71652199999994
 20
332.09909700000003
 40
22.690816999999999
 50
150.635301
 51
206.38645999999997
  0
ARC
  8
_0-0_0
  6
CONTINUOUS
 62
    7
 10
488.12086799999992
 20
332.43606899999997
 40
7.6950070000000004
 50
149.86221900000001
 51
262.93873300000001
  0
ARC
  8
_0-0_0
  6
CONTINUOUS
 62
    7
 10
559.3736879999999
 20
274.359309
 40
111.8796389999999
 50
148.189041
 51
154.79500899999994
  0
ARC
  8
_0-0_0
  6
CONTINUOUS
 62
    7
 10
458.92139299999997
 20
333.38636199999996
 40
3.8051709999999979
 50
320.75346999999999
 51
115.23531799999999
  0
LINE
  8
_0-0_0
  6
CONTINUOUS
 62
    7
 10
456.48768299999995
 20
330.906137
 11
456.36164499999995
 21
335.49994800000002
  0
LINE
  8
_0-0_0
  6
CONTINUOUS
 62
    7
 10
454.05081799999994
 20
328.437817
 11
454.34492799999998
 21
334.95143400000001
  0
LINE
  8
_0-0_0
  6
CONTINUOUS
 62
    7
 10
451.78200699999991
 20
326.003784
 11
451.48790899999995
 21
332.92878400000001
  0
LINE
  8
_0-0_0
  6
CONTINUOUS
 62
    7
 10
449.17708099999993
 20
323.29549099999997
 11
448.79894399999995
 21
332.10601199999996
  0
LINE
  8
_0-0_0
  6
CONTINUOUS
 62
    7
 10
459.09260899999992
 20
331.55749500000002
 11
461.23537599999992
 21
330.906137
  0
LINE
  8
_0-0_0
  6
CONTINUOUS
 62
    7
 10
446.74020999999993
 20
361.21157800000003
 11
441.61437999999993
 21
363.09709499999997
  0
LINE
  8
_0-0_0
  6
CONTINUOUS
 62
    7
 10
442.95886199999995
 20
361.34870599999999
 11
443.37901599999998
 21
359.05180100000001
  0
LINE
  8
_0-0_0
  6
CONTINUOUS
 62
    7
 10
440.94213599999995
 20
362.27432899999997
 11
438.92541799999992
 21
360.38880599999999
  0
LINE
  8
_0-0_0
  6
CONTINUOUS
 62
    7
 10
439.84974699999992
 20
358.64041099999997
 11
442.41265599999997
 21
358.77754499999998
  0
LINE
  8
_0-0_0
  6
CONTINUOUS
 62
    7
 10
446.23602299999993
 20
353.36095599999999
 11
444.72348299999999
 21
351.578284
  0
ARC
  8
_0-0_0
  6
CONTINUOUS
 62
    7
 10
480.48436299999997
 20
388.62230199999999
 40
52.310375999999998
 50
217.9391509999999
 51
228.4055009999999
  0
LINE
  8
_0-0_0
  6
CONTINUOUS
 62
    7
 10
399.05786999999992
 20
362.27432899999997
 11
401.07458499999996
 21
360.38880599999999
  0
LINE
  8
_0-0_0
  6
CONTINUOUS
 62
    7
 10
397.04114199999992
 20
361.34870599999999
 11
396.62100199999998
 21
359.05180100000001
  0
LINE
  8
_0-0_0
  6
CONTINUOUS
 62
    7
 10
400.15025699999995
 20
358.64041099999997
 11
397.58733599999994
 21
358.77754499999998
  0
LINE
  8
_0-0_0
  6
CONTINUOUS
 62
    7
 10
444.05124799999993
 20
318.83880899999997
 11
443.63109699999995
 21
322.64413300000001
  0
LINE
  8
_0-0_0
  6
CONTINUOUS
 62
    7
 10
444.84953599999994
 20
317.50180499999999
 11
446.61415999999997
 21
316.54190399999999
  0
ARC
  8
_0-0_0
  6
CONTINUOUS
 62
    7
 10
355.97536299999996
 20
344.86830699999996
 40
89.063855000000004
 50
341.28821499999998
 51
348.88772899999998
  0
LINE
  8
_0-0_0
  6
CONTINUOUS
 62
    7
 10
446.36207599999994
 20
320.99858699999999
 11
445.68982799999992
 21
329.39771999999999
  0
ARC
  8
_0-0_0
  6
CONTINUOUS
 62
    7
 10
442.16839899999991
 20
315.67381899999998
 40
1.9392020000000001
 50
161.288319
 51
297.08219300000002
  0
LINE
  8
_0-0_0
  6
CONTINUOUS
 62
    7
 10
395.94875499999995
 20
318.83880899999997
 11
396.36890799999992
 21
322.64413300000001
  0
ARC
  8
_0-0_0
  6
CONTINUOUS
 62
    7
 10
484.02463399999993
 20
344.86830699999996
 40
89.063855000000004
 50
191.11225799999991
 51
198.71178599999999
  0
ARC
  8
_0-0_0
  6
CONTINUOUS
 62
    7
 10
397.83160599999997
 20
315.67381899999998
 40
1.9392020000000001
 50
242.91780900000003
 51
18.711809000000009
  0
ARC
  8
_0-0_0
  6
CONTINUOUS
 62
    7
 10
457.02580599999993
 20
368.87412699999999
 40
22.411373999999999
 50
239.81611100000001
 51
301.58550000000002
  0
ARC
  8
_0-0_0
  6
CONTINUOUS
 62
    7
 10
450.98078599999997
 20
326.207874
 40
7.7568080000000004
 50
114.016293
 51
168.88773800000001
  0
ARC
  8
_0-0_0
  6
CONTINUOUS
 62
    7
 10
466.19311499999992
 20
268.689841
 40
50.830874999999999
 50
104.90047700000002
 51
117.08242000000004
  0
LINE
  8
_0-0_0
  6
CONTINUOUS
 62
    7
 10
460.13511999999997
 20
333.80726299999998
 11
442.56758999999994
 21
316.25907599999999
  0
LINE
  8
_0-0_0
  6
CONTINUOUS
 62
    7
 10
448.12669699999992
 20
359.56602799999996
 11
442.58072799999991
 21
354.69796099999996
  0
ARC
  8
_0-0_0
  6
CONTINUOUS
 62
    7
 10
389.30062099999998
 20
365.40263099999999
 40
14.544014000000001
 50
322.06085000000002
 51
7.5990170000000106
  0
ARC
  8
_0-0_0
  6
CONTINUOUS
 62
    7
 10
466.30517599999996
 20
363.70532200000002
 40
2.9492699999999998
 50
52.792926000000001
 51
213.78856800000003
  0
LINE
  8
_0-0_0
  6
CONTINUOUS
 62
    7
 10
482.7042909999999
 20
357.60961900000001
 11
472.58832399999994
 21
368.34787599999999
  0
LINE
  8
_0-0_0
  6
CONTINUOUS
 62
    7
 10
490.26243899999997
 20
342.51638800000001
 11
468.08859199999995
 21
366.05428499999999
  0
ARC
  8
_0-0_0
  6
CONTINUOUS
 62
    7
 10
450.98817099999997
 20
362.75808699999999
 40
2.644365999999998
 50
82.681345999999976
 51
204.84975
  0
ARC
  8
_0-0_0
  6
CONTINUOUS
 62
    7
 10
697.88973999999996
 20
153.11569800000009
 40
293.61750499999999
 50
133.26470900000004
 51
136.49429500000005
  0
ARC
  8
_0-0_0
  6
CONTINUOUS
 62
    7
 10
465.22012899999993
 20
371.72935199999995
 40
17.055420000000002
 50
323.57357300000001
 51
357.55720700000001
  0
ARC
  8
_0-0_0
  6
CONTINUOUS
 62
    7
 10
637.01810899999987
 20
217.34599599999999
 40
213.66665
 50
133.48250999999999
 51
137.62385800000004
  0
ARC
  8
_0-0_0
  6
CONTINUOUS
 62
    7
 10
450.6993829999999
 20
365.40263099999999
 40
14.544014000000001
 50
172.40098199999997
 51
217.93916499999997
  0
LINE
  8
_0-0_0
  6
CONTINUOUS
 62
    7
 10
446.48811599999993
 20
363.91986699999995
 11
437.28683799999993
 21
364.982617
  0
ARC
  8
_0-0_0
  6
CONTINUOUS
 62
    7
 10
497.22548199999994
 20
330.863269
 40
6.9056240000000004
 50
68.045131000000012
 51
141.64520099999999
  0
ARC
  8
_0-0_0
  6
CONTINUOUS
 62
    7
 10
488.38445399999995
 20
330.461456
 40
18.233443000000001
 50
257.455894
 51
344.09405699999991
  0
ARC
  8
_0-0_0
  6
CONTINUOUS
 62
    7
 10
526.16973299999995
 20
320.473051
 40
55.037762000000001
 50
109.68365100000001
 51
122.43192000000003
  0
ARC
  8
_0-0_0
  6
CONTINUOUS
 62
    7
 10
506.15544999999997
 20
383.32091699999995
 40
9.8567569999999982
 50
117.2196379999999
 51
154.119339
  0
ARC
  8
_0-0_0
  6
CONTINUOUS
 62
    7
 10
497.25277699999992
 20
334.86616800000002
 40
15.112621000000001
 50
76.649325000000005
 51
113.947868
  0
ARC
  8
_0-0_0
  6
CONTINUOUS
 62
    7
 10
499.14546499999994
 20
323.14954799999998
 40
34.225850999999999
 50
60.644519000000003
 51
113.368921
  0
LINE
  8
_0-0_0
  6
CONTINUOUS
 62
    7
 10
510.63190299999997
 20
386.06615599999998
 11
494.87625699999995
 21
371.08912999999995
  0
LINE
  8
_0-0_0
  6
CONTINUOUS
 62
    7
 10
499.44540399999994
 20
376.68140900000003
 11
497.86982999999992
 21
382.72364499999998
  0
LINE
  8
_0-0_0
  6
CONTINUOUS
 62
    7
 10
498.65761099999997
 20
372.11758999999995
 11
500.70584099999996
 21
370.31778000000003
  0
LINE
  8
_0-0_0
  6
CONTINUOUS
 62
    7
 10
492.04024699999991
 20
329.69340199999999
 11
499.68173199999995
 21
334.25721699999997
  0
LINE
  8
_0-0_0
  6
CONTINUOUS
 62
    7
 10
494.87625699999995
 20
329.69340199999999
 11
502.20264299999997
 21
332.77879899999999
  0
LINE
  8
_0-0_0
  6
CONTINUOUS
 62
    7
 10
495.90037799999993
 20
328.21498399999996
 11
502.20264299999997
 21
328.986334
  0
LINE
  8
_0-0_0
  6
CONTINUOUS
 62
    7
 10
492.82803899999993
 20
325.64382000000001
 11
502.99042399999996
 21
322.87982199999999
  0
LINE
  8
_0-0_0
  6
CONTINUOUS
 62
    7
 10
544.99974999999995
 20
296.487595
 11
544.99974999999995
 21
297.51241199999998
  0
LINE
  8
_0-0_0
  6
CONTINUOUS
 62
    7
 10
542.04434199999992
 20
290.17867799999999
 11
544.90286199999991
 21
290.419963
  0
LINE
  8
_0-0_0
  6
CONTINUOUS
 62
    7
 10
544.82943699999987
 20
289.44428299999998
 11
540.94150999999988
 21
289.682209
  0
LINE
  8
_0-0_0
  6
CONTINUOUS
 62
    7
 10
538.50768399999993
 20
291.41985099999999
 11
542.04434199999992
 21
290.17867799999999
  0
LINE
  8
_0-0_0
  6
CONTINUOUS
 62
    7
 10
537.01538699999992
 20
297.51241199999998
 11
537.01538699999992
 21
296.487595
  0
LINE
  8
_0-0_0
  6
CONTINUOUS
 62
    7
 10
540.94150999999988
 20
289.682209
 11
536.84876099999997
 21
291.1549
  0
LINE
  8
_0-0_0
  6
CONTINUOUS
 62
    7
 10
536.93480799999998
 20
292.533388
 11
538.50768399999993
 21
291.41985099999999
  0
LINE
  8
_0-0_0
  6
CONTINUOUS
 62
    7
 10
541.34053299999994
 20
273.74629800000002
 11
539.38236699999993
 21
274.50887399999999
  0
LINE
  8
_0-0_0
  6
CONTINUOUS
 62
    7
 10
534.41329899999994
 20
277.78772100000003
 11
536.68234199999995
 21
276.96019000000001
  0
LINE
  8
_0-0_0
  6
CONTINUOUS
 62
    7
 10
536.68234199999995
 20
276.96019000000001
 11
542.18336799999997
 21
276.18796399999997
  0
LINE
  8
_0-0_0
  6
CONTINUOUS
 62
    7
 10
539.38236699999993
 20
274.50887399999999
 11
534.04288899999995
 21
276.57832299999995
  0
ARC
  8
_0-0_0
  6
CONTINUOUS
 62
    7
 10
473.42291299999999
 20
295.80553899999995
 40
63.596117999999997
 50
341.06530500000002
 51
0.6144980000000441
  0
LINE
  8
_0-0_0
  6
CONTINUOUS
 62
    7
 10
502.20264299999997
 20
266.813489
 11
503.77819199999993
 21
267.84195199999999
  0
LINE
  8
_0-0_0
  6
CONTINUOUS
 62
    7
 10
502.75408299999992
 20
269.38464999999997
 11
499.68173199999995
 21
269.38464999999997
  0
LINE
  8
_0-0_0
  6
CONTINUOUS
 62
    7
 10
499.20906399999996
 20
272.66288399999996
 11
499.44540399999994
 21
274.46269799999999
  0
LINE
  8
_0-0_0
  6
CONTINUOUS
 62
    7
 10
534.76832899999999
 20
260.96544799999998
 11
534.59076499999992
 21
261.04215099999999
  0
LINE
  8
_0-0_0
  6
CONTINUOUS
 62
    7
 10
535.42741099999989
 20
262.25229200000001
 11
535.60407099999998
 21
262.23240999999996
  0
LINE
  8
_0-0_0
  6
CONTINUOUS
 62
    7
 10
531.51046699999995
 20
264.331256
 11
533.98232999999993
 21
263.12111199999998
  0
LINE
  8
_0-0_0
  6
CONTINUOUS
 62
    7
 10
533.98232999999993
 20
263.12111199999998
 11
535.42741099999989
 21
262.25229200000001
  0
LINE
  8
_0-0_0
  6
CONTINUOUS
 62
    7
 10
534.59076499999992
 20
261.04215099999999
 11
532.15693999999996
 21
262.62464599999998
  0
LINE
  8
_0-0_0
  6
CONTINUOUS
 62
    7
 10
528.46819499999992
 20
264.45537400000001
 11
527.71362899999997
 21
264.40406499999995
  0
LINE
  8
_0-0_0
  6
CONTINUOUS
 62
    7
 10
530.29356099999995
 20
263.95890499999996
 11
529.57102699999996
 21
264.331256
  0
LINE
  8
_0-0_0
  6
CONTINUOUS
 62
    7
 10
529.57102699999996
 20
264.331256
 11
528.46819499999992
 21
264.45537400000001
  0
LINE
  8
_0-0_0
  6
CONTINUOUS
 62
    7
 10
529.57102699999996
 20
265.69654800000001
 11
531.51046699999995
 21
264.331256
  0
LINE
  8
_0-0_0
  6
CONTINUOUS
 62
    7
 10
532.15693999999996
 20
262.62464599999998
 11
530.29356099999995
 21
263.95890499999996
  0
LINE
  8
_0-0_0
  6
CONTINUOUS
 62
    7
 10
527.25127599999996
 20
251.73335599999999
 11
527.36986699999989
 21
251.73026099999998
  0
LINE
  8
_0-0_0
  6
CONTINUOUS
 62
    7
 10
525.93843399999992
 20
250.12480199999999
 11
525.38789699999995
 21
250.988654
  0
LINE
  8
_0-0_0
  6
CONTINUOUS
 62
    7
 10
526.14844399999993
 20
252.19879500000002
 11
527.25127599999996
 21
251.73335599999999
  0
LINE
  8
_0-0_0
  6
CONTINUOUS
 62
    7
 10
521.56218899999999
 20
256.87239699999998
 11
521.62308999999993
 21
256.13952
  0
LINE
  8
_0-0_0
  6
CONTINUOUS
 62
    7
 10
521.96533799999997
 20
254.30878899999999
 11
520.3576599999999
 21
255.51769100000001
  0
LINE
  8
_0-0_0
  6
CONTINUOUS
 62
    7
 10
521.62308999999993
 20
256.13952
 11
523.44843100000003
 21
254.898346
  0
LINE
  8
_0-0_0
  6
CONTINUOUS
 62
    7
 10
523.44843100000003
 20
254.898346
 11
524.55126299999995
 21
253.68820200000002
  0
LINE
  8
_0-0_0
  6
CONTINUOUS
 62
    7
 10
523.56252999999992
 20
253.31584800000002
 11
521.96533799999997
 21
254.30878899999999
  0
LINE
  8
_0-0_0
  6
CONTINUOUS
 62
    7
 10
512.1712829999999
 20
247.80844400000001
 11
513.25682999999992
 21
244.999988
  0
ARC
  8
_0-0_0
  6
CONTINUOUS
 62
    7
 10
506.41740099999993
 20
257.92136199999999
 40
19.392019999999999
 50
299.35549800000001
 51
313.110679
  0
LINE
  8
_0-0_0
  6
CONTINUOUS
 62
    7
 10
513.25682999999992
 20
244.999988
 11
516.83150000000001
 21
241.05926499999998
  0
LINE
  8
_0-0_0
  6
CONTINUOUS
 62
    7
 10
515.20005500000002
 20
240.623651
 11
513.52304099999992
 21
242.889996
  0
LINE
  8
_0-0_0
  6
CONTINUOUS
 62
    7
 10
501.70029899999997
 20
244.504999
 11
501.77225899999996
 21
241.80397299999998
  0
LINE
  8
_0-0_0
  6
CONTINUOUS
 62
    7
 10
501.13300199999992
 20
236.682355
 11
500.02285799999993
 21
244.27725799999999
  0
LINE
  8
_0-0_0
  6
CONTINUOUS
 62
    7
 10
501.77225899999996
 20
241.80397299999998
 11
503.51543599999991
 21
236.90472399999999
  0
ARC
  8
_0-0_0
  6
CONTINUOUS
 62
    7
 10
499.14546499999994
 20
270.850458
 40
26.469042999999999
 50
273.45897200000002
 51
299.35544300000015
  0
LINE
  8
_0-0_0
  6
CONTINUOUS
 62
    7
 10
513.52304099999992
 20
242.889996
 11
510.51862199999994
 21
246.94937699999997
  0
ARC
  8
_0-0_0
  6
CONTINUOUS
 62
    7
 10
443.85370799999993
 20
324.75345500000003
 40
103.18161600000001
 50
313.110679
 51
320.91466200000025
  0
ARC
  8
_0-0_0
  6
CONTINUOUS
 62
    7
 10
506.41740099999993
 20
257.92136199999999
 40
11.635204
 50
299.35541599999999
 51
313.11070699999999
  0
ARC
  8
_0-0_0
  6
CONTINUOUS
 62
    7
 10
443.85370799999993
 20
324.75345500000003
 40
110.938428
 50
313.11065200000002
 51
320.813084
  0
LINE
  8
_0-0_0
  6
CONTINUOUS
 62
    7
 10
524.55126299999995
 20
253.68820200000002
 11
526.14844399999993
 21
252.19879500000002
  0
LINE
  8
_0-0_0
  6
CONTINUOUS
 62
    7
 10
525.38789699999995
 20
250.988654
 11
523.56252999999992
 21
253.31584800000002
  0
ARC
  8
_0-0_0
  6
CONTINUOUS
 62
    7
 10
496.31016199999993
 20
266.027399
 40
9.9315770000000008
 50
290.61741800000004
 51
14.628284000000027
  0
ARC
  8
_0-0_0
  6
CONTINUOUS
 62
    7
 10
485.4550109999999
 20
294.403659
 40
59.581182999999982
 50
318.15600400000005
 51
2.0044100000000489
  0
ARC
  8
_0-0_0
  6
CONTINUOUS
 62
    7
 10
485.4550109999999
 20
294.403659
 40
51.824370999999999
 50
317.960442
 51
338.21361899999999
  0
LINE
  8
_0-0_0
  6
CONTINUOUS
 62
    7
 10
528.95248399999991
 20
266.23034999999999
 11
529.57102699999996
 21
265.69654800000001
  0
LINE
  8
_0-0_0
  6
CONTINUOUS
 62
    7
 10
501.17852199999993
 20
219.37552499999998
 11
505.03865299999995
 21
221.62528699999999
  0
ARC
  8
_0-0_0
  6
CONTINUOUS
 62
    7
 10
504.61824299999995
 20
211.15785500000001
 40
10.969372999999999
 50
37.003298000000001
 51
74.055751999999998
  0
ARC
  8
_0-0_0
  6
CONTINUOUS
 62
    7
 10
504.01948799999991
 20
210.30674399999998
 40
8.7217719999999996
 50
254.21516000000008
 51
297.36042700000007
  0
LINE
  8
_0-0_0
  6
CONTINUOUS
 62
    7
 10
502.99042399999996
 20
213.52612899999997
 11
501.17852199999993
 21
206.45542599999999
  0
LINE
  8
_0-0_0
  6
CONTINUOUS
 62
    7
 10
507.32319899999993
 20
209.99077800000003
 11
505.74764999999991
 21
204.39849899999999
  0
ARC
  8
_0-0_0
  6
CONTINUOUS
 62
    7
 10
503.28683499999994
 20
213.33712199999999
 40
11.773273
 50
293.74687499999999
 51
342.70425
  0
LINE
  8
_0-0_0
  6
CONTINUOUS
 62
    7
 10
509.05634099999997
 20
211.53347199999999
 11
513.86178599999994
 21
213.52612899999997
  0
ARC
  8
_0-0_0
  6
CONTINUOUS
 62
    7
 10
503.83464999999995
 20
212.330536
 40
10.980009000000001
 50
346.87309700000009
 51
29.635182999999905
  0
LINE
  8
_0-0_0
  6
CONTINUOUS
 62
    7
 10
505.51130999999992
 20
215.583057
 11
510.63190299999997
 21
218.347058
  0
LINE
  8
_0-0_0
  6
CONTINUOUS
 62
    7
 10
497.39717399999995
 20
275.94111599999997
 11
494.87625699999995
 21
274.65553599999998
  0
ARC
  8
_0-0_0
  6
CONTINUOUS
 62
    7
 10
487.86610099999996
 20
266.76732800000002
 40
2.5295149999999991
 50
347.22755599999999
 51
105.85766000000001
  0
LINE
  8
_0-0_0
  6
CONTINUOUS
 62
    7
 10
491.33124999999995
 20
270.605954
 11
497.63351399999993
 21
272.66288399999996
  0
LINE
  8
_0-0_0
  6
CONTINUOUS
 62
    7
 10
491.80391799999995
 20
273.43423200000001
 11
495.34893799999998
 21
278.51228000000003
  0
LINE
  8
_0-0_0
  6
CONTINUOUS
 62
    7
 10
489.28301399999998
 20
271.63441799999998
 11
490.30713499999996
 21
279.28363000000002
  0
LINE
  8
_0-0_0
  6
CONTINUOUS
 62
    7
 10
486.76212799999996
 20
272.14865099999997
 11
486.52578699999992
 21
275.94111599999997
  0
LINE
  8
_0-0_0
  6
CONTINUOUS
 62
    7
 10
480.38109099999997
 20
274.46269799999999
 11
481.40521199999995
 21
277.22669999999999
  0
LINE
  8
_0-0_0
  6
CONTINUOUS
 62
    7
 10
483.45342999999997
 20
269.38464999999997
 11
479.90842299999991
 21
273.17711599999996
  0
LINE
  8
_0-0_0
  6
CONTINUOUS
 62
    7
 10
481.64153999999996
 20
269.64176900000001
 11
480.38109099999997
 21
271.37730399999998
  0
ARC
  8
_0-0_0
  6
CONTINUOUS
 62
    7
 10
491.67368799999997
 20
263.49823900000001
 40
19.255279999999999
 50
112.116298
 51
153.847443
  0
LINE
  8
_0-0_0
  6
CONTINUOUS
 62
    7
 10
485.18655999999993
 20
271.12018399999999
 11
483.21710199999995
 21
277.22669999999999
  0
LINE
  8
_0-0_0
  6
CONTINUOUS
 62
    7
 10
478.64796699999994
 20
272.92000099999996
 11
479.1206479999999
 21
275.42688399999997
  0
LINE
  8
_0-0_0
  6
CONTINUOUS
 62
    7
 10
447.5805049999999
 20
274.33842600000003
 11
450.56357999999989
 21
275.70971199999997
  0
LINE
  8
_0-0_0
  6
CONTINUOUS
 62
    7
 10
454.89111899999995
 20
267.03632199999998
 11
458.92456699999997
 21
268.64758599999999
  0
LINE
  8
_0-0_0
  6
CONTINUOUS
 62
    7
 10
452.83238499999993
 20
269.19609700000001
 11
457.87418199999991
 21
271.35587499999997
  0
ARC
  8
_0-0_0
  6
CONTINUOUS
 62
    7
 10
451.12781999999993
 20
268.69255699999997
 40
7.7568080000000004
 50
25.204972000000001
 51
75.099474000000001
  0
LINE
  8
_0-0_0
  6
CONTINUOUS
 62
    7
 10
450.01737099999991
 20
271.90439099999998
 11
454.89111899999995
 21
274.064168
  0
ARC
  8
_0-0_0
  6
CONTINUOUS
 62
    7
 10
487.81133399999993
 20
253.12379800000002
 40
2.9492699999999998
 50
326.21122800000012
 51
127.20704099999998
  0
LINE
  8
_0-0_0
  6
CONTINUOUS
 62
    7
 10
493.37948599999993
 20
261.73543999999998
 11
496.92449299999993
 21
257.428741
  0
ARC
  8
_0-0_0
  6
CONTINUOUS
 62
    7
 10
482.55207499999995
 20
257.08522000000005
 40
1.229767999999998
 50
36.346879000000001
 51
146.36680100000001
  0
LINE
  8
_0-0_0
  6
CONTINUOUS
 62
    7
 10
473.89882799999992
 20
249.66769399999998
 11
473.99546499999997
 21
249.770264
  0
LINE
  8
_0-0_0
  6
CONTINUOUS
 62
    7
 10
486.02791699999995
 20
255.47276299999999
 11
483.54257799999999
 21
257.81406600000003
  0
ARC
  8
_0-0_0
  6
CONTINUOUS
 62
    7
 10
491.55241699999993
 20
248.09114099999999
 40
1.5918060000000001
 50
322.79572400000001
 51
41.327862999999986
  0
LINE
  8
_0-0_0
  6
CONTINUOUS
 62
    7
 10
485.41301899999991
 20
239.26574099999999
 11
485.34243799999996
 21
239.19080799999998
  0
LINE
  8
_0-0_0
  6
CONTINUOUS
 62
    7
 10
479.99556299999995
 20
233.515027
 11
480.06614999999994
 21
233.58995400000001
  0
LINE
  8
_0-0_0
  6
CONTINUOUS
 62
    7
 10
482.7042909999999
 20
236.39038699999998
 11
492.82026400000001
 21
247.12864400000001
  0
LINE
  8
_0-0_0
  6
CONTINUOUS
 62
    7
 10
492.74777799999993
 20
249.14232199999998
 11
490.26243899999997
 21
251.483621
  0
LINE
  8
_0-0_0
  6
CONTINUOUS
 62
    7
 10
458.25231899999994
 20
261.20835299999999
 11
458.25231899999994
 21
257.95154400000001
  0
LINE
  8
_0-0_0
  6
CONTINUOUS
 62
    7
 10
456.48768299999995
 20
263.09386899999998
 11
456.36164499999995
 21
258.50006100000002
  0
LINE
  8
_0-0_0
  6
CONTINUOUS
 62
    7
 10
454.05081799999994
 20
265.56218899999999
 11
454.34492799999998
 21
259.04857500000003
  0
ARC
  8
_0-0_0
  6
CONTINUOUS
 62
    7
 10
415.75639499999994
 20
188.737134
 40
78.790576000000001
 50
57.516292000000007
 51
65.983772999999999
  0
ARC
  8
_0-0_0
  6
CONTINUOUS
 62
    7
 10
458.92139299999997
 20
260.61364700000001
 40
3.8051709999999979
 50
244.76469200000003
 51
39.246540000000032
  0
LINE
  8
_0-0_0
  6
CONTINUOUS
 62
    7
 10
459.09260899999992
 20
262.44251099999997
 11
461.23537599999992
 21
263.09386899999998
  0
LINE
  8
_0-0_0
  6
CONTINUOUS
 62
    7
 10
457.87418199999991
 20
264.05377199999998
 11
460.81523999999996
 21
265.42505799999998
  0
LINE
  8
_0-0_0
  6
CONTINUOUS
 62
    7
 10
468.92557399999993
 20
244.38850099999999
 11
468.82894299999992
 21
244.28592499999999
  0
ARC
  8
_0-0_0
  6
CONTINUOUS
 62
    7
 10
462.03720699999997
 20
235.30836199999999
 40
1.229767999999998
 50
127.05166800000002
 51
237.07198700000001
  0
LINE
  8
_0-0_0
  6
CONTINUOUS
 62
    7
 10
461.29622799999993
 20
236.28983199999999
 11
471.41220099999992
 21
247.02809400000001
  0
LINE
  8
_0-0_0
  6
CONTINUOUS
 62
    7
 10
448.67289999999991
 20
234.81107199999997
 11
447.95863599999996
 21
239.027783
  0
ARC
  8
_0-0_0
  6
CONTINUOUS
 62
    7
 10
457.84340799999995
 20
228.44774200000001
 40
9.7396039999999982
 50
63.810693999999998
 51
111.58903500000001
  0
ARC
  8
_0-0_0
  6
CONTINUOUS
 62
    7
 10
416.27148299999993
 20
200.86216400000001
 40
68.555847
 50
39.603871999999988
 51
52.430441000000009
  0
ARC
  8
_0-0_0
  6
CONTINUOUS
 62
    7
 10
644.91542399999992
 20
419.50131799999997
 40
240.52145999999999
 50
221.32851000000002
 51
224.79719400000002
  0
LINE
  8
_0-0_0
  6
CONTINUOUS
 62
    7
 10
481.52817399999992
 20
257.76635399999998
 11
471.41220099999992
 21
247.02809400000001
  0
ARC
  8
_0-0_0
  6
CONTINUOUS
 62
    7
 10
506.08424699999995
 20
265.54436599999997
 40
15.765188999999999
 50
177.587063
 51
205.12081200000006
  0
ARC
  8
_0-0_0
  6
CONTINUOUS
 62
    7
 10
494.71652199999994
 20
261.90090899999996
 40
22.690816999999999
 50
153.61353600000001
 51
209.36469600000004
  0
ARC
  8
_0-0_0
  6
CONTINUOUS
 62
    7
 10
488.12086799999992
 20
261.56393700000001
 40
7.6950070000000004
 50
97.061277000000032
 51
210.13775000000001
  0
ARC
  8
_0-0_0
  6
CONTINUOUS
 62
    7
 10
559.3736879999999
 20
319.64069799999999
 40
111.8796389999999
 50
205.20498800000004
 51
211.81095500000006
  0
LINE
  8
_0-0_0
  6
CONTINUOUS
 62
    7
 10
451.78200699999991
 20
267.99622199999999
 11
451.48790899999995
 21
261.07122199999998
  0
LINE
  8
_0-0_0
  6
CONTINUOUS
 62
    7
 10
449.17708099999993
 20
270.70451700000001
 11
448.79894399999995
 21
261.89399400000002
  0
LINE
  8
_0-0_0
  6
CONTINUOUS
 62
    7
 10
444.84953599999994
 20
276.49820199999999
 11
446.61415999999997
 21
277.45810399999999
  0
ARC
  8
_0-0_0
  6
CONTINUOUS
 62
    7
 10
442.16839899999991
 20
278.326189
 40
1.9392020000000001
 50
62.917804000000011
 51
198.711691
  0
ARC
  8
_0-0_0
  6
CONTINUOUS
 62
    7
 10
355.97536299999996
 20
249.131699
 40
89.063855000000004
 50
11.112261000000002
 51
18.711784999999999
  0
LINE
  8
_0-0_0
  6
CONTINUOUS
 62
    7
 10
444.05124799999993
 20
275.16119700000002
 11
443.63109699999995
 21
271.35587499999997
  0
ARC
  8
_0-0_0
  6
CONTINUOUS
 62
    7
 10
397.83160599999997
 20
278.326189
 40
1.9392020000000001
 50
341.28818799999999
 51
117.08220100000004
  0
ARC
  8
_0-0_0
  6
CONTINUOUS
 62
    7
 10
484.02463399999993
 20
249.131699
 40
89.063855000000004
 50
161.28821000000002
 51
168.88773800000004
  0
LINE
  8
_0-0_0
  6
CONTINUOUS
 62
    7
 10
395.94875499999995
 20
275.16119700000002
 11
396.36890799999992
 21
271.35587499999997
  0
LINE
  8
_0-0_0
  6
CONTINUOUS
 62
    7
 10
439.84974699999992
 20
235.359589
 11
442.41265599999997
 21
235.22246099999998
  0
ARC
  8
_0-0_0
  6
CONTINUOUS
 62
    7
 10
480.48436299999997
 20
205.37769799999998
 40
52.310375999999998
 50
131.59450899999999
 51
142.06085899999999
  0
LINE
  8
_0-0_0
  6
CONTINUOUS
 62
    7
 10
446.23602299999993
 20
240.63904400000001
 11
444.72348299999999
 21
242.421716
  0
LINE
  8
_0-0_0
  6
CONTINUOUS
 62
    7
 10
400.15025699999995
 20
235.359589
 11
397.58733599999994
 21
235.22246099999998
  0
LINE
  8
_0-0_0
  6
CONTINUOUS
 62
    7
 10
446.36207599999994
 20
273.00142199999999
 11
445.68982799999992
 21
264.60228899999998
  0
ARC
  8
_0-0_0
  6
CONTINUOUS
 62
    7
 10
457.02580599999993
 20
225.12587299999998
 40
22.411373999999999
 50
58.41451
 51
120.183886
  0
ARC
  8
_0-0_0
  6
CONTINUOUS
 62
    7
 10
450.98078599999997
 20
267.79213299999998
 40
7.7568080000000004
 50
191.11224500000006
 51
245.98371700000007
  0
ARC
  8
_0-0_0
  6
CONTINUOUS
 62
    7
 10
466.19311499999992
 20
325.31016499999998
 40
50.830874999999999
 50
242.91758999999999
 51
255.09950599999999
  0
LINE
  8
_0-0_0
  6
CONTINUOUS
 62
    7
 10
460.13511999999997
 20
260.19274300000001
 11
442.56758999999994
 21
277.74093199999999
  0
LINE
  8
_0-0_0
  6
CONTINUOUS
 62
    7
 10
448.12669699999992
 20
234.43397199999998
 11
442.58072799999991
 21
239.30203899999998
  0
ARC
  8
_0-0_0
  6
CONTINUOUS
 62
    7
 10
495.50649999999996
 20
222.69056999999998
 40
3.868641999999999
 50
46.183543000000014
 51
221.11075
  0
ARC
  8
_0-0_0
  6
CONTINUOUS
 62
    7
 10
465.22012899999993
 20
222.27064799999999
 40
17.055420000000002
 50
2.4427970000000001
 51
36.426423
  0
ARC
  8
_0-0_0
  6
CONTINUOUS
 62
    7
 10
459.49673499999994
 20
220.36636999999999
 40
15.154030000000001
 50
7.5826110000000009
 51
23.776754000000004
  0
ARC
  8
_0-0_0
  6
CONTINUOUS
 62
    7
 10
637.01810899999987
 20
376.65400399999999
 40
213.66665
 50
222.376138
 51
226.51748599999999
  0
ARC
  8
_0-0_0
  6
CONTINUOUS
 62
    7
 10
458.96054699999991
 20
203.865881
 40
36.761910999999998
 50
13.202875000000002
 51
18.914245000000001
  0
ARC
  8
_0-0_0
  6
CONTINUOUS
 62
    7
 10
465.21096799999992
 20
196.04221200000001
 40
33.699990999999997
 50
17.858025000000001
 51
28.770871000000021
  0
LINE
  8
_0-0_0
  6
CONTINUOUS
 62
    7
 10
478.09652699999992
 20
211.01924399999999
 11
473.59827899999993
 21
211.92178999999999
  0
LINE
  8
_0-0_0
  6
CONTINUOUS
 62
    7
 10
480.84109499999994
 20
209.12433499999997
 11
478.09652699999992
 21
211.01924399999999
  0
LINE
  8
_0-0_0
  6
CONTINUOUS
 62
    7
 10
481.65098299999994
 20
211.90340599999999
 11
474.27718499999997
 21
214.46864599999998
  0
ARC
  8
_0-0_0
  6
CONTINUOUS
 62
    7
 10
479.97877799999992
 20
211.067871
 40
14.544014000000001
 50
18.914238000000001
 51
46.517515999999993
  0
LINE
  8
_0-0_0
  6
CONTINUOUS
 62
    7
 10
496.60937499999994
 20
220.661102
 11
495.34893799999998
 21
216.35440699999995
  0
LINE
  8
_0-0_0
  6
CONTINUOUS
 62
    7
 10
470.57390699999996
 20
225.60441900000001
 11
468.08859199999995
 21
227.94571500000001
  0
ARC
  8
_0-0_0
  6
CONTINUOUS
 62
    7
 10
471.55193499999996
 20
226.86032699999998
 40
1.5918060000000001
 50
232.09064799999999
 51
310.62279699999999
  0
ARC
  8
_0-0_0
  6
CONTINUOUS
 62
    7
 10
466.30517599999996
 20
230.294678
 40
2.9492699999999998
 50
146.21144200000001
 51
307.20707400000003
  0
ARC
  8
_0-0_0
  6
CONTINUOUS
 62
    7
 10
450.98817099999997
 20
231.24191299999998
 40
2.644365999999998
 50
155.150261
 51
277.31865800000003
  0
ARC
  8
_0-0_0
  6
CONTINUOUS
 62
    7
 10
451.64038699999992
 20
218.38575400000002
 40
10.238194999999999
 50
45.235271000000012
 51
91.765100999999987
  0
LINE
  8
_0-0_0
  6
CONTINUOUS
 62
    7
 10
455.56335399999995
 20
222.09238299999998
 11
457.45402799999994
 21
217.63569900000002
  0
LINE
  8
_0-0_0
  6
CONTINUOUS
 62
    7
 10
456.10954599999997
 20
225.48631599999999
 11
458.37835699999994
 21
221.71527699999999
  0
LINE
  8
_0-0_0
  6
CONTINUOUS
 62
    7
 10
452.83238499999993
 20
226.03483299999999
 11
452.03409999999997
 21
216.71008299999997
  0
ARC
  8
_0-0_0
  6
CONTINUOUS
 62
    7
 10
452.77120999999994
 20
221.14352399999999
 40
7.570041999999999
 50
286.23047000000003
 51
36.580635000000008
  0
LINE
  8
_0-0_0
  6
CONTINUOUS
 62
    7
 10
449.05103799999995
 20
215.06453899999997
 11
451.23581499999989
 21
222.22951699999999
  0
LINE
  8
_0-0_0
  6
CONTINUOUS
 62
    7
 10
453.67268099999995
 20
222.64089999999999
 11
455.43731699999995
 21
214.79028299999999
  0
ARC
  8
_0-0_0
  6
CONTINUOUS
 62
    7
 10
451.75399199999993
 20
219.108563
 40
22.996148999999999
 50
319.28713800000003
 51
8.1434899999999786
  0
LINE
  8
_0-0_0
  6
CONTINUOUS
 62
    7
 10
464.61423299999996
 20
188.912927
 11
460.16664999999995
 21
195.288196
  0
LINE
  8
_0-0_0
  6
CONTINUOUS
 62
    7
 10
462.31044899999995
 20
187.15747099999999
 11
457.58207999999996
 21
193.309619
  0
LINE
  8
_0-0_0
  6
CONTINUOUS
 62
    7
 10
451.28701799999993
 20
180.49569099999999
 11
450.20906999999994
 21
183.057849
  0
LINE
  8
_0-0_0
  6
CONTINUOUS
 62
    7
 10
452.91611299999994
 20
181.319568
 11
448.43670599999996
 21
187.740466
  0
ARC
  8
_0-0_0
  6
CONTINUOUS
 62
    7
 10
418.96295499999997
 20
246.43444199999999
 40
73.435455000000019
 50
292.76010299999996
 51
319.84699400000011
  0
ARC
  8
_0-0_0
  6
CONTINUOUS
 62
    7
 10
451.75399199999993
 20
219.108563
 40
30.752960000000002
 50
319.36478299999999
 51
7.2650800000000109
  0
LINE
  8
_0-0_0
  6
CONTINUOUS
 62
    7
 10
472.42793599999993
 20
196.093018
 11
467.52897899999994
 21
202.21876799999998
  0
LINE
  8
_0-0_0
  6
CONTINUOUS
 62
    7
 10
474.16110199999991
 20
197.99964599999998
 11
468.62805199999997
 21
203.456976
  0
LINE
  8
_0-0_0
  6
CONTINUOUS
 62
    7
 10
446.74020999999993
 20
232.788422
 11
441.61437999999993
 21
230.902905
  0
LINE
  8
_0-0_0
  6
CONTINUOUS
 62
    7
 10
446.48811599999993
 20
230.08013300000002
 11
437.28683799999993
 21
229.017383
  0
LINE
  8
_0-0_0
  6
CONTINUOUS
 62
    7
 10
441.06818799999996
 20
226.30909399999999
 11
438.63130799999993
 21
225.62344999999999
  0
LINE
  8
_0-0_0
  6
CONTINUOUS
 62
    7
 10
445.1436369999999
 20
221.30389399999999
 11
442.95886199999995
 21
217.498572
  0
LINE
  8
_0-0_0
  6
CONTINUOUS
 62
    7
 10
444.34534899999994
 20
226.85760500000001
 11
439.72370599999994
 21
222.503772
  0
ARC
  8
_0-0_0
  6
CONTINUOUS
 62
    7
 10
451.71743199999992
 20
228.73318499999999
 40
15.571075
 50
187.59899999999993
 51
234.78502100000003
  0
LINE
  8
_0-0_0
  6
CONTINUOUS
 62
    7
 10
398.93181699999991
 20
226.30909399999999
 11
401.36869699999994
 21
225.62344999999999
  0
LINE
  8
_0-0_0
  6
CONTINUOUS
 62
    7
 10
395.65465599999993
 20
226.85760500000001
 11
400.27629799999994
 21
222.503772
  0
ARC
  8
_0-0_0
  6
CONTINUOUS
 62
    7
 10
388.28257499999995
 20
228.73318499999999
 40
15.571075
 50
305.21498100000002
 51
352.40098699999999
  0
LINE
  8
_0-0_0
  6
CONTINUOUS
 62
    7
 10
442.88270899999998
 20
179.52249799999998
 11
441.07081599999992
 21
183.57208199999999
  0
LINE
  8
_0-0_0
  6
CONTINUOUS
 62
    7
 10
442.6975829999999
 20
176.976257
 11
442.88270899999998
 21
178.751147
  0
LINE
  8
_0-0_0
  6
CONTINUOUS
 62
    7
 10
440.97677899999996
 20
176.434167
 11
439.44241299999993
 21
183.72819799999999
  0
LINE
  8
_0-0_0
  6
CONTINUOUS
 62
    7
 10
428.09160799999995
 20
173.924487
 11
427.65803199999993
 21
180.89907199999999
  0
LINE
  8
_0-0_0
  6
CONTINUOUS
 62
    7
 10
426.10296599999992
 20
173.768835
 11
426.10296599999992
 21
180.74395699999999
  0
ARC
  8
_0-0_0
  6
CONTINUOUS
 62
    7
 10
421.88459799999998
 20
230.905316
 40
50.338433999999999
 50
269.99928999999997
 51
296.54886399999998
  0
LINE
  8
_0-0_0
  6
CONTINUOUS
 62
    7
 10
411.90839699999992
 20
173.924487
 11
412.34197099999994
 21
180.89907199999999
  0
LINE
  8
_0-0_0
  6
CONTINUOUS
 62
    7
 10
413.89703799999995
 20
173.768835
 11
413.89703799999995
 21
180.74395699999999
  0
LINE
  8
_0-0_0
  6
CONTINUOUS
 62
    7
 10
397.11729499999996
 20
179.52249799999998
 11
398.92920099999992
 21
183.57208199999999
  0
LINE
  8
_0-0_0
  6
CONTINUOUS
 62
    7
 10
397.30242099999998
 20
176.976257
 11
397.11729499999996
 21
178.751147
  0
LINE
  8
_0-0_0
  6
CONTINUOUS
 62
    7
 10
399.02322599999991
 20
176.434167
 11
400.55759099999995
 21
183.72819799999999
  0
LINE
  8
_0-0_0
  6
CONTINUOUS
 62
    7
 10
418.11602199999993
 20
173.63712200000001
 11
421.88398399999994
 21
173.63712200000001
  0
LINE
  8
_0-0_0
  6
CONTINUOUS
 62
    7
 10
421.88398399999994
 20
180.56689499999999
 11
418.11602199999993
 21
180.56689499999999
  0
ARC
  8
_0-0_0
  6
CONTINUOUS
 62
    7
 10
451.18323999999996
 20
228.422516
 40
15.011429
 50
235.767065
 51
284.2842490000001
  0
ARC
  8
_0-0_0
  6
CONTINUOUS
 62
    7
 10
421.92652299999997
 20
239.90941800000002
 40
66.272313999999994
 50
269.96322700000007
 51
292.57989600000008
  0
ARC
  8
_0-0_0
  6
CONTINUOUS
 62
    7
 10
418.96295499999997
 20
246.43444199999999
 40
65.678650000000005
 50
292.77108600000003
 51
319.87674700000002
  0
LINE
  8
_0-0_0
  6
CONTINUOUS
 62
    7
 10
447.95863599999996
 20
228.19461699999999
 11
440.8160949999999
 21
220.069739
  0
LINE
  8
_0-0_0
  6
CONTINUOUS
 62
    7
 10
449.34513499999991
 20
226.994733
 11
447.0343079999999
 21
222.64089999999999
  0
LINE
  8
_0-0_0
  6
CONTINUOUS
 62
    7
 10
450.68961799999994
 20
225.897705
 11
446.61415999999997
 21
217.77283299999999
  0
LINE
  8
_0-0_0
  6
CONTINUOUS
 62
    7
 10
448.71229199999993
 20
184.08630399999998
 11
446.68514999999991
 21
186.89316399999998
  0
ARC
  8
_0-0_0
  6
CONTINUOUS
 62
    7
 10
389.30062099999998
 20
228.59736899999999
 40
14.544014000000001
 50
352.40098699999999
 51
37.939157000000016
  0
LINE
  8
_0-0_0
  6
CONTINUOUS
 62
    7
 10
399.05786999999992
 20
231.72567700000002
 11
401.07458499999996
 21
233.61119400000001
  0
LINE
  8
_0-0_0
  6
CONTINUOUS
 62
    7
 10
397.04114199999992
 20
232.65129399999998
 11
396.62100199999998
 21
234.94819899999999
  0
LINE
  8
_0-0_0
  6
CONTINUOUS
 62
    7
 10
463.85404699999992
 20
231.93485699999999
 11
461.36872599999992
 21
234.27615399999999
  0
LINE
  8
_0-0_0
  6
CONTINUOUS
 62
    7
 10
482.7042909999999
 20
236.39038099999999
 11
472.58832399999994
 21
225.65212399999999
  0
LINE
  8
_0-0_0
  6
CONTINUOUS
 62
    7
 10
490.26243899999997
 20
251.483621
 11
468.08859199999995
 21
227.94571500000001
  0
LINE
  8
_0-0_0
  6
CONTINUOUS
 62
    7
 10
463.85404699999992
 20
231.93485699999999
 11
486.02791699999995
 21
255.47276299999999
  0
ARC
  8
_0-0_0
  6
CONTINUOUS
 62
    7
 10
460.46069299999994
 20
224.97949200000002
 40
13.975588999999999
 50
116.34005999999999
 51
148.15573700000002
  0
ARC
  8
_0-0_0
  6
CONTINUOUS
 62
    7
 10
697.88973999999996
 20
440.88431400000002
 40
293.61750499999999
 50
223.50571499999998
 51
226.73530100000002
  0
ARC
  8
_0-0_0
  6
CONTINUOUS
 62
    7
 10
450.6993829999999
 20
228.59736899999999
 40
14.544014000000001
 50
142.060845
 51
187.59901400000001
  0
LINE
  8
_0-0_0
  6
CONTINUOUS
 62
    7
 10
440.94213599999995
 20
231.72567700000002
 11
438.92541799999992
 21
233.61119400000001
  0
LINE
  8
_0-0_0
  6
CONTINUOUS
 62
    7
 10
442.95886199999995
 20
232.65129399999998
 11
443.37901599999998
 21
234.94819899999999
  0
ARC
  8
_0-0_0
  6
CONTINUOUS
 62
    7
 10
497.22548199999994
 20
263.13673699999998
 40
6.9056240000000004
 50
218.35479599999999
 51
291.95487900000001
  0
ARC
  8
_0-0_0
  6
CONTINUOUS
 62
    7
 10
488.38445399999995
 20
263.53854999999999
 40
18.233443000000001
 50
15.905935000000001
 51
102.54410899999991
  0
ARC
  8
_0-0_0
  6
CONTINUOUS
 62
    7
 10
526.16973299999995
 20
273.52695499999999
 40
55.037762000000001
 50
237.56807699999999
 51
250.31635199999999
  0
ARC
  8
_0-0_0
  6
CONTINUOUS
 62
    7
 10
506.15544999999997
 20
210.67908299999999
 40
9.8567569999999982
 50
205.88063000000005
 51
242.78033100000007
  0
ARC
  8
_0-0_0
  6
CONTINUOUS
 62
    7
 10
497.25277699999992
 20
259.13384099999996
 40
15.112621000000001
 50
246.05215500000006
 51
283.35067100000003
  0
ARC
  8
_0-0_0
  6
CONTINUOUS
 62
    7
 10
499.14546499999994
 20
270.850458
 40
34.225850999999999
 50
246.63108199999999
 51
299.35547100000002
  0
LINE
  8
_0-0_0
  6
CONTINUOUS
 62
    7
 10
510.63190299999997
 20
207.93385000000001
 11
494.87625699999995
 21
222.91086999999999
  0
LINE
  8
_0-0_0
  6
CONTINUOUS
 62
    7
 10
499.44540399999994
 20
217.318591
 11
497.86982999999992
 21
211.27635499999997
  0
LINE
  8
_0-0_0
  6
CONTINUOUS
 62
    7
 10
498.65761099999997
 20
221.88240999999999
 11
500.70584099999996
 21
223.68222699999998
  0
LINE
  8
_0-0_0
  6
CONTINUOUS
 62
    7
 10
492.04024699999991
 20
264.30660399999999
 11
499.68173199999995
 21
259.74279200000001
  0
LINE
  8
_0-0_0
  6
CONTINUOUS
 62
    7
 10
494.87625699999995
 20
264.30660399999999
 11
502.20264299999997
 21
261.22120699999999
  0
LINE
  8
_0-0_0
  6
CONTINUOUS
 62
    7
 10
495.90037799999993
 20
265.78502199999997
 11
502.20264299999997
 21
265.01367199999999
  0
LINE
  8
_0-0_0
  6
CONTINUOUS
 62
    7
 10
492.82803899999993
 20
268.35618599999998
 11
502.99042399999996
 21
271.12018399999999
  0
ARC
  8
_0-0_0
  6
CONTINUOUS
 62
    7
 10
485.4550109999999
 20
299.59634900000003
 40
59.581182999999982
 50
357.99559499999998
 51
41.844000000000001
  0
ARC
  8
_0-0_0
  6
CONTINUOUS
 62
    7
 10
473.42291299999999
 20
298.19446800000003
 40
63.596117999999997
 50
359.38551200000001
 51
18.934707999999997
  0
LINE
  8
_0-0_0
  6
CONTINUOUS
 62
    7
 10
391.28771699999993
 20
409.91370799999999
 11
393.31484799999998
 21
407.10684800000001
  0
LINE
  8
_0-0_0
  6
CONTINUOUS
 62
    7
 10
388.71298999999993
 20
413.50433299999997
 11
389.79093699999993
 21
410.94216299999994
  0
LINE
  8
_0-0_0
  6
CONTINUOUS
 62
    7
 10
387.08389599999992
 20
412.68045699999999
 11
391.56330499999996
 21
406.259546
  0
LINE
  8
_0-0_0
  6
CONTINUOUS
 62
    7
 10
375.38576999999998
 20
405.087085
 11
379.83334599999995
 21
398.711816
  0
LINE
  8
_0-0_0
  6
CONTINUOUS
 62
    7
 10
377.68955399999993
 20
406.84254099999998
 11
382.41792699999996
 21
400.69039899999996
  0
LINE
  8
_0-0_0
  6
CONTINUOUS
 62
    7
 10
390.65486699999997
 20
367.005267
 11
392.96569399999993
 21
371.359106
  0
LINE
  8
_0-0_0
  6
CONTINUOUS
 62
    7
 10
389.31038499999994
 20
368.10229499999997
 11
393.38583999999992
 21
376.22717299999999
  0
LINE
  8
_0-0_0
  6
CONTINUOUS
 62
    7
 10
390.94897199999991
 20
378.93546100000003
 11
388.76419199999998
 21
371.77048300000001
  0
LINE
  8
_0-0_0
  6
CONTINUOUS
 62
    7
 10
387.16762299999994
 20
367.96516699999995
 11
387.96590399999991
 21
377.28992299999999
  0
LINE
  8
_0-0_0
  6
CONTINUOUS
 62
    7
 10
386.32732399999998
 20
371.359106
 11
384.56269099999997
 21
379.20971699999996
  0
LINE
  8
_0-0_0
  6
CONTINUOUS
 62
    7
 10
384.43664899999993
 20
371.90761699999996
 11
382.54597499999994
 21
376.36430099999995
  0
ARC
  8
_0-0_0
  6
CONTINUOUS
 62
    7
 10
388.35962099999995
 20
375.61424599999998
 40
10.238194999999999
 50
225.235255
 51
271.76511299999999
  0
LINE
  8
_0-0_0
  6
CONTINUOUS
 62
    7
 10
383.89045599999997
 20
368.51368400000001
 11
381.62164599999994
 21
372.28472299999999
  0
ARC
  8
_0-0_0
  6
CONTINUOUS
 62
    7
 10
387.22879699999993
 20
372.85647599999999
 40
7.570041999999999
 50
106.230479
 51
216.58062700000002
  0
LINE
  8
_0-0_0
  6
CONTINUOUS
 62
    7
 10
359.15891399999998
 20
384.87566499999997
 11
361.90347599999996
 21
382.98075599999999
  0
LINE
  8
_0-0_0
  6
CONTINUOUS
 62
    7
 10
361.90347599999996
 20
382.98075599999999
 11
366.40172099999995
 21
382.078217
  0
ARC
  8
_0-0_0
  6
CONTINUOUS
 62
    7
 10
368.44806199999994
 20
367.139679
 40
1.5918060000000001
 50
52.090246
 51
130.62276399999999
  0
ARC
  8
_0-0_0
  6
CONTINUOUS
 62
    7
 10
380.50327299999992
 20
373.63362999999998
 40
15.154030000000001
 50
187.58260799999991
 51
203.77675400000001
  0
ARC
  8
_0-0_0
  6
CONTINUOUS
 62
    7
 10
360.02122199999997
 20
382.93212900000003
 40
14.544014000000001
 50
198.91426000000001
 51
226.51748599999999
  0
ARC
  8
_0-0_0
  6
CONTINUOUS
 62
    7
 10
388.24601999999993
 20
374.891437
 40
30.752960000000002
 50
139.36477800000003
 51
187.265072
  0
ARC
  8
_0-0_0
  6
CONTINUOUS
 62
    7
 10
381.03945899999997
 20
390.13411899999994
 40
36.761910999999998
 50
193.20286999999999
 51
198.91424699999999
  0
LINE
  8
_0-0_0
  6
CONTINUOUS
 62
    7
 10
358.34902599999998
 20
382.09659399999998
 11
365.72282399999995
 21
379.53135399999996
  0
LINE
  8
_0-0_0
  6
CONTINUOUS
 62
    7
 10
369.42609899999991
 20
368.39558099999999
 11
371.91142099999996
 21
366.05428499999999
  0
ARC
  8
_0-0_0
  6
CONTINUOUS
 62
    7
 10
388.24601999999993
 20
374.891437
 40
22.996148999999999
 50
139.28714600000004
 51
188.14348900000002
  0
LINE
  8
_0-0_0
  6
CONTINUOUS
 62
    7
 10
365.83889799999997
 20
396.00036
 11
371.37195699999995
 21
390.543024
  0
ARC
  8
_0-0_0
  6
CONTINUOUS
 62
    7
 10
421.03705099999991
 20
347.56556399999999
 40
73.435455000000019
 50
112.76011200000001
 51
139.84698900000001
  0
LINE
  8
_0-0_0
  6
CONTINUOUS
 62
    7
 10
367.57206099999996
 20
397.90698899999995
 11
372.47102499999994
 21
391.78123799999997
  0
ARC
  8
_0-0_0
  6
CONTINUOUS
 62
    7
 10
335.98051799999996
 20
383.69325599999996
 40
8.7217719999999996
 50
74.215120999999996
 51
117.360381
  0
ARC
  8
_0-0_0
  6
CONTINUOUS
 62
    7
 10
333.84455599999995
 20
383.32091699999995
 40
9.8567569999999982
 50
25.880678000000007
 51
62.780326000000002
  0
LINE
  8
_0-0_0
  6
CONTINUOUS
 62
    7
 10
332.67679399999997
 20
384.00922200000002
 11
334.25235599999996
 21
389.60150099999998
  0
ARC
  8
_0-0_0
  6
CONTINUOUS
 62
    7
 10
336.71317099999993
 20
380.66288399999996
 40
11.773273
 50
113.74687000000003
 51
162.704272
  0
LINE
  8
_0-0_0
  6
CONTINUOUS
 62
    7
 10
341.34238899999997
 20
372.11758999999995
 11
339.29415299999994
 21
370.31778000000003
  0
ARC
  8
_0-0_0
  6
CONTINUOUS
 62
    7
 10
313.83027299999992
 20
320.473051
 40
55.037762000000001
 50
57.568084999999989
 51
70.316360000000017
  0
LINE
  8
_0-0_0
  6
CONTINUOUS
 62
    7
 10
338.82148399999994
 20
374.62447499999996
 11
334.96135899999996
 21
372.37471299999999
  0
ARC
  8
_0-0_0
  6
CONTINUOUS
 62
    7
 10
335.38176899999996
 20
382.84214500000002
 40
10.969372999999999
 50
217.00327899999999
 51
254.05566200000004
  0
LINE
  8
_0-0_0
  6
CONTINUOUS
 62
    7
 10
334.48868999999996
 20
378.41694299999995
 11
329.36811499999993
 21
375.65294199999994
  0
ARC
  8
_0-0_0
  6
CONTINUOUS
 62
    7
 10
336.16534399999995
 20
381.66946399999995
 40
10.980009000000001
 50
166.87307799999999
 51
209.63521200000011
  0
LINE
  8
_0-0_0
  6
CONTINUOUS
 62
    7
 10
340.55460799999992
 20
376.68140900000003
 11
342.13016999999996
 21
382.72364499999998
  0
LINE
  8
_0-0_0
  6
CONTINUOUS
 62
    7
 10
337.00959499999999
 20
380.47387700000002
 11
338.82148399999994
 21
387.54457400000001
  0
LINE
  8
_0-0_0
  6
CONTINUOUS
 62
    7
 10
330.94367099999994
 20
382.46652799999998
 11
326.13820799999996
 21
380.47387700000002
  0
ARC
  8
_0-0_0
  6
CONTINUOUS
 62
    7
 10
374.78903599999995
 20
397.95779400000004
 40
33.699990999999997
 50
197.85802600000005
 51
208.77087900000006
  0
LINE
  8
_0-0_0
  6
CONTINUOUS
 62
    7
 10
343.39061899999996
 20
373.33889799999997
 11
344.65107099999994
 21
377.64559899999995
  0
LINE
  8
_0-0_0
  6
CONTINUOUS
 62
    7
 10
329.36811499999993
 20
386.06615599999998
 11
345.12373999999994
 21
371.08912999999995
  0
ARC
  8
_0-0_0
  6
CONTINUOUS
 62
    7
 10
344.49351499999995
 20
371.30943000000002
 40
3.868644999999999
 50
226.18350400000006
 51
41.110844000000043
  0
LINE
  8
_0-0_0
  6
CONTINUOUS
 62
    7
 10
393.76397499999996
 20
353.36095599999999
 11
395.27652099999995
 21
351.578284
  0
ARC
  8
_0-0_0
  6
CONTINUOUS
 62
    7
 10
379.53931299999994
 20
369.02050800000001
 40
13.975588999999999
 50
296.3400509999999
 51
328.1557279999999
  0
LINE
  8
_0-0_0
  6
CONTINUOUS
 62
    7
 10
391.32710699999996
 20
359.18893400000002
 11
392.04136499999993
 21
354.97222299999999
  0
LINE
  8
_0-0_0
  6
CONTINUOUS
 62
    7
 10
376.14595799999995
 20
362.06514299999998
 11
378.63128199999994
 21
359.72384599999998
  0
ARC
  8
_0-0_0
  6
CONTINUOUS
 62
    7
 10
377.96279899999996
 20
358.69163800000001
 40
1.229767999999998
 50
307.051783
 51
57.071933999999985
  0
LINE
  8
_0-0_0
  6
CONTINUOUS
 62
    7
 10
371.07443099999995
 20
349.61149899999998
 11
371.1710589999999
 21
349.71407799999997
  0
ARC
  8
_0-0_0
  6
CONTINUOUS
 62
    7
 10
382.15659599999992
 20
365.55225799999999
 40
9.7396039999999982
 50
243.81067800000005
 51
291.58902700000004
  0
LINE
  8
_0-0_0
  6
CONTINUOUS
 62
    7
 10
381.74768699999993
 20
332.791653
 11
381.74768699999993
 21
336.04846499999996
  0
ARC
  8
_0-0_0
  6
CONTINUOUS
 62
    7
 10
424.24360999999999
 20
405.262878
 40
78.790576000000001
 50
237.51630400000005
 51
245.98377100000005
  0
ARC
  8
_0-0_0
  6
CONTINUOUS
 62
    7
 10
423.72852199999994
 20
393.13783599999999
 40
68.555847
 50
219.60387300000002
 51
232.43043600000001
  0
ARC
  8
_0-0_0
  6
CONTINUOUS
 62
    7
 10
382.97419999999994
 20
368.87412699999999
 40
22.411373999999999
 50
238.41450099999997
 51
300.18389100000013
  0
LINE
  8
_0-0_0
  6
CONTINUOUS
 62
    7
 10
360.00443699999994
 20
360.48497299999997
 11
359.93384999999995
 21
360.41004599999997
  0
LINE
  8
_0-0_0
  6
CONTINUOUS
 62
    7
 10
354.58698099999992
 20
354.73425900000001
 11
354.65756499999998
 21
354.80919199999994
  0
LINE
  8
_0-0_0
  6
CONTINUOUS
 62
    7
 10
366.10117799999995
 20
344.33231499999999
 11
366.00454399999995
 21
344.22974499999998
  0
LINE
  8
_0-0_0
  6
CONTINUOUS
 62
    7
 10
358.47182599999996
 20
336.23365200000001
 11
368.58780499999995
 21
346.97190899999998
  0
LINE
  8
_0-0_0
  6
CONTINUOUS
 62
    7
 10
347.25222799999995
 20
344.85768400000001
 11
349.73755799999992
 21
342.51638800000001
  0
ARC
  8
_0-0_0
  6
CONTINUOUS
 62
    7
 10
348.44758599999994
 20
345.908862
 40
1.5918060000000001
 50
142.795705
 51
221.32785399999997
  0
LINE
  8
_0-0_0
  6
CONTINUOUS
 62
    7
 10
353.97208899999993
 20
338.527243
 11
356.45741899999996
 21
336.18594100000001
  0
ARC
  8
_0-0_0
  6
CONTINUOUS
 62
    7
 10
352.18867499999999
 20
340.87620800000002
 40
2.9492699999999998
 50
146.21130500000001
 51
307.20699200000001
  0
ARC
  8
_0-0_0
  6
CONTINUOUS
 62
    7
 10
357.44792799999993
 20
336.91478599999999
 40
1.229767999999998
 50
216.34670600000001
 51
326.36671100000001
  0
LINE
  8
_0-0_0
  6
CONTINUOUS
 62
    7
 10
357.29570899999993
 20
357.60961299999997
 11
347.17973599999993
 21
346.87136199999998
  0
LINE
  8
_0-0_0
  6
CONTINUOUS
 62
    7
 10
378.70377599999995
 20
357.71017499999999
 11
368.58780499999995
 21
346.97190899999998
  0
LINE
  8
_0-0_0
  6
CONTINUOUS
 62
    7
 10
376.14595799999995
 20
362.06514299999998
 11
353.97208899999993
 21
338.527243
  0
ARC
  8
_0-0_0
  6
CONTINUOUS
 62
    7
 10
195.08457599999997
 20
174.498694
 40
240.52145999999999
 50
41.32850100000001
 51
44.797199000000013
  0
LINE
  8
_0-0_0
  6
CONTINUOUS
 62
    7
 10
353.97208899999993
 20
338.527243
 11
376.14595799999995
 21
362.06514299999998
  0
LINE
  8
_0-0_0
  6
CONTINUOUS
 62
    7
 10
395.15046799999993
 20
317.50180499999999
 11
393.38583999999992
 21
316.54190399999999
  0
LINE
  8
_0-0_0
  6
CONTINUOUS
 62
    7
 10
392.41949999999997
 20
319.66158099999996
 11
389.43643299999997
 21
318.29029500000001
  0
LINE
  8
_0-0_0
  6
CONTINUOUS
 62
    7
 10
389.98262599999998
 20
322.09561600000001
 11
385.10888399999993
 21
319.93583999999998
  0
LINE
  8
_0-0_0
  6
CONTINUOUS
 62
    7
 10
393.63793399999997
 20
320.99858699999999
 11
394.31017499999996
 21
329.39771999999999
  0
LINE
  8
_0-0_0
  6
CONTINUOUS
 62
    7
 10
382.12582199999997
 20
329.946237
 11
379.18477199999995
 21
328.57494800000001
  0
ARC
  8
_0-0_0
  6
CONTINUOUS
 62
    7
 10
388.87218299999995
 20
325.30745200000001
 40
7.7568080000000004
 50
205.20498800000004
 51
255.09950600000005
  0
LINE
  8
_0-0_0
  6
CONTINUOUS
 62
    7
 10
387.16762299999994
 20
324.80390899999998
 11
382.12582199999997
 21
322.64413300000001
  0
LINE
  8
_0-0_0
  6
CONTINUOUS
 62
    7
 10
385.10888399999993
 20
326.96368699999999
 11
381.07544699999994
 21
325.35242299999999
  0
LINE
  8
_0-0_0
  6
CONTINUOUS
 62
    7
 10
359.61891199999997
 20
319.537308
 11
358.59479399999998
 21
316.77330799999999
  0
LINE
  8
_0-0_0
  6
CONTINUOUS
 62
    7
 10
361.35203199999995
 20
321.08000600000003
 11
360.8793639999999
 21
318.57312200000001
  0
LINE
  8
_0-0_0
  6
CONTINUOUS
 62
    7
 10
358.35845899999993
 20
324.35824000000002
 11
359.61891199999997
 21
322.622704
  0
LINE
  8
_0-0_0
  6
CONTINUOUS
 62
    7
 10
356.54656699999992
 20
324.61535600000002
 11
360.09157999999996
 21
320.82289100000003
  0
ARC
  8
_0-0_0
  6
CONTINUOUS
 62
    7
 10
352.13390499999991
 20
327.23267799999996
 40
2.5295149999999991
 50
167.22752399999999
 51
285.85746
  0
LINE
  8
_0-0_0
  6
CONTINUOUS
 62
    7
 10
353.23788399999995
 20
321.85135500000001
 11
353.47421899999995
 21
318.05889000000002
  0
LINE
  8
_0-0_0
  6
CONTINUOUS
 62
    7
 10
348.19608499999993
 20
320.56577500000003
 11
344.65107099999994
 21
315.48772700000001
  0
LINE
  8
_0-0_0
  6
CONTINUOUS
 62
    7
 10
354.81344599999994
 20
322.87982199999999
 11
356.78290099999992
 21
316.77330799999999
  0
ARC
  8
_0-0_0
  6
CONTINUOUS
 62
    7
 10
348.32630899999992
 20
330.50176699999997
 40
19.255279999999999
 50
292.11629000000005
 51
333.84746200000018
  0
LINE
  8
_0-0_0
  6
CONTINUOUS
 62
    7
 10
350.71698299999991
 20
322.365588
 11
349.69287099999997
 21
314.71637699999997
  0
ARC
  8
_0-0_0
  6
CONTINUOUS
 62
    7
 10
333.91577099999995
 20
328.45564000000002
 40
15.765188999999999
 50
357.58706799999999
 51
25.120831000000031
  0
ARC
  8
_0-0_0
  6
CONTINUOUS
 62
    7
 10
345.28349299999996
 20
332.09909700000003
 40
22.690816999999999
 50
333.61351400000001
 51
29.364711000000007
  0
ARC
  8
_0-0_0
  6
CONTINUOUS
 62
    7
 10
351.87914099999995
 20
332.43606899999997
 40
7.6950070000000004
 50
277.06118700000007
 51
30.137810000000052
  0
ARC
  8
_0-0_0
  6
CONTINUOUS
 62
    7
 10
280.62632399999995
 20
274.359309
 40
111.8796389999999
 50
25.204986000000002
 51
31.810964000000002
  0
ARC
  8
_0-0_0
  6
CONTINUOUS
 62
    7
 10
381.07861299999996
 20
333.38636199999996
 40
3.8051720000000002
 50
64.764618999999996
 51
219.24654500000011
  0
LINE
  8
_0-0_0
  6
CONTINUOUS
 62
    7
 10
383.51232099999993
 20
330.906137
 11
383.63836199999992
 21
335.49994800000002
  0
LINE
  8
_0-0_0
  6
CONTINUOUS
 62
    7
 10
385.94918899999993
 20
328.437817
 11
385.65508299999993
 21
334.95143400000001
  0
LINE
  8
_0-0_0
  6
CONTINUOUS
 62
    7
 10
388.21799799999997
 20
326.003784
 11
388.51209799999992
 21
332.92878400000001
  0
LINE
  8
_0-0_0
  6
CONTINUOUS
 62
    7
 10
390.82292499999994
 20
323.29549099999997
 11
391.20105999999993
 21
332.10601199999996
  0
LINE
  8
_0-0_0
  6
CONTINUOUS
 62
    7
 10
380.90738799999997
 20
331.55749500000002
 11
378.76462499999997
 21
330.906137
  0
LINE
  8
_0-0_0
  6
CONTINUOUS
 62
    7
 10
338.29971299999994
 20
349.49500399999999
 11
338.22775299999995
 21
352.19602699999996
  0
LINE
  8
_0-0_0
  6
CONTINUOUS
 62
    7
 10
338.22775299999995
 20
352.19602699999996
 11
336.48455799999994
 21
357.09527600000001
  0
LINE
  8
_0-0_0
  6
CONTINUOUS
 62
    7
 10
338.86700399999995
 20
357.31764499999997
 11
339.97713599999997
 21
349.72274199999998
  0
LINE
  8
_0-0_0
  6
CONTINUOUS
 62
    7
 10
324.79995699999995
 20
353.376349
 11
326.47697699999992
 21
351.110004
  0
ARC
  8
_0-0_0
  6
CONTINUOUS
 62
    7
 10
333.58259899999996
 20
336.07864699999999
 40
19.392019999999999
 50
119.35547899999999
 51
133.11066100000002
  0
LINE
  8
_0-0_0
  6
CONTINUOUS
 62
    7
 10
326.74316999999996
 20
349.00001199999997
 11
323.16849999999999
 21
352.94073500000002
  0
ARC
  8
_0-0_0
  6
CONTINUOUS
 62
    7
 10
333.58259899999996
 20
336.07864699999999
 40
11.635204
 50
119.35546600000002
 51
133.11066100000002
  0
LINE
  8
_0-0_0
  6
CONTINUOUS
 62
    7
 10
318.03466799999995
 20
339.69121999999999
 11
319.64234599999992
 21
338.48231799999996
  0
ARC
  8
_0-0_0
  6
CONTINUOUS
 62
    7
 10
340.85453499999994
 20
323.14954799999998
 40
26.469042999999999
 50
93.458961000000045
 51
119.35546600000004
  0
LINE
  8
_0-0_0
  6
CONTINUOUS
 62
    7
 10
326.47697699999992
 20
351.110004
 11
329.48137799999995
 21
347.05062899999996
  0
LINE
  8
_0-0_0
  6
CONTINUOUS
 62
    7
 10
327.82871099999994
 20
346.19155899999998
 11
326.74316999999996
 21
349.00001199999997
  0
LINE
  8
_0-0_0
  6
CONTINUOUS
 62
    7
 10
313.85154399999993
 20
341.80121199999996
 11
312.74871799999994
 21
342.26664999999997
  0
LINE
  8
_0-0_0
  6
CONTINUOUS
 62
    7
 10
314.61210899999992
 20
343.01135599999998
 11
316.43747599999995
 21
340.68415800000002
  0
LINE
  8
_0-0_0
  6
CONTINUOUS
 62
    7
 10
315.44873599999994
 20
340.311804
 11
313.85154399999993
 21
341.80121199999996
  0
LINE
  8
_0-0_0
  6
CONTINUOUS
 62
    7
 10
314.06158399999993
 20
343.875204
 11
314.61210899999992
 21
343.01135599999998
  0
LINE
  8
_0-0_0
  6
CONTINUOUS
 62
    7
 10
316.55156199999993
 20
339.10166299999997
 11
315.44873599999994
 21
340.311804
  0
ARC
  8
_0-0_0
  6
CONTINUOUS
 62
    7
 10
396.14629699999995
 20
269.24655100000001
 40
110.938428
 50
133.11066099999999
 51
140.81309200000001
  0
ARC
  8
_0-0_0
  6
CONTINUOUS
 62
    7
 10
396.14629699999995
 20
269.24655100000001
 40
103.18161600000001
 50
133.11066099999999
 51
140.91465700000001
  0
LINE
  8
_0-0_0
  6
CONTINUOUS
 62
    7
 10
318.37692299999992
 20
337.86048899999997
 11
316.55156199999993
 21
339.10166299999997
  0
LINE
  8
_0-0_0
  6
CONTINUOUS
 62
    7
 10
316.43747599999995
 20
340.68415800000002
 11
318.03466799999995
 21
339.69121999999999
  0
LINE
  8
_0-0_0
  6
CONTINUOUS
 62
    7
 10
337.24592899999993
 20
324.61535600000002
 11
340.31827399999997
 21
324.61535600000002
  0
LINE
  8
_0-0_0
  6
CONTINUOUS
 62
    7
 10
337.79736899999995
 20
327.18651699999998
 11
336.22180799999995
 21
326.15805399999999
  0
LINE
  8
_0-0_0
  6
CONTINUOUS
 62
    7
 10
340.79094199999992
 20
321.33712500000001
 11
340.55460799999992
 21
319.537308
  0
LINE
  8
_0-0_0
  6
CONTINUOUS
 62
    7
 10
308.48953799999992
 20
329.66874999999999
 11
306.01768799999996
 21
330.878894
  0
LINE
  8
_0-0_0
  6
CONTINUOUS
 62
    7
 10
307.84304799999995
 20
331.37536
 11
309.70643899999993
 21
330.04110100000003
  0
LINE
  8
_0-0_0
  6
CONTINUOUS
 62
    7
 10
310.42899199999999
 20
328.30346099999997
 11
308.48953799999992
 21
329.66874999999999
  0
LINE
  8
_0-0_0
  6
CONTINUOUS
 62
    7
 10
311.04751599999997
 20
327.76965899999999
 11
310.42899199999999
 21
328.30346099999997
  0
LINE
  8
_0-0_0
  6
CONTINUOUS
 62
    7
 10
310.42899199999999
 20
329.66874999999999
 11
311.53180499999996
 21
329.54463199999998
  0
LINE
  8
_0-0_0
  6
CONTINUOUS
 62
    7
 10
298.65947899999992
 20
320.25370899999996
 11
300.61765099999991
 21
319.49113299999999
  0
LINE
  8
_0-0_0
  6
CONTINUOUS
 62
    7
 10
303.31766999999996
 20
317.03981799999997
 11
297.81663799999995
 21
317.81204400000001
  0
LINE
  8
_0-0_0
  6
CONTINUOUS
 62
    7
 10
300.61765099999991
 20
319.49113299999999
 11
305.95711099999994
 21
317.42168400000003
  0
LINE
  8
_0-0_0
  6
CONTINUOUS
 62
    7
 10
305.58671299999992
 20
316.21228499999995
 11
303.31766999999996
 21
317.03981799999997
  0
LINE
  8
_0-0_0
  6
CONTINUOUS
 62
    7
 10
299.05848999999995
 20
304.31779799999998
 11
303.15123299999993
 21
302.84510699999998
  0
LINE
  8
_0-0_0
  6
CONTINUOUS
 62
    7
 10
297.95566399999996
 20
303.82132899999999
 11
295.09713699999998
 21
303.58004399999999
  0
LINE
  8
_0-0_0
  6
CONTINUOUS
 62
    7
 10
301.49230299999994
 20
302.58015599999999
 11
297.95566399999996
 21
303.82132899999999
  0
LINE
  8
_0-0_0
  6
CONTINUOUS
 62
    7
 10
295.17056899999994
 20
304.555724
 11
299.05848999999995
 21
304.31779799999998
  0
ARC
  8
_0-0_0
  6
CONTINUOUS
 62
    7
 10
343.68985599999996
 20
327.97261000000003
 40
9.9315770000000008
 50
110.61753
 51
194.628289
  0
ARC
  8
_0-0_0
  6
CONTINUOUS
 62
    7
 10
354.54498899999999
 20
299.59634900000003
 40
51.824370999999999
 50
137.96042300000002
 51
158.21362800000003
  0
LINE
  8
_0-0_0
  6
CONTINUOUS
 62
    7
 10
305.40923499999997
 20
332.95785799999999
 11
307.84304799999995
 21
331.37536
  0
LINE
  8
_0-0_0
  6
CONTINUOUS
 62
    7
 10
306.01768799999996
 20
330.878894
 11
304.57260699999995
 21
331.74771399999997
  0
ARC
  8
_0-0_0
  6
CONTINUOUS
 62
    7
 10
342.77452999999991
 20
330.863269
 40
6.9056240000000004
 50
38.354828000000012
 51
111.95496300000002
  0
ARC
  8
_0-0_0
  6
CONTINUOUS
 62
    7
 10
351.61554899999993
 20
330.461456
 40
18.233443000000001
 50
195.905945
 51
282.54410799999999
  0
ARC
  8
_0-0_0
  6
CONTINUOUS
 62
    7
 10
342.74721699999998
 20
334.86616800000002
 40
15.112621000000001
 50
66.052122999999995
 51
103.350652
  0
ARC
  8
_0-0_0
  6
CONTINUOUS
 62
    7
 10
340.85453499999994
 20
323.14954799999998
 40
34.225850999999999
 50
66.631077000000019
 51
119.35546600000004
  0
LINE
  8
_0-0_0
  6
CONTINUOUS
 62
    7
 10
346.62051999999994
 20
332.264566
 11
343.0755069999999
 21
336.57126799999998
  0
LINE
  8
_0-0_0
  6
CONTINUOUS
 62
    7
 10
347.95974999999993
 20
329.69340199999999
 11
340.31827399999997
 21
334.25721699999997
  0
LINE
  8
_0-0_0
  6
CONTINUOUS
 62
    7
 10
344.09962199999995
 20
328.21498399999996
 11
337.79736899999995
 21
328.986334
  0
LINE
  8
_0-0_0
  6
CONTINUOUS
 62
    7
 10
345.12373999999994
 20
329.69340199999999
 11
337.79736899999995
 21
332.77879899999999
  0
LINE
  8
_0-0_0
  6
CONTINUOUS
 62
    7
 10
347.17196599999994
 20
325.64382000000001
 11
337.00959499999999
 21
322.87982199999999
  0
LINE
  8
_0-0_0
  6
CONTINUOUS
 62
    7
 10
348.66875299999992
 20
323.39405199999999
 11
342.36650399999996
 21
321.33712500000001
  0
LINE
  8
_0-0_0
  6
CONTINUOUS
 62
    7
 10
342.60283799999996
 20
318.05889000000002
 11
345.12373999999994
 21
319.344472
  0
ARC
  8
_0-0_0
  6
CONTINUOUS
 62
    7
 10
373.69483299999996
 20
363.70532200000002
 40
2.9492699999999998
 50
326.21139200000005
 51
127.20700000000009
  0
LINE
  8
_0-0_0
  6
CONTINUOUS
 62
    7
 10
357.29570899999993
 20
357.60961900000001
 11
367.41167899999994
 21
368.34787599999999
  0
LINE
  8
_0-0_0
  6
CONTINUOUS
 62
    7
 10
349.73755799999992
 20
342.51638800000001
 11
371.91142099999996
 21
366.05428499999999
  0
ARC
  8
_0-0_0
  6
CONTINUOUS
 62
    7
 10
389.01183499999991
 20
362.75808699999999
 40
2.644365999999998
 50
335.15017
 51
97.318605000000034
  0
ARC
  8
_0-0_0
  6
CONTINUOUS
 62
    7
 10
142.11027199999995
 20
153.11569800000009
 40
293.61750499999999
 50
43.505713000000014
 51
46.735300000000024
  0
ARC
  8
_0-0_0
  6
CONTINUOUS
 62
    7
 10
374.77987499999995
 20
371.72935199999995
 40
17.055420000000002
 50
182.44279499999999
 51
216.42642799999999
  0
ARC
  8
_0-0_0
  6
CONTINUOUS
 62
    7
 10
202.98192699999993
 20
217.34599599999999
 40
213.66665
 50
42.376142999999992
 51
46.517499000000001
  0
LINE
  8
_0-0_0
  6
CONTINUOUS
 62
    7
 10
349.73755799999992
 20
342.51638800000001
 11
371.91142099999996
 21
366.05428499999999
  0
LINE
  8
_0-0_0
  6
CONTINUOUS
 62
    7
 10
392.41949999999997
 20
274.33842600000003
 11
389.43643299999997
 21
275.70971199999997
  0
LINE
  8
_0-0_0
  6
CONTINUOUS
 62
    7
 10
395.15046799999993
 20
276.49820199999999
 11
393.38583999999992
 21
277.45810399999999
  0
LINE
  8
_0-0_0
  6
CONTINUOUS
 62
    7
 10
389.98262599999998
 20
271.90439099999998
 11
385.10888399999993
 21
274.064168
  0
ARC
  8
_0-0_0
  6
CONTINUOUS
 62
    7
 10
388.87218299999995
 20
268.69255699999997
 40
7.7568080000000004
 50
104.90048999999993
 51
154.79502199999999
  0
LINE
  8
_0-0_0
  6
CONTINUOUS
 62
    7
 10
385.10888399999993
 20
267.03632199999998
 11
381.07544699999994
 21
268.64758599999999
  0
LINE
  8
_0-0_0
  6
CONTINUOUS
 62
    7
 10
387.16762299999994
 20
269.19609700000001
 11
382.12582199999997
 21
271.35587499999997
  0
LINE
  8
_0-0_0
  6
CONTINUOUS
 62
    7
 10
359.61891199999997
 20
274.46269799999999
 11
358.59479399999998
 21
277.22669999999999
  0
LINE
  8
_0-0_0
  6
CONTINUOUS
 62
    7
 10
356.54656699999992
 20
269.38464999999997
 11
360.09157999999996
 21
273.17711599999996
  0
LINE
  8
_0-0_0
  6
CONTINUOUS
 62
    7
 10
358.35845899999993
 20
269.64176900000001
 11
359.61891199999997
 21
271.37730399999998
  0
LINE
  8
_0-0_0
  6
CONTINUOUS
 62
    7
 10
361.35203199999995
 20
272.92000099999996
 11
360.8793639999999
 21
275.42688399999997
  0
ARC
  8
_0-0_0
  6
CONTINUOUS
 62
    7
 10
352.13390499999991
 20
266.76732800000002
 40
2.5295149999999991
 50
74.142537000000004
 51
192.77247199999991
  0
LINE
  8
_0-0_0
  6
CONTINUOUS
 62
    7
 10
348.19608499999993
 20
273.43423200000001
 11
344.65107099999994
 21
278.51228000000003
  0
LINE
  8
_0-0_0
  6
CONTINUOUS
 62
    7
 10
350.71698299999991
 20
271.63441799999998
 11
349.69287099999997
 21
279.28363000000002
  0
LINE
  8
_0-0_0
  6
CONTINUOUS
 62
    7
 10
353.23788399999995
 20
272.14865099999997
 11
353.47421899999995
 21
275.94111599999997
  0
ARC
  8
_0-0_0
  6
CONTINUOUS
 62
    7
 10
348.32630899999992
 20
263.49823900000001
 40
19.255279999999999
 50
26.152550000000002
 51
67.883707000000001
  0
LINE
  8
_0-0_0
  6
CONTINUOUS
 62
    7
 10
354.81344599999994
 20
271.12018399999999
 11
356.78290099999992
 21
277.22669999999999
  0
LINE
  8
_0-0_0
  6
CONTINUOUS
 62
    7
 10
383.51232099999993
 20
263.09386899999998
 11
383.63836199999992
 21
258.50006100000002
  0
LINE
  8
_0-0_0
  6
CONTINUOUS
 62
    7
 10
385.94918899999993
 20
265.56218899999999
 11
385.65508299999993
 21
259.04857500000003
  0
LINE
  8
_0-0_0
  6
CONTINUOUS
 62
    7
 10
381.74768699999993
 20
261.20835299999999
 11
381.74768699999993
 21
257.95154400000001
  0
LINE
  8
_0-0_0
  6
CONTINUOUS
 62
    7
 10
380.90738799999997
 20
262.44251099999997
 11
378.76462499999997
 21
263.09386899999998
  0
LINE
  8
_0-0_0
  6
CONTINUOUS
 62
    7
 10
382.12582199999997
 20
264.05377199999998
 11
379.18477199999995
 21
265.42505799999998
  0
ARC
  8
_0-0_0
  6
CONTINUOUS
 62
    7
 10
424.24360999999999
 20
188.737134
 40
78.790576000000001
 50
114.01622500000003
 51
122.48370600000001
  0
ARC
  8
_0-0_0
  6
CONTINUOUS
 62
    7
 10
381.07861299999996
 20
260.61364700000001
 40
3.8051709999999979
 50
140.75346500000001
 51
295.23536400000006
  0
LINE
  8
_0-0_0
  6
CONTINUOUS
 62
    7
 10
391.32710699999996
 20
234.81107199999997
 11
392.04136499999993
 21
239.027783
  0
LINE
  8
_0-0_0
  6
CONTINUOUS
 62
    7
 10
393.76397499999996
 20
240.63904400000001
 11
395.27652099999995
 21
242.421716
  0
LINE
  8
_0-0_0
  6
CONTINUOUS
 62
    7
 10
371.07443099999995
 20
244.38850099999999
 11
371.1710589999999
 21
244.28592499999999
  0
ARC
  8
_0-0_0
  6
CONTINUOUS
 62
    7
 10
377.96279899999996
 20
235.30836199999999
 40
1.229767999999998
 50
302.92806899999999
 51
52.948391000000065
  0
ARC
  8
_0-0_0
  6
CONTINUOUS
 62
    7
 10
382.97419999999994
 20
225.12587299999998
 40
22.411373999999999
 50
59.816118999999993
 51
121.58549499999999
  0
ARC
  8
_0-0_0
  6
CONTINUOUS
 62
    7
 10
382.15659599999992
 20
228.44774200000001
 40
9.7396039999999982
 50
68.410977000000003
 51
116.18930399999999
  0
ARC
  8
_0-0_0
  6
CONTINUOUS
 62
    7
 10
423.72852199999994
 20
200.86216400000001
 40
68.555847
 50
127.56956000000002
 51
140.39613700000004
  0
LINE
  8
_0-0_0
  6
CONTINUOUS
 62
    7
 10
366.10117799999995
 20
249.66769399999998
 11
366.00454399999995
 21
249.770264
  0
ARC
  8
_0-0_0
  6
CONTINUOUS
 62
    7
 10
352.18867499999999
 20
253.12379800000002
 40
2.9492699999999998
 50
52.793007999999993
 51
213.78864999999999
  0
LINE
  8
_0-0_0
  6
CONTINUOUS
 62
    7
 10
353.97208899999993
 20
255.47276299999999
 11
356.45741899999996
 21
257.81406600000003
  0
ARC
  8
_0-0_0
  6
CONTINUOUS
 62
    7
 10
357.44792799999993
 20
257.08522000000005
 40
1.229767999999998
 50
33.633282000000001
 51
143.65329
  0
LINE
  8
_0-0_0
  6
CONTINUOUS
 62
    7
 10
360.00443699999994
 20
233.515027
 11
359.93384999999995
 21
233.58995400000001
  0
ARC
  8
_0-0_0
  6
CONTINUOUS
 62
    7
 10
348.44758599999994
 20
248.09114099999999
 40
1.5918060000000001
 50
138.67206000000002
 51
217.20420899999996
  0
LINE
  8
_0-0_0
  6
CONTINUOUS
 62
    7
 10
354.58698099999992
 20
239.26574099999999
 11
354.65756499999998
 21
239.19080799999998
  0
LINE
  8
_0-0_0
  6
CONTINUOUS
 62
    7
 10
357.29570899999993
 20
236.39038699999998
 11
347.17973599999993
 21
247.12864400000001
  0
LINE
  8
_0-0_0
  6
CONTINUOUS
 62
    7
 10
347.25222799999995
 20
249.14232199999998
 11
349.73755799999992
 21
251.483621
  0
LINE
  8
_0-0_0
  6
CONTINUOUS
 62
    7
 10
358.47182599999996
 20
257.76635399999998
 11
368.58780499999995
 21
247.02809400000001
  0
LINE
  8
_0-0_0
  6
CONTINUOUS
 62
    7
 10
378.70377599999995
 20
236.28983199999999
 11
368.58780499999995
 21
247.02809400000001
  0
ARC
  8
_0-0_0
  6
CONTINUOUS
 62
    7
 10
195.08457599999997
 20
419.50131799999997
 40
240.52145999999999
 50
315.20279399999998
 51
318.671492
  0
ARC
  8
_0-0_0
  6
CONTINUOUS
 62
    7
 10
333.91577099999995
 20
265.54436599999997
 40
15.765188999999999
 50
334.87917499999998
 51
2.4129439999999613
  0
ARC
  8
_0-0_0
  6
CONTINUOUS
 62
    7
 10
345.28349299999996
 20
261.90090899999996
 40
22.690816999999999
 50
330.63527800000003
 51
26.386477000000038
  0
ARC
  8
_0-0_0
  6
CONTINUOUS
 62
    7
 10
351.87914099999995
 20
261.56393700000001
 40
7.6950070000000004
 50
329.86221
 51
82.938810000000032
  0
ARC
  8
_0-0_0
  6
CONTINUOUS
 62
    7
 10
280.62632399999995
 20
319.64069799999999
 40
111.8796389999999
 50
328.189032
 51
334.79500000000002
  0
LINE
  8
_0-0_0
  6
CONTINUOUS
 62
    7
 10
388.21799799999997
 20
267.99622199999999
 11
388.51209799999992
 21
261.07122199999998
  0
LINE
  8
_0-0_0
  6
CONTINUOUS
 62
    7
 10
390.82292499999994
 20
270.70451700000001
 11
391.20105999999993
 21
261.89399400000002
  0
LINE
  8
_0-0_0
  6
CONTINUOUS
 62
    7
 10
393.63793399999997
 20
273.00142199999999
 11
394.31017499999996
 21
264.60228899999998
  0
LINE
  8
_0-0_0
  6
CONTINUOUS
 62
    7
 10
337.24592899999993
 20
269.38464999999997
 11
340.31827399999997
 21
269.38464999999997
  0
LINE
  8
_0-0_0
  6
CONTINUOUS
 62
    7
 10
337.79736899999995
 20
266.813489
 11
336.22180799999995
 21
267.84195199999999
  0
LINE
  8
_0-0_0
  6
CONTINUOUS
 62
    7
 10
340.79094199999992
 20
272.66288399999996
 11
340.55460799999992
 21
274.46269799999999
  0
LINE
  8
_0-0_0
  6
CONTINUOUS
 62
    7
 10
302.98461899999995
 20
296.487595
 11
302.98461899999995
 21
297.51241199999998
  0
LINE
  8
_0-0_0
  6
CONTINUOUS
 62
    7
 10
303.06519799999995
 20
292.533388
 11
301.49230299999994
 21
291.41985099999999
  0
LINE
  8
_0-0_0
  6
CONTINUOUS
 62
    7
 10
295.00026199999996
 20
296.487595
 11
295.00026199999996
 21
297.51241199999998
  0
LINE
  8
_0-0_0
  6
CONTINUOUS
 62
    7
 10
297.95566399999996
 20
290.17867799999999
 11
295.09713699999998
 21
290.419963
  0
LINE
  8
_0-0_0
  6
CONTINUOUS
 62
    7
 10
295.17056899999994
 20
289.44428299999998
 11
299.05848999999995
 21
289.682209
  0
LINE
  8
_0-0_0
  6
CONTINUOUS
 62
    7
 10
301.49230299999994
 20
291.41985099999999
 11
297.95566399999996
 21
290.17867799999999
  0
LINE
  8
_0-0_0
  6
CONTINUOUS
 62
    7
 10
299.05848999999995
 20
289.682209
 11
303.15123299999993
 21
291.1549
  0
LINE
  8
_0-0_0
  6
CONTINUOUS
 62
    7
 10
303.31766999999996
 20
276.96019000000001
 11
297.81663799999995
 21
276.18796399999997
  0
LINE
  8
_0-0_0
  6
CONTINUOUS
 62
    7
 10
298.65947899999992
 20
273.74629800000002
 11
300.61765099999991
 21
274.50887399999999
  0
LINE
  8
_0-0_0
  6
CONTINUOUS
 62
    7
 10
305.58671299999992
 20
277.78772100000003
 11
303.31766999999996
 21
276.96019000000001
  0
LINE
  8
_0-0_0
  6
CONTINUOUS
 62
    7
 10
300.61765099999991
 20
274.50887399999999
 11
305.95711099999994
 21
276.57832299999995
  0
ARC
  8
_0-0_0
  6
CONTINUOUS
 62
    7
 10
366.5770839999999
 20
295.80553899999995
 40
63.596117999999997
 50
179.38550700000002
 51
198.93470999999994
  0
LINE
  8
_0-0_0
  6
CONTINUOUS
 62
    7
 10
318.43782299999992
 20
256.87239699999998
 11
318.37692299999992
 21
256.13952
  0
LINE
  8
_0-0_0
  6
CONTINUOUS
 62
    7
 10
318.03466799999995
 20
254.30878899999999
 11
319.64234599999992
 21
255.51769100000001
  0
LINE
  8
_0-0_0
  6
CONTINUOUS
 62
    7
 10
338.29971299999994
 20
244.504999
 11
338.22775299999995
 21
241.80397299999998
  0
LINE
  8
_0-0_0
  6
CONTINUOUS
 62
    7
 10
338.86700399999995
 20
236.682355
 11
339.97713599999997
 21
244.27725799999999
  0
LINE
  8
_0-0_0
  6
CONTINUOUS
 62
    7
 10
338.22775299999995
 20
241.80397299999998
 11
336.48455799999994
 21
236.90472399999999
  0
LINE
  8
_0-0_0
  6
CONTINUOUS
 62
    7
 10
327.82871099999994
 20
247.80844400000001
 11
326.74316999999996
 21
244.999988
  0
LINE
  8
_0-0_0
  6
CONTINUOUS
 62
    7
 10
326.47697699999992
 20
242.889996
 11
329.48137799999995
 21
246.94937699999997
  0
ARC
  8
_0-0_0
  6
CONTINUOUS
 62
    7
 10
333.58259899999996
 20
257.92136199999999
 40
19.392019999999999
 50
226.88934900000001
 51
240.644531
  0
LINE
  8
_0-0_0
  6
CONTINUOUS
 62
    7
 10
326.74316999999996
 20
244.999988
 11
323.16849999999999
 21
241.05926499999998
  0
LINE
  8
_0-0_0
  6
CONTINUOUS
 62
    7
 10
324.79995699999995
 20
240.623651
 11
326.47697699999992
 21
242.889996
  0
ARC
  8
_0-0_0
  6
CONTINUOUS
 62
    7
 10
340.85453499999994
 20
270.850458
 40
26.469042999999999
 50
240.64453100000003
 51
266.54102899999998
  0
ARC
  8
_0-0_0
  6
CONTINUOUS
 62
    7
 10
333.58259899999996
 20
257.92136199999999
 40
11.635204
 50
226.88933600000004
 51
240.64455800000002
  0
LINE
  8
_0-0_0
  6
CONTINUOUS
 62
    7
 10
311.53180499999996
 20
264.45537400000001
 11
312.28637099999997
 21
264.40406499999995
  0
LINE
  8
_0-0_0
  6
CONTINUOUS
 62
    7
 10
305.23167099999995
 20
260.96544799999998
 11
305.40923499999997
 21
261.04215099999999
  0
LINE
  8
_0-0_0
  6
CONTINUOUS
 62
    7
 10
312.74871799999994
 20
251.73335599999999
 11
312.63014499999997
 21
251.73026099999998
  0
LINE
  8
_0-0_0
  6
CONTINUOUS
 62
    7
 10
314.06158399999993
 20
250.12480199999999
 11
314.61210899999992
 21
250.988654
  0
LINE
  8
_0-0_0
  6
CONTINUOUS
 62
    7
 10
304.57260699999995
 20
262.25229200000001
 11
304.39593499999995
 21
262.23240999999996
  0
ARC
  8
_0-0_0
  6
CONTINUOUS
 62
    7
 10
396.14629699999995
 20
324.75345500000003
 40
110.938428
 50
219.18690400000003
 51
226.88933600000001
  0
ARC
  8
_0-0_0
  6
CONTINUOUS
 62
    7
 10
396.14629699999995
 20
324.75345500000003
 40
103.18161600000001
 50
219.085339
 51
226.88933599999999
  0
ARC
  8
_0-0_0
  6
CONTINUOUS
 62
    7
 10
343.68985599999996
 20
266.027399
 40
9.9315770000000008
 50
165.37173400000003
 51
249.38247400000003
  0
ARC
  8
_0-0_0
  6
CONTINUOUS
 62
    7
 10
354.54498899999999
 20
294.403659
 40
51.824370999999999
 50
201.78636900000004
 51
222.03957300000002
  0
LINE
  8
_0-0_0
  6
CONTINUOUS
 62
    7
 10
311.04751599999997
 20
266.23034999999999
 11
310.42899199999999
 21
265.69654800000001
  0
ARC
  8
_0-0_0
  6
CONTINUOUS
 62
    7
 10
342.77452999999991
 20
263.13673699999998
 40
6.9056240000000004
 50
248.045041
 51
321.64516500000002
  0
ARC
  8
_0-0_0
  6
CONTINUOUS
 62
    7
 10
351.61554899999993
 20
263.53854999999999
 40
18.233443000000001
 50
77.455908999999977
 51
164.094065
  0
ARC
  8
_0-0_0
  6
CONTINUOUS
 62
    7
 10
342.74721699999998
 20
259.13384099999996
 40
15.112621000000001
 50
256.64935800000001
 51
293.94787300000002
  0
ARC
  8
_0-0_0
  6
CONTINUOUS
 62
    7
 10
340.85453499999994
 20
270.850458
 40
34.225850999999999
 50
240.64453100000003
 51
293.36891900000001
  0
LINE
  8
_0-0_0
  6
CONTINUOUS
 62
    7
 10
347.95974999999993
 20
264.30660399999999
 11
340.31827399999997
 21
259.74279200000001
  0
LINE
  8
_0-0_0
  6
CONTINUOUS
 62
    7
 10
346.62051999999994
 20
261.73543999999998
 11
343.0755069999999
 21
257.428741
  0
LINE
  8
_0-0_0
  6
CONTINUOUS
 62
    7
 10
345.12373999999994
 20
264.30660399999999
 11
337.79736899999995
 21
261.22120699999999
  0
LINE
  8
_0-0_0
  6
CONTINUOUS
 62
    7
 10
344.09962199999995
 20
265.78502199999997
 11
337.79736899999995
 21
265.01367199999999
  0
LINE
  8
_0-0_0
  6
CONTINUOUS
 62
    7
 10
347.17196599999994
 20
268.35618599999998
 11
337.00959499999999
 21
271.12018399999999
  0
LINE
  8
_0-0_0
  6
CONTINUOUS
 62
    7
 10
348.66875299999992
 20
270.605954
 11
342.36650399999996
 21
272.66288399999996
  0
LINE
  8
_0-0_0
  6
CONTINUOUS
 62
    7
 10
342.60283799999996
 20
275.94111599999997
 11
345.12373999999994
 21
274.65553599999998
  0
ARC
  8
_0-0_0
  6
CONTINUOUS
 62
    7
 10
389.01183499999991
 20
231.24191299999998
 40
2.644365999999998
 50
262.68139800000006
 51
24.849837000000051
  0
LINE
  8
_0-0_0
  6
CONTINUOUS
 62
    7
 10
384.43664899999993
 20
222.09238299999998
 11
382.54597499999994
 21
217.63569900000002
  0
LINE
  8
_0-0_0
  6
CONTINUOUS
 62
    7
 10
390.65486699999997
 20
226.994733
 11
392.96569399999993
 21
222.64089999999999
  0
LINE
  8
_0-0_0
  6
CONTINUOUS
 62
    7
 10
387.16762299999994
 20
226.03483299999999
 11
387.96590399999991
 21
216.71008299999997
  0
LINE
  8
_0-0_0
  6
CONTINUOUS
 62
    7
 10
389.31038499999994
 20
225.897705
 11
393.38583999999992
 21
217.77283299999999
  0
ARC
  8
_0-0_0
  6
CONTINUOUS
 62
    7
 10
373.69483299999996
 20
230.294678
 40
2.9492699999999998
 50
232.79298199999999
 51
33.788611000000017
  0
ARC
  8
_0-0_0
  6
CONTINUOUS
 62
    7
 10
388.35962099999995
 20
218.38575400000002
 40
10.238194999999999
 50
88.234896999999989
 51
134.76474100000001
  0
LINE
  8
_0-0_0
  6
CONTINUOUS
 62
    7
 10
383.89045599999997
 20
225.48631599999999
 11
381.62164599999994
 21
221.71527699999999
  0
ARC
  8
_0-0_0
  6
CONTINUOUS
 62
    7
 10
387.22879699999993
 20
221.14352399999999
 40
7.570041999999999
 50
143.4193699999999
 51
253.76950400000001
  0
LINE
  8
_0-0_0
  6
CONTINUOUS
 62
    7
 10
390.94897199999991
 20
215.06453899999997
 11
388.76419199999998
 21
222.22951699999999
  0
LINE
  8
_0-0_0
  6
CONTINUOUS
 62
    7
 10
386.32732399999998
 20
222.64089999999999
 11
384.56269099999997
 21
214.79028299999999
  0
ARC
  8
_0-0_0
  6
CONTINUOUS
 62
    7
 10
368.44806199999994
 20
226.86032699999998
 40
1.5918060000000001
 50
229.37736900000004
 51
307.90962700000006
  0
ARC
  8
_0-0_0
  6
CONTINUOUS
 62
    7
 10
374.77987499999995
 20
222.27064799999999
 40
17.055420000000002
 50
143.57356800000005
 51
177.55720199999999
  0
ARC
  8
_0-0_0
  6
CONTINUOUS
 62
    7
 10
380.50327299999992
 20
220.36636999999999
 40
15.154030000000001
 50
156.22325599999999
 51
172.41738899999999
  0
ARC
  8
_0-0_0
  6
CONTINUOUS
 62
    7
 10
202.98192699999993
 20
376.65400399999999
 40
213.66665
 50
313.48251499999998
 51
317.62385
  0
LINE
  8
_0-0_0
  6
CONTINUOUS
 62
    7
 10
359.15891399999998
 20
209.12433499999997
 11
361.90347599999996
 21
211.01924399999999
  0
LINE
  8
_0-0_0
  6
CONTINUOUS
 62
    7
 10
358.34902599999998
 20
211.90340599999999
 11
365.72282399999995
 21
214.46864599999998
  0
LINE
  8
_0-0_0
  6
CONTINUOUS
 62
    7
 10
361.90347599999996
 20
211.01924399999999
 11
366.40172099999995
 21
211.92178999999999
  0
ARC
  8
_0-0_0
  6
CONTINUOUS
 62
    7
 10
381.03945899999997
 20
203.865881
 40
36.761910999999998
 50
161.08574999999999
 51
166.79712599999999
  0
ARC
  8
_0-0_0
  6
CONTINUOUS
 62
    7
 10
360.02122199999997
 20
211.067871
 40
14.544014000000001
 50
133.48249600000003
 51
161.08573600000005
  0
LINE
  8
_0-0_0
  6
CONTINUOUS
 62
    7
 10
369.42609899999991
 20
225.60441900000001
 11
371.91142099999996
 21
227.94571500000001
  0
ARC
  8
_0-0_0
  6
CONTINUOUS
 62
    7
 10
388.24601999999993
 20
219.108563
 40
22.996148999999999
 50
171.85650699999999
 51
220.71285
  0
LINE
  8
_0-0_0
  6
CONTINUOUS
 62
    7
 10
391.28771699999993
 20
184.08630399999998
 11
393.31484799999998
 21
186.89316399999998
  0
LINE
  8
_0-0_0
  6
CONTINUOUS
 62
    7
 10
375.38576999999998
 20
188.912927
 11
379.83334599999995
 21
195.288196
  0
LINE
  8
_0-0_0
  6
CONTINUOUS
 62
    7
 10
377.68955399999993
 20
187.15747099999999
 11
382.41792699999996
 21
193.309619
  0
LINE
  8
_0-0_0
  6
CONTINUOUS
 62
    7
 10
388.71298999999993
 20
180.49569099999999
 11
389.79093699999993
 21
183.057849
  0
LINE
  8
_0-0_0
  6
CONTINUOUS
 62
    7
 10
387.08389599999992
 20
181.319568
 11
391.56330499999996
 21
187.740466
  0
ARC
  8
_0-0_0
  6
CONTINUOUS
 62
    7
 10
421.03705099999991
 20
246.43444199999999
 40
73.435455000000019
 50
220.153007
 51
247.23987099999999
  0
ARC
  8
_0-0_0
  6
CONTINUOUS
 62
    7
 10
388.24601999999993
 20
219.108563
 40
30.752960000000002
 50
172.73492400000003
 51
220.63520500000004
  0
LINE
  8
_0-0_0
  6
CONTINUOUS
 62
    7
 10
367.57206099999996
 20
196.093018
 11
372.47102499999994
 21
202.21876799999998
  0
LINE
  8
_0-0_0
  6
CONTINUOUS
 62
    7
 10
365.83889799999997
 20
197.99964599999998
 11
371.37195699999995
 21
203.456976
  0
LINE
  8
_0-0_0
  6
CONTINUOUS
 62
    7
 10
341.34238899999997
 20
221.88240999999999
 11
339.29415299999994
 21
223.68222699999998
  0
LINE
  8
_0-0_0
  6
CONTINUOUS
 62
    7
 10
338.82148399999994
 20
219.37552499999998
 11
334.96135899999996
 21
221.62528699999999
  0
ARC
  8
_0-0_0
  6
CONTINUOUS
 62
    7
 10
313.83027299999992
 20
273.52695499999999
 40
55.037762000000001
 50
289.68364999999994
 51
302.43192499999998
  0
ARC
  8
_0-0_0
  6
CONTINUOUS
 62
    7
 10
335.38176899999996
 20
211.15785500000001
 40
10.969372999999999
 50
105.94434099999999
 51
142.99671799999999
  0
ARC
  8
_0-0_0
  6
CONTINUOUS
 62
    7
 10
333.84455599999995
 20
210.67908299999999
 40
9.8567569999999982
 50
297.21969799999999
 51
334.11935799999998
  0
ARC
  8
_0-0_0
  6
CONTINUOUS
 62
    7
 10
335.98051799999996
 20
210.30674399999998
 40
8.7217719999999996
 50
242.63960200000002
 51
285.784896
  0
LINE
  8
_0-0_0
  6
CONTINUOUS
 62
    7
 10
337.00959499999999
 20
213.52612899999997
 11
338.82148399999994
 21
206.45542599999999
  0
LINE
  8
_0-0_0
  6
CONTINUOUS
 62
    7
 10
332.67679399999997
 20
209.99077800000003
 11
334.25235599999996
 21
204.39849899999999
  0
ARC
  8
_0-0_0
  6
CONTINUOUS
 62
    7
 10
336.71317099999993
 20
213.33712199999999
 40
11.773273
 50
197.29576500000002
 51
246.25315400000002
  0
LINE
  8
_0-0_0
  6
CONTINUOUS
 62
    7
 10
330.94367099999994
 20
211.53347199999999
 11
326.13820799999996
 21
213.52612899999997
  0
ARC
  8
_0-0_0
  6
CONTINUOUS
 62
    7
 10
336.16534399999995
 20
212.330536
 40
10.980009000000001
 50
150.36478399999999
 51
193.12693200000007
  0
LINE
  8
_0-0_0
  6
CONTINUOUS
 62
    7
 10
340.55460799999992
 20
217.318591
 11
342.13016999999996
 21
211.27635499999997
  0
LINE
  8
_0-0_0
  6
CONTINUOUS
 62
    7
 10
334.48868999999996
 20
215.583057
 11
329.36811499999993
 21
218.347058
  0
ARC
  8
_0-0_0
  6
CONTINUOUS
 62
    7
 10
374.78903599999995
 20
196.04221200000001
 40
33.699990999999997
 50
151.229131
 51
162.14198400000004
  0
ARC
  8
_0-0_0
  6
CONTINUOUS
 62
    7
 10
344.49351499999995
 20
222.69056999999998
 40
3.868641999999999
 50
318.88923799999998
 51
133.81649200000007
  0
LINE
  8
_0-0_0
  6
CONTINUOUS
 62
    7
 10
329.36811499999993
 20
207.93385000000001
 11
345.12373999999994
 21
222.91086999999999
  0
LINE
  8
_0-0_0
  6
CONTINUOUS
 62
    7
 10
343.39061899999996
 20
220.661102
 11
344.65107099999994
 21
216.35440699999995
  0
LINE
  8
_0-0_0
  6
CONTINUOUS
 62
    7
 10
376.14595799999995
 20
231.93485699999999
 11
378.63128199999994
 21
234.27615399999999
  0
LINE
  8
_0-0_0
  6
CONTINUOUS
 62
    7
 10
357.29570899999993
 20
236.39038099999999
 11
367.41167899999994
 21
225.65212399999999
  0
LINE
  8
_0-0_0
  6
CONTINUOUS
 62
    7
 10
349.73755799999992
 20
251.483621
 11
371.91142099999996
 21
227.94571500000001
  0
LINE
  8
_0-0_0
  6
CONTINUOUS
 62
    7
 10
376.14595799999995
 20
231.93485699999999
 11
353.97208899999993
 21
255.47276299999999
  0
ARC
  8
_0-0_0
  6
CONTINUOUS
 62
    7
 10
379.53931299999994
 20
224.97949200000002
 40
13.975588999999999
 50
31.84427800000001
 51
63.659944999999993
  0
ARC
  8
_0-0_0
  6
CONTINUOUS
 62
    7
 10
142.11027199999995
 20
440.88431400000002
 40
293.61750499999999
 50
313.26471400000008
 51
316.49427300000008
  0
ARC
  8
_0-0_0
  6
CONTINUOUS
 62
    7
 10
354.54498899999999
 20
294.403659
 40
59.581182999999982
 50
177.99558999999999
 51
221.843998
  0
ARC
  8
_0-0_0
  6
CONTINUOUS
 62
    7
 10
366.5770839999999
 20
298.19446800000003
 40
63.596117999999997
 50
161.06528599999999
 51
180.61450300000007
  0
ARC
  8
_0-0_0
  6
CONTINUOUS
 62
    7
 10
354.54498899999999
 20
299.59634900000003
 40
59.581182999999982
 50
138.15599900000001
 51
182.00440599999999
  0
ARC
  8
_0-0_0
  6
CONTINUOUS
 62
    7
 10
388.81676699999991
 20
228.422516
 40
15.011429
 50
255.71572599999996
 51
304.232936
  0
ARC
  8
_0-0_0
  6
CONTINUOUS
 62
    7
 10
389.01922099999996
 20
267.79213299999998
 40
7.7568080000000004
 50
294.016257
 51
348.88775700000002
  0
ARC
  8
_0-0_0
  6
CONTINUOUS
 62
    7
 10
373.80689499999994
 20
325.31016499999998
 40
50.830874999999999
 50
284.90046799999999
 51
297.08241099999998
  0
ARC
  8
_0-0_0
  6
CONTINUOUS
 62
    7
 10
418.07348299999995
 20
239.90941800000002
 40
66.272313999999994
 50
247.42010599999998
 51
270.03677399999998
  0
ARC
  8
_0-0_0
  6
CONTINUOUS
 62
    7
 10
421.03705099999991
 20
246.43444199999999
 40
65.678650000000005
 50
220.12324099999998
 51
247.22891499999997
  0
ARC
  8
_0-0_0
  6
CONTINUOUS
 62
    7
 10
418.11540499999995
 20
230.905316
 40
50.338433999999999
 50
243.45113700000007
 51
270.00071100000008
  0
ARC
  8
_0-0_0
  6
CONTINUOUS
 62
    7
 10
359.51564299999995
 20
205.37769799999998
 40
52.310375999999998
 50
37.939149999999998
 51
48.405495999999992
  0
ARC
  8
_0-0_0
  6
CONTINUOUS
 62
    7
 10
388.81676699999991
 20
365.57748400000003
 40
15.011429
 50
55.767074000000001
 51
104.284257
  0
ARC
  8
_0-0_0
  6
CONTINUOUS
 62
    7
 10
389.01922099999996
 20
326.207874
 40
7.7568080000000004
 50
11.112268999999998
 51
65.983731999999989
  0
ARC
  8
_0-0_0
  6
CONTINUOUS
 62
    7
 10
373.80689499999994
 20
268.689841
 40
50.830874999999999
 50
62.917592000000013
 51
75.099520999999982
  0
ARC
  8
_0-0_0
  6
CONTINUOUS
 62
    7
 10
418.07348299999995
 20
354.09058199999998
 40
66.272313999999994
 50
89.963221999999988
 51
112.57990400000003
  0
ARC
  8
_0-0_0
  6
CONTINUOUS
 62
    7
 10
421.03705099999991
 20
347.56556399999999
 40
65.678650000000005
 50
112.77108800000001
 51
139.876769
  0
ARC
  8
_0-0_0
  6
CONTINUOUS
 62
    7
 10
418.11540499999995
 20
363.09469000000001
 40
50.338433999999999
 50
89.999299000000036
 51
116.54884500000001
  0
ARC
  8
_0-0_0
  6
CONTINUOUS
 62
    7
 10
359.51564299999995
 20
388.62230199999999
 40
52.310375999999998
 50
311.594514
 51
322.06085000000002
  0
LINE
  8
_0-0_0
  6
CONTINUOUS
 62
    7
 10
379.86488899999995
 20
260.19274300000001
 11
397.43241499999993
 21
277.74093199999999
  0
LINE
  8
_0-0_0
  6
CONTINUOUS
 62
    7
 10
391.87330699999995
 20
234.43397199999998
 11
397.41927699999997
 21
239.30203899999998
  0
LINE
  8
_0-0_0
  6
CONTINUOUS
 62
    7
 10
393.25979299999995
 20
232.788422
 11
398.38562299999995
 21
230.902905
  0
LINE
  8
_0-0_0
  6
CONTINUOUS
 62
    7
 10
393.51188699999994
 20
230.08013300000002
 11
402.71317799999997
 21
229.017383
  0
LINE
  8
_0-0_0
  6
CONTINUOUS
 62
    7
 10
392.04136499999993
 20
228.19461699999999
 11
399.18391099999997
 21
220.069739
  0
LINE
  8
_0-0_0
  6
CONTINUOUS
 62
    7
 10
394.85636799999997
 20
221.30389399999999
 11
397.04114199999992
 21
217.498572
  0
LINE
  8
_0-0_0
  6
CONTINUOUS
 62
    7
 10
394.85636799999997
 20
372.69610599999999
 11
397.04114199999992
 21
376.50142800000003
  0
LINE
  8
_0-0_0
  6
CONTINUOUS
 62
    7
 10
392.04136499999993
 20
365.80538899999999
 11
399.18391099999997
 21
373.93026099999997
  0
LINE
  8
_0-0_0
  6
CONTINUOUS
 62
    7
 10
393.51188699999994
 20
363.91986699999995
 11
402.71317799999997
 21
364.982617
  0
LINE
  8
_0-0_0
  6
CONTINUOUS
 62
    7
 10
393.25979299999995
 20
361.21157800000003
 11
398.38562299999995
 21
363.09709499999997
  0
LINE
  8
_0-0_0
  6
CONTINUOUS
 62
    7
 10
391.87330699999995
 20
359.56602799999996
 11
397.41927699999997
 21
354.69796099999996
  0
LINE
  8
_0-0_0
  6
CONTINUOUS
 62
    7
 10
379.86488899999995
 20
333.80726299999998
 11
397.43241499999993
 21
316.25907599999999
  0
LINE
  8
_0-0_0
  6
CONTINUOUS
 62
    7
 10
318.37692299999992
 20
256.13952
 11
316.55156199999993
 21
254.898346
  0
LINE
  8
_0-0_0
  6
CONTINUOUS
 62
    7
 10
316.55156199999993
 20
254.898346
 11
315.44873599999994
 21
253.68820200000002
  0
LINE
  8
_0-0_0
  6
CONTINUOUS
 62
    7
 10
315.44873599999994
 20
253.68820200000002
 11
313.85154399999993
 21
252.19879500000002
  0
LINE
  8
_0-0_0
  6
CONTINUOUS
 62
    7
 10
313.85154399999993
 20
252.19879500000002
 11
312.74871799999994
 21
251.73335599999999
  0
LINE
  8
_0-0_0
  6
CONTINUOUS
 62
    7
 10
314.61210899999992
 20
250.988654
 11
316.43747599999995
 21
253.31584800000002
  0
LINE
  8
_0-0_0
  6
CONTINUOUS
 62
    7
 10
316.43747599999995
 20
253.31584800000002
 11
318.03466799999995
 21
254.30878899999999
  0
LINE
  8
_0-0_0
  6
CONTINUOUS
 62
    7
 10
310.42899199999999
 20
265.69654800000001
 11
308.48953799999992
 21
264.331256
  0
LINE
  8
_0-0_0
  6
CONTINUOUS
 62
    7
 10
308.48953799999992
 20
264.331256
 11
306.01768799999996
 21
263.12111199999998
  0
LINE
  8
_0-0_0
  6
CONTINUOUS
 62
    7
 10
306.01768799999996
 20
263.12111199999998
 11
304.57260699999995
 21
262.25229200000001
  0
LINE
  8
_0-0_0
  6
CONTINUOUS
 62
    7
 10
305.40923499999997
 20
261.04215099999999
 11
307.84304799999995
 21
262.62464599999998
  0
LINE
  8
_0-0_0
  6
CONTINUOUS
 62
    7
 10
307.84304799999995
 20
262.62464599999998
 11
309.70643899999993
 21
263.95890499999996
  0
LINE
  8
_0-0_0
  6
CONTINUOUS
 62
    7
 10
309.70643899999993
 20
263.95890499999996
 11
310.42899199999999
 21
264.331256
  0
LINE
  8
_0-0_0
  6
CONTINUOUS
 62
    7
 10
310.42899199999999
 20
264.331256
 11
311.53180499999996
 21
264.45537400000001
  0
LINE
  8
_0-0_0
  6
CONTINUOUS
 62
    7
 10
309.70643799999993
 20
330.04110000000003
 11
310.428991
 21
329.66874899999999
  0
LINE
  8
_0-0_0
  6
CONTINUOUS
 62
    7
 10
303.06519699999996
 20
301.46661799999998
 11
301.49230299999994
 21
302.58015599999999
  0
LINE
  8
_0-0_0
  6
CONTINUOUS
 62
    7
 10
311.53180499999996
 20
329.54463099999998
 11
312.28636999999992
 21
329.59593999999998
  0
LINE
  8
_0-0_0
  6
CONTINUOUS
 62
    7
 10
305.23166999999995
 20
333.03456
 11
305.40923399999997
 21
332.95785799999999
  0
LINE
  8
_0-0_0
  6
CONTINUOUS
 62
    7
 10
304.57260699999995
 20
331.74771399999997
 11
304.39593399999995
 21
331.76759900000002
  0
LINE
  8
_0-0_0
  6
CONTINUOUS
 62
    7
 10
312.74871799999994
 20
342.26664999999997
 11
312.63014499999997
 21
342.269747
  0
LINE
  8
_0-0_0
  6
CONTINUOUS
 62
    7
 10
318.43782299999998
 20
337.12760900000001
 11
318.37692199999998
 21
337.86048800000003
  0
LINE
  8
_0-0_0
  6
CONTINUOUS
 62
    7
 10
534.59076499999992
 20
332.95785799999999
 11
532.15693999999996
 21
331.37536
  0
LINE
  8
_0-0_0
  6
CONTINUOUS
 62
    7
 10
532.15693999999996
 20
331.37536
 11
530.29356099999995
 21
330.04110100000003
  0
LINE
  8
_0-0_0
  6
CONTINUOUS
 62
    7
 10
530.29356099999995
 20
330.04110100000003
 11
529.57102699999996
 21
329.66874999999999
  0
LINE
  8
_0-0_0
  6
CONTINUOUS
 62
    7
 10
529.57102699999996
 20
329.66874999999999
 11
528.46819499999992
 21
329.54463199999998
  0
LINE
  8
_0-0_0
  6
CONTINUOUS
 62
    7
 10
521.62308999999993
 20
337.86048899999997
 11
523.44843100000003
 21
339.10166299999997
  0
LINE
  8
_0-0_0
  6
CONTINUOUS
 62
    7
 10
523.44843100000003
 20
339.10166299999997
 11
524.55126299999995
 21
340.311804
  0
LINE
  8
_0-0_0
  6
CONTINUOUS
 62
    7
 10
524.55126299999995
 20
340.311804
 11
526.14844399999993
 21
341.80121199999996
  0
LINE
  8
_0-0_0
  6
CONTINUOUS
 62
    7
 10
526.14844399999993
 20
341.80121199999996
 11
527.25127599999996
 21
342.26664999999997
  0
LINE
  8
_0-0_0
  6
CONTINUOUS
 62
    7
 10
525.38789699999995
 20
343.01135599999998
 11
523.56252999999992
 21
340.68415800000002
  0
LINE
  8
_0-0_0
  6
CONTINUOUS
 62
    7
 10
523.56252999999992
 20
340.68415800000002
 11
521.96533799999997
 21
339.69121999999999
  0
ENDSEC
  0
EOF
