  0
SECTION
  2
HEADER
  9
$ACADVER
  1
AC1009
  9
$INSBASE
 10
0
 20
0
 30
0
  9
$EXTMIN
 10
0
 20
0
  9
$EXTMAX
 10
420
 20
297
  9
$LIMMIN
 10
0
 20
0
  9
$LIMMAX
 10
420
 20
297
  9
$LTSCALE
 40
1
  0
ENDSEC
  0
SECTION
  2
TABLES
  0
TABLE
  2
LTYPE
 70
     9
  0
LTYPE
  2
CONTINUOUS
 70
    64
  3
実線
 72
    65
 73
     0
 40
0.0
  0
LTYPE
  2
DASHED1
 70
    64
  3
--  --  --  --  --  --  --  --  
 72
    65
 73
     2
 40
2.5
 49
1.25
 49
-1.25
  0
LTYPE
  2
DASHED2
 70
    64
  3
----    ----    ----    ----    
 72
    65
 73
     2
 40
5.0
 49
2.5
 49
-2.5
  0
LTYPE
  2
DASHED3
 70
    64
  3
------  ------  ------  ------  
 72
    65
 73
     2
 40
5.0
 49
3.75
 49
-1.25
  0
LTYPE
  2
CENTER1
 70
    64
  3
----- - ----- - ----- - ----- - 
 72
    65
 73
     4
 40
10.0
 49
6.25
 49
-1.25
 49
1.25
 49
-1.25
  0
LTYPE
  2
CENTER2
 70
    64
  3
----------  --  ----------  --  
 72
    65
 73
     4
 40
20.0
 49
12.5
 49
-2.5
 49
2.5
 49
-2.5
  0
LTYPE
  2
PHANTOM1
 70
    64
  3
--- - - --- - - --- - - --- - - 
 72
    65
 73
     6
 40
10.0
 49
3.25
 49
-1.25
 49
1.25
 49
-1.25
 49
1.25
 49
-1.25
  0
LTYPE
  2
PHANTOM2
 70
    64
  3
--------  -  -  --------  -  -  
 72
    65
 73
     6
 40
20.0
 49
10.0
 49
-2.5
 49
1.25
 49
-2.5
 49
1.25
 49
-2.5
  0
LTYPE
  2
DOT
 70
    64
  3
-   -   -   -   -   -   -   -   
 72
    65
 73
     2
 40
2.5
 49
0.625
 49
-1.875
  0
LTYPE
  2
DUMMY
 70
    64
  3
ダミー
 72
    65
 73
     0
 40
0.0
  0
LTYPE
  2
RAND1
 70
    64
  3
ランダム線1
 72
    65
 73
     4
 40
10.0
 49
1.0
 49
-2.0
 49
3.0
 49
-4.0
  0
LTYPE
  2
RAND2
 70
    64
  3
ランダム線2
 72
    65
 73
     4
 40
14.0
 49
2.0
 49
-3.0
 49
4.0
 49
-5.0
  0
LTYPE
  2
RAND3
 70
    64
  3
ランダム線3
 72
    65
 73
     4
 40
18.0
 49
3.0
 49
-4.0
 49
5.0
 49
-6.0
  0
LTYPE
  2
RAND4
 70
    64
  3
ランダム線4
 72
    65
 73
     4
 40
22.0
 49
4.0
 49
-5.0
 49
6.0
 49
-7.0
  0
LTYPE
  2
RAND5
 70
    64
  3
ランダム線5
 72
    65
 73
     4
 40
26.0
 49
5.0
 49
-6.0
 49
7.0
 49
-8.0
  0
LTYPE
  2
LONG1
 70
    64
  3
----------  --  ----------  --  
 72
    65
 73
     4
 40
40.0
 49
32.5
 49
-2.5
 49
2.5
 49
-2.5
  0
LTYPE
  2
LONG2
 70
    64
  3
--------  -  -  --------  -  -  
 72
    65
 73
     6
 40
40.0
 49
30.0
 49
-2.5
 49
1.25
 49
-2.5
 49
1.25
 49
-2.5
  0
LTYPE
  2
LONG3
 70
    64
  3
+++++++++++++++..+++++++++++++++
 72
    65
 73
     2
 40
40.0
 49
37.5
 49
-2.5
  0
LTYPE
  2
LONG4
 70
    64
  3
+++++++++++++++..+++++++++++++++
 72
    65
 73
     2
 40
80.0
 49
75.0
 49
-5.0
  0
LTYPE
  2
LONG5
 70
    64
  3
----------  --  ----------  --  
 72
    65
 73
     4
 40
60.0
 49
37.5
 49
-7.5
 49
7.5
 49
-7.5
  0
LTYPE
  2
dashed
 70
   64
  3
-------   -------------   ------
 72
   65
 73
    2
 40
7.5
 49
6
 49
-1.5
  0
LTYPE
  2
dashed_spaced
 70
   64
  3
----        --------        ----
 72
   65
 73
    2
 40
12
 49
6
 49
-6
  0
LTYPE
  2
long_dashed_dotted
 70
   64
  3
------------- --- --------------
 72
   65
 73
    4
 40
15.25
 49
12
 49
-1.5
 49
0.25
 49
-1.5
  0
LTYPE
  2
long_dashed_double-dotted
 70
   64
  3
----------- --- --- ------------
 72
   65
 73
    6
 40
17
 49
12
 49
-1.5
 49
0.25
 49
-1.5
 49
0.25
 49
-1.5
  0
LTYPE
  2
long_dashed_triplicate-dotted
 70
   64
  3
--------- --- --- --- ----------
 72
   65
 73
    8
 40
18.75
 49
12
 49
-1.5
 49
0.25
 49
-1.5
 49
0.25
 49
-1.5
 49
0.25
 49
-1.5
  0
LTYPE
  2
dotted
 70
   64
  3
   -       -       -       -    
 72
   65
 73
    2
 40
1.75
 49
0.25
 49
-1.5
  0
LTYPE
  2
chain
 70
   64
  3
-------------- -- --------------
 72
   65
 73
    4
 40
18.5
 49
12
 49
-1.5
 49
3.5
 49
-1.5
  0
LTYPE
  2
chain_double_dash
 70
   64
  3
------------ -- -- -------------
 72
   65
 73
    6
 40
23.5
 49
12
 49
-1.5
 49
3.5
 49
-1.5
 49
3.5
 49
-1.5
  0
LTYPE
  2
dashed_dotted
 70
   64
  3
-----------     -     ----------
 72
   65
 73
    4
 40
9.25
 49
6
 49
-1.5
 49
0.25
 49
-1.5
  0
LTYPE
  2
double-dashed_dotted
 70
   64
  3
------   -----------   -   -----
 72
   65
 73
    6
 40
16.75
 49
6
 49
-1.5
 49
6
 49
-1.5
 49
0.25
 49
-1.5
  0
LTYPE
  2
dashed_double-dotted
 70
   64
  3
---------    -    -    ---------
 72
   65
 73
    6
 40
11
 49
6
 49
-1.5
 49
0.25
 49
-1.5
 49
0.25
 49
-1.5
  0
LTYPE
  2
double-dashed_double-dotted
 70
   64
  3
-----   ---------   -   -   ----
 72
   65
 73
    8
 40
18.5
 49
6
 49
-1.5
 49
6
 49
-1.5
 49
0.25
 49
-1.5
 49
0.25
 49
-1.5
  0
LTYPE
  2
dashed_triplicate-dotted
 70
   64
  3
-------    -    -    -    ------
 72
   65
 73
    8
 40
12.75
 49
6
 49
-1.5
 49
0.25
 49
-1.5
 49
0.25
 49
-1.5
 49
0.25
 49
-1.5
  0
LTYPE
  2
double-dashed_triplicate-dotted
 70
   64
  3
-----  ---------  -  -  -  -----
 72
   65
 73
   10
 40
20.25
 49
6
 49
-1.5
 49
6
 49
-1.5
 49
0.25
 49
-1.5
 49
0.25
 49
-1.5
 49
0.25
 49
-1.5
  0
LTYPE
  2
undefined
 70
   64
  3
--------------------------------
 72
   65
 73
    0
 40
0
  0
LTYPE
  2
BORDER
 70
   64
  3
----     --------     -     ----
 72
   65
 73
    6
 40
1.76
 49
0.5
 49
-0.25
 49
0.5
 49
-0.25
 49
0.01
 49
-0.25
  0
LTYPE
  2
BORDER2
 70
   64
  3
----     --------     -     ----
 72
   65
 73
    6
 40
0.885
 49
0.25
 49
-0.125
 49
0.25
 49
-0.125
 49
0.01
 49
-0.125
  0
LTYPE
  2
BORDERX2
 70
   64
  3
----     --------     -     ----
 72
   65
 73
    6
 40
3.5099999999999998
 49
1
 49
-0.5
 49
1
 49
-0.5
 49
0.01
 49
-0.5
  0
LTYPE
  2
CENTER
 70
   64
  3
----------    ----    ----------
 72
   65
 73
    4
 40
2
 49
1.25
 49
-0.25
 49
0.25
 49
-0.25
  0
LTYPE
  2
CENTER2_21
 70
   64
  3
----------    ----    ----------
 72
   65
 73
    4
 40
1.125
 49
0.75
 49
-0.125
 49
0.125
 49
-0.125
  0
LTYPE
  2
CENTERX2
 70
   64
  3
----------    ----    ----------
 72
   65
 73
    4
 40
4
 49
2.5
 49
-0.5
 49
0.5
 49
-0.5
  0
LTYPE
  2
DASHDOT
 70
   64
  3
--------        -        -------
 72
   65
 73
    4
 40
1.01
 49
0.5
 49
-0.25
 49
0.01
 49
-0.25
  0
LTYPE
  2
DASHDOT2
 70
   64
  3
--------        -        -------
 72
   65
 73
    4
 40
0.51
 49
0.25
 49
-0.125
 49
0.01
 49
-0.125
  0
LTYPE
  2
DASHDOTX2
 70
   64
  3
--------        -        -------
 72
   65
 73
    4
 40
2.0099999999999998
 49
1
 49
-0.5
 49
0.01
 49
-0.5
  0
LTYPE
  2
DASHED
 70
   64
  3
------     -----------     -----
 72
   65
 73
    2
 40
0.75
 49
0.5
 49
-0.25
  0
LTYPE
  2
DASHED2_27
 70
   64
  3
------     -----------     -----
 72
   65
 73
    2
 40
0.375
 49
0.25
 49
-0.125
  0
LTYPE
  2
DASHEDX2
 70
   64
  3
------     -----------     -----
 72
   65
 73
    2
 40
1.5
 49
1
 49
-0.5
  0
LTYPE
  2
DIVIDE
 70
   64
  3
------      -      -      ------
 72
   65
 73
    6
 40
1.27
 49
0.5
 49
-0.25
 49
0.01
 49
-0.25
 49
0.01
 49
-0.25
  0
LTYPE
  2
DIVIDE2
 70
   64
  3
------      -      -      ------
 72
   65
 73
    6
 40
0.645
 49
0.25
 49
-0.125
 49
0.01
 49
-0.125
 49
0.01
 49
-0.125
  0
LTYPE
  2
DIVIDEX2
 70
   64
  3
------      -      -      ------
 72
   65
 73
    6
 40
2.5199999999999996
 49
1
 49
-0.5
 49
0.01
 49
-0.5
 49
0.01
 49
-0.5
  0
LTYPE
  2
DOT_32
 70
   64
  3
-               -               
 72
   65
 73
    2
 40
0.26
 49
0.01
 49
-0.25
  0
ENDTAB
  0
TABLE
  2
STYLE
  5
3
100
AcDbSymbolTable
 70
     1
  0
STYLE
  5
10
100
AcDbSymbolTableRecord
100
AcDbTextStyleTableRecord
  2
STANDARD
 70
     0
 40
0.0
 41
1.0
 50
0.0
 71
     0
 42
0.2
  3
txt
  4
bigfont.shx
  0
STYLE
  5
26
100
AcDbSymbolTableRecord
100
AcDbTextStyleTableRecord
  2
TATEGAKI
 70
    68
 40
0.0
 41
1.0
 50
0.0
 71
     0
 42
1.0
  3
txt
  4
bigfont.shx
  0
ENDTAB
  0
TABLE
  2
LAYER
 70
    2
  0
LAYER
  2
_0-0_0
 70
   64
 62
    7
  6
CONTINUOUS
  0
LAYER
  2
ADD_LINE
 70
   64
 62
    7
  6
CONTINUOUS
  0
ENDTAB
  0
ENDSEC
  0
SECTION
  2
BLOCKS
  0
ENDSEC
  0
SECTION
  2
ENTITIES
  0
ARC
  8
_0-0_0
  6
CONTINUOUS
 62
    7
 10
251.16031638998885
 20
313.18391002107364
 40
10.016356
 50
29.761155999999996
 51
38.372925000000002
  0
LINE
  8
_0-0_0
  6
CONTINUOUS
 62
    7
 10
243.11547738998885
 20
314.13865902107364
 11
243.75474738998884
 21
314.80212302107361
  0
ARC
  8
_0-0_0
  6
CONTINUOUS
 62
    7
 10
246.50602538998885
 20
311.50926402107365
 40
5.529666999999999
 50
53.102882999999991
 51
135.84236799999999
  0
ARC
  8
_0-0_0
  6
CONTINUOUS
 62
    7
 10
245.49810338998884
 20
310.01477002107367
 40
16.455076999999999
 50
34.782744999999998
 51
108.10991399999999
  0
LINE
  8
_0-0_0
  6
CONTINUOUS
 62
    7
 10
254.70334038998885
 20
302.31209602107367
 11
250.84197538998885
 21
298.95549202107361
  0
LINE
  8
_0-0_0
  6
CONTINUOUS
 62
    7
 10
244.28185538998883
 20
307.69106302107366
 11
246.65567438998886
 21
305.30998402107366
  0
LINE
  8
_0-0_0
  6
CONTINUOUS
 62
    7
 10
246.38429738998883
 20
310.62310702107368
 11
247.78146838998885
 21
309.92510902107364
  0
LINE
  8
_0-0_0
  6
CONTINUOUS
 62
    7
 10
247.78146838998885
 20
309.92510902107364
 11
249.43715338998885
 21
307.21608802107369
  0
LINE
  8
_0-0_0
  6
CONTINUOUS
 62
    7
 10
240.35150638998886
 20
307.91091202107361
 11
240.90840338998885
 21
308.17951602107365
  0
LINE
  8
_0-0_0
  6
CONTINUOUS
 62
    7
 10
240.90840338998885
 20
308.17951602107365
 11
243.26609938998885
 21
308.02021402107357
  0
LINE
  8
_0-0_0
  6
CONTINUOUS
 62
    7
 10
246.34680638998884
 20
304.82598802107361
 11
244.04363238998883
 21
305.16738202107365
  0
LINE
  8
_0-0_0
  6
CONTINUOUS
 62
    7
 10
244.04363238998883
 20
305.16738202107365
 11
242.15063938998884
 21
305.94616602107362
  0
LINE
  8
_0-0_0
  6
CONTINUOUS
 62
    7
 10
248.65163438998886
 20
306.02144702107364
 11
246.94445938998885
 21
307.98535102107365
  0
LINE
  8
_0-0_0
  6
CONTINUOUS
 62
    7
 10
246.94445938998885
 20
307.98535102107365
 11
243.42315538998884
 21
312.38582702107362
  0
LINE
  8
_0-0_0
  6
CONTINUOUS
 62
    7
 10
248.88438838998886
 20
298.65450302107365
 11
246.63596038998884
 21
298.82799002107367
  0
LINE
  8
_0-0_0
  6
CONTINUOUS
 62
    7
 10
244.58035438998886
 20
299.65394202107365
 11
247.37960638998885
 21
300.87514502107365
  0
LINE
  8
_0-0_0
  6
CONTINUOUS
 62
    7
 10
247.37960638998885
 20
300.87514502107365
 11
248.69933038998886
 21
300.40612702107353
  0
LINE
  8
_0-0_0
  6
CONTINUOUS
 62
    7
 10
248.69933038998886
 20
300.40612702107353
 11
250.16201938998884
 21
301.38133402107366
  0
LINE
  8
_0-0_0
  6
CONTINUOUS
 62
    7
 10
249.65518938998883
 20
301.96436702107366
 11
247.94777038998885
 21
302.28486202107365
  0
LINE
  8
_0-0_0
  6
CONTINUOUS
 62
    7
 10
247.94777038998885
 20
302.28486202107365
 11
246.08494438998883
 21
301.76998202107364
  0
LINE
  8
_0-0_0
  6
CONTINUOUS
 62
    7
 10
246.08494438998883
 20
301.76998202107364
 11
244.48722938998884
 21
301.40473502107363
  0
LINE
  8
_0-0_0
  6
CONTINUOUS
 62
    7
 10
244.48722938998884
 20
301.40473502107363
 11
242.12953038998884
 21
301.56403702107366
  0
LINE
  8
_0-0_0
  6
CONTINUOUS
 62
    7
 10
241.56891338998884
 20
302.90838502107351
 11
243.19210638998885
 21
302.99951102107366
  0
LINE
  8
_0-0_0
  6
CONTINUOUS
 62
    7
 10
243.19210638998885
 20
302.99951102107366
 11
245.12605138998885
 21
302.76813902107364
  0
LINE
  8
_0-0_0
  6
CONTINUOUS
 62
    7
 10
245.12605138998885
 20
302.76813902107364
 11
247.97586238998883
 21
304.14100202107363
  0
ARC
  8
_0-0_0
  6
CONTINUOUS
 62
    7
 10
250.48645438998884
 20
304.14154002107364
 40
1.5654110000000001
 50
130.663568
 51
254.947138
  0
LINE
  8
_0-0_0
  6
CONTINUOUS
 62
    7
 10
224.79845138998886
 20
301.94771602107369
 11
224.79845138998886
 21
298.94771602107369
  0
ARC
  8
_0-0_0
  6
CONTINUOUS
 62
    7
 10
223.29845138998886
 20
301.94771602107369
 40
1.5
 50
0
 51
90.000003000000007
  0
LINE
  8
_0-0_0
  6
CONTINUOUS
 62
    7
 10
224.79845138998886
 20
293.94771602107369
 11
224.79845138998886
 21
290.94771602107369
  0
ARC
  8
_0-0_0
  6
CONTINUOUS
 62
    7
 10
223.29845138998886
 20
290.94771602107369
 40
1.5
 50
270.000001
 51
0
  0
ARC
  8
_0-0_0
  6
CONTINUOUS
 62
    7
 10
224.79845138998886
 20
296.44771602107369
 40
2.5
 50
270.000001
 51
90.000002999999992
  0
ARC
  8
_0-0_0
  6
CONTINUOUS
 62
    7
 10
249.91101238998885
 20
307.84107602107366
 40
10.531065
 50
134.429721
 51
255.10598100000001
  0
ARC
  8
_0-0_0
  6
CONTINUOUS
 62
    7
 10
246.37981138998884
 20
310.74095402107366
 40
6.2302889999999991
 50
299.69728099999998
 51
56.418554000000007
  0
LINE
  8
_0-0_0
  6
CONTINUOUS
 62
    7
 10
245.81623638998883
 20
315.19340702107365
 11
244.66262038998883
 21
312.35884902107364
  0
LINE
  8
_0-0_0
  6
CONTINUOUS
 62
    7
 10
249.47486438998885
 20
308.67652502107353
 11
248.27263338998884
 21
310.86385402107351
  0
LINE
  8
_0-0_0
  6
CONTINUOUS
 62
    7
 10
248.27263338998884
 20
310.86385402107351
 11
247.33972638998884
 21
312.88129802107369
  0
LINE
  8
_0-0_0
  6
CONTINUOUS
 62
    7
 10
247.33972638998884
 20
312.88129802107369
 11
247.28452338998886
 21
315.74249202107364
  0
LINE
  8
_0-0_0
  6
CONTINUOUS
 62
    7
 10
249.77584038998884
 20
315.07976002107364
 11
249.98922238998884
 21
312.84094102107366
  0
LINE
  8
_0-0_0
  6
CONTINUOUS
 62
    7
 10
249.98922238998884
 20
312.84094102107366
 11
250.41717038998883
 21
310.60004802107369
  0
LINE
  8
_0-0_0
  6
CONTINUOUS
 62
    7
 10
250.41717038998883
 20
310.60004802107369
 11
251.17786138998883
 21
309.02556102107366
  0
ARC
  8
_0-0_0
  6
CONTINUOUS
 62
    7
 10
251.06681638998884
 20
298.68432502107362
 40
29.009314
 50
111.609731
 51
170.54911299999989
  0
ARC
  8
_0-0_0
  6
CONTINUOUS
 62
    7
 10
251.06681638998884
 20
298.68432502107362
 40
35.009310999999997
 50
111.31897000000001
 51
172.18003899999999
  0
ARC
  8
_0-0_0
  6
CONTINUOUS
 62
    7
 10
245.49810338998884
 20
310.01477002107367
 40
22.455072000000001
 50
35.243201999999997
 51
108.59194100000001
  0
ARC
  8
_0-0_0
  6
CONTINUOUS
 62
    7
 10
251.16031638998885
 20
313.18391002107364
 40
16.016354
 50
255.699634
 51
37.673305000000013
  0
ARC
  8
_0-0_0
  6
CONTINUOUS
 62
    7
 10
251.49243638998882
 20
312.58099302107365
 40
10.0509
 50
261.92100699999997
 51
33.68765400000003
  0
ARC
  8
_0-0_0
  6
CONTINUOUS
 62
    7
 10
303.24921138998883
 20
243.57972302107362
 40
22.455072000000001
 50
333.40806199999997
 51
46.756774000000036
  0
ARC
  8
_0-0_0
  6
CONTINUOUS
 62
    7
 10
308.99578038998885
 20
191.19067302107362
 40
10.016356
 50
348.76123400000006
 51
357.37292800000006
  0
ARC
  8
_0-0_0
  6
CONTINUOUS
 62
    7
 10
307.17552938998887
 20
248.74577502107365
 40
10.016356
 50
43.627068000000001
 51
52.238724999999988
  0
LINE
  8
_0-0_0
  6
CONTINUOUS
 62
    7
 10
296.90264738998883
 20
253.76738202107364
 11
293.04127038998882
 21
250.41075302107365
  0
ARC
  8
_0-0_0
  6
CONTINUOUS
 62
    7
 10
298.12738438998883
 20
249.33691302107366
 40
1.5654110000000001
 50
187.05252999999999
 51
311.33622400000002
  0
ARC
  8
_0-0_0
  6
CONTINUOUS
 62
    7
 10
304.09103838998885
 20
244.35176902107364
 40
6.2302889999999991
 50
25.581606000000001
 51
142.302729
  0
ARC
  8
_0-0_0
  6
CONTINUOUS
 62
    7
 10
306.62472338998884
 20
249.15856802107365
 40
10.0509
 50
48.312336000000002
 51
180.07897600000001
  0
LINE
  8
_0-0_0
  6
CONTINUOUS
 62
    7
 10
308.86025838998887
 20
247.11091202107363
 11
306.67291138998883
 21
247.63380002107365
  0
LINE
  8
_0-0_0
  6
CONTINUOUS
 62
    7
 10
306.67291138998883
 20
247.63380002107365
 11
304.51340138998887
 21
248.36945702107363
  0
LINE
  8
_0-0_0
  6
CONTINUOUS
 62
    7
 10
304.51340138998887
 20
248.36945702107363
 11
303.06009338998888
 21
249.34186902107365
  0
LINE
  8
_0-0_0
  6
CONTINUOUS
 62
    7
 10
307.00136538998885
 20
240.64634902107366
 11
307.74734338998883
 21
241.18706002107365
  0
LINE
  8
_0-0_0
  6
CONTINUOUS
 62
    7
 10
308.42172038998888
 20
243.17402202107365
 11
305.45422238998884
 21
242.42614602107363
  0
LINE
  8
_0-0_0
  6
CONTINUOUS
 62
    7
 10
298.22904538998887
 20
245.14229602107363
 11
298.24656238998887
 21
242.81402502107366
  0
LINE
  8
_0-0_0
  6
CONTINUOUS
 62
    7
 10
298.24656238998887
 20
242.81402502107366
 11
298.75431338998885
 21
240.83107802107367
  0
LINE
  8
_0-0_0
  6
CONTINUOUS
 62
    7
 10
300.77883738998884
 20
242.69871702107363
 11
298.75133538998887
 21
245.38079702107365
  0
LINE
  8
_0-0_0
  6
CONTINUOUS
 62
    7
 10
295.66515338998886
 20
240.67778202107365
 11
295.98129738998887
 21
242.27250902107366
  0
LINE
  8
_0-0_0
  6
CONTINUOUS
 62
    7
 10
295.98129738998887
 20
242.27250902107366
 11
296.02132438998888
 21
244.21983502107366
  0
LINE
  8
_0-0_0
  6
CONTINUOUS
 62
    7
 10
296.02132438998888
 20
244.21983502107366
 11
297.77745838998885
 21
246.85082902107365
  0
LINE
  8
_0-0_0
  6
CONTINUOUS
 62
    7
 10
300.44955938998885
 20
238.77600002107363
 11
300.79306438998884
 21
239.29009902107364
  0
LINE
  8
_0-0_0
  6
CONTINUOUS
 62
    7
 10
300.79306438998884
 20
239.29009902107364
 11
300.96344438998887
 21
241.64703302107367
  0
LINE
  8
_0-0_0
  6
CONTINUOUS
 62
    7
 10
297.81716138998883
 20
225.03156602107364
 11
300.80574838998882
 21
225.29302902107366
  0
ARC
  8
_0-0_0
  6
CONTINUOUS
 62
    7
 10
300.93647938998885
 20
223.79873602107367
 40
1.5
 50
5.0001360000000012
 51
94.999906000000024
  0
ARC
  8
_0-0_0
  6
CONTINUOUS
 62
    7
 10
295.32667638998885
 20
224.81367102107365
 40
2.4999980000000002
 50
5.000144999999999
 51
185.00014099999993
  0
ARC
  8
_0-0_0
  6
CONTINUOUS
 62
    7
 10
289.97833738998884
 20
222.84002602107364
 40
1.5
 50
95.000138000000021
 51
185.00014099999993
  0
LINE
  8
_0-0_0
  6
CONTINUOUS
 62
    7
 10
289.84759938998883
 20
224.33431902107364
 11
292.83619238998887
 21
224.59579402107363
  0
ARC
  8
_0-0_0
  6
CONTINUOUS
 62
    7
 10
301.71082638998882
 20
248.25220802107367
 40
10.531065
 50
186.89407000000003
 51
307.57038499999999
  0
ARC
  8
_0-0_0
  6
CONTINUOUS
 62
    7
 10
304.86942538998886
 20
244.36983502107364
 40
5.529666999999999
 50
306.15795700000001
 51
28.897164000000053
  0
LINE
  8
_0-0_0
  6
CONTINUOUS
 62
    7
 10
292.47076838998885
 20
248.51409802107366
 11
292.32964938998884
 21
246.26341502107363
  0
LINE
  8
_0-0_0
  6
CONTINUOUS
 62
    7
 10
292.86149138998883
 20
244.11285302107365
 11
294.46038638998886
 21
246.71490402107366
  0
LINE
  8
_0-0_0
  6
CONTINUOUS
 62
    7
 10
294.46038638998886
 20
246.71490402107366
 11
294.17960038998888
 21
248.08706002107365
  0
LINE
  8
_0-0_0
  6
CONTINUOUS
 62
    7
 10
294.17960038998888
 20
248.08706002107365
 11
295.34888138998883
 21
249.39979102107367
  0
LINE
  8
_0-0_0
  6
CONTINUOUS
 62
    7
 10
295.85571138998887
 20
248.81675902107366
 11
295.93547838998882
 21
247.08134702107367
  0
LINE
  8
_0-0_0
  6
CONTINUOUS
 62
    7
 10
295.93547838998882
 20
247.08134702107367
 11
295.16633138998884
 21
245.30830002107365
  0
LINE
  8
_0-0_0
  6
CONTINUOUS
 62
    7
 10
295.16633138998884
 20
245.30830002107365
 11
294.58226738998883
 21
243.77696402107364
  0
LINE
  8
_0-0_0
  6
CONTINUOUS
 62
    7
 10
294.58226738998883
 20
243.77696402107364
 11
294.41189438998884
 21
241.42004302107364
  0
LINE
  8
_0-0_0
  6
CONTINUOUS
 62
    7
 10
299.73365338998883
 20
247.25831202107364
 11
301.44083138998883
 21
245.29443302107364
  0
LINE
  8
_0-0_0
  6
CONTINUOUS
 62
    7
 10
301.44083138998883
 20
245.29443302107364
 11
305.30843938998885
 21
241.19497002107363
  0
LINE
  8
_0-0_0
  6
CONTINUOUS
 62
    7
 10
303.97495538998885
 20
244.37263102107363
 11
303.47819038998887
 21
245.85334402107367
  0
LINE
  8
_0-0_0
  6
CONTINUOUS
 62
    7
 10
303.47819038998887
 20
245.85334402107367
 11
301.02598138998883
 21
247.86993302107365
  0
LINE
  8
_0-0_0
  6
CONTINUOUS
 62
    7
 10
302.47742738998886
 20
247.70404002107364
 11
304.47617638998884
 21
246.20909302107364
  0
LINE
  8
_0-0_0
  6
CONTINUOUS
 62
    7
 10
304.47617638998884
 20
246.20909302107364
 11
306.34412638998884
 21
245.00447902107365
  0
LINE
  8
_0-0_0
  6
CONTINUOUS
 62
    7
 10
306.34412638998884
 20
245.00447902107365
 11
309.16980438998888
 21
244.55159802107369
  0
ARC
  8
_0-0_0
  6
CONTINUOUS
 62
    7
 10
494.07641438998883
 20
457.58354402107364
 40
328.1518549999999
 50
217.42649100000003
 51
219.65600100000003
  0
ARC
  8
_0-0_0
  6
CONTINUOUS
 62
    7
 10
483.97726938998881
 20
469.20131702107369
 40
328.1518549999999
 50
222.344009
 51
224.57351900000003
  0
ARC
  8
_0-0_0
  6
CONTINUOUS
 62
    7
 10
296.32061038998881
 20
291.32801402107361
 40
69.817639
 50
228.67517100000001
 51
263.61063200000001
  0
LINE
  8
_0-0_0
  6
CONTINUOUS
 62
    7
 10
299.43695538998884
 20
206.51724102107363
 11
302.42553538998885
 21
206.77871002107366
  0
ARC
  8
_0-0_0
  6
CONTINUOUS
 62
    7
 10
302.29480438998883
 20
208.27300302107363
 40
1.5
 50
274.99991799999998
 51
5.0001359999999977
  0
ARC
  8
_0-0_0
  6
CONTINUOUS
 62
    7
 10
296.94647038998886
 20
206.29935202107364
 40
2.4999989999999999
 50
185.00000400000002
 51
5.000005000000014
  0
LINE
  8
_0-0_0
  6
CONTINUOUS
 62
    7
 10
294.45598638998882
 20
206.08146302107363
 11
291.46739938998883
 21
205.82000002107364
  0
ARC
  8
_0-0_0
  6
CONTINUOUS
 62
    7
 10
299.41263838998884
 20
180.30905102107366
 40
29.009314
 50
70.609751000000003
 51
81.426203000000001
  0
LINE
  8
_0-0_0
  6
CONTINUOUS
 62
    7
 10
304.76663038998885
 20
188.89466502107365
 11
305.29432838998883
 21
191.33422102107363
  0
LINE
  8
_0-0_0
  6
CONTINUOUS
 62
    7
 10
305.29432838998883
 20
191.33422102107363
 11
305.91379838998887
 21
193.46881602107362
  0
LINE
  8
_0-0_0
  6
CONTINUOUS
 62
    7
 10
305.91379838998887
 20
193.46881602107362
 11
307.74926638998886
 21
195.66440902107365
  0
LINE
  8
_0-0_0
  6
CONTINUOUS
 62
    7
 10
309.19469438998885
 20
193.52980902107367
 11
307.88692438998885
 21
191.70014502107364
  0
LINE
  8
_0-0_0
  6
CONTINUOUS
 62
    7
 10
307.88692438998885
 20
191.70014502107364
 11
306.73975638998883
 21
189.72817902107366
  0
LINE
  8
_0-0_0
  6
CONTINUOUS
 62
    7
 10
306.73975638998883
 20
189.72817902107366
 11
306.28089438998882
 21
188.04083202107367
  0
LINE
  8
_0-0_0
  6
CONTINUOUS
 62
    7
 10
303.55063338998883
 20
197.18912902107365
 11
304.46836338998884
 21
197.27044602107364
  0
LINE
  8
_0-0_0
  6
CONTINUOUS
 62
    7
 10
297.37887438998882
 20
194.30233102107366
 11
297.97540138998886
 21
194.13969002107362
  0
LINE
  8
_0-0_0
  6
CONTINUOUS
 62
    7
 10
297.97540138998886
 20
194.13969002107362
 11
299.65026038998883
 21
192.47266702107365
  0
ARC
  8
_0-0_0
  6
CONTINUOUS
 62
    7
 10
302.55488138998885
 20
184.80842502107365
 40
1.5654110000000001
 50
89.663786000000016
 51
213.94731600000006
  0
LINE
  8
_0-0_0
  6
CONTINUOUS
 62
    7
 10
297.74596438998884
 20
181.71833702107364
 11
296.16287038998883
 21
183.32437002107366
  0
LINE
  8
_0-0_0
  6
CONTINUOUS
 62
    7
 10
295.15336738998883
 20
185.29634002107366
 11
298.06716738998887
 21
184.38150502107365
  0
LINE
  8
_0-0_0
  6
CONTINUOUS
 62
    7
 10
298.06716738998887
 20
184.38150502107365
 11
298.75547338998882
 21
183.16173302107364
  0
LINE
  8
_0-0_0
  6
CONTINUOUS
 62
    7
 10
298.75547338998882
 20
183.16173302107364
 11
300.49916838998882
 21
182.93810902107364
  0
LINE
  8
_0-0_0
  6
CONTINUOUS
 62
    7
 10
300.49916838998882
 20
183.71063702107364
 11
299.42082938998885
 21
185.07271302107367
  0
LINE
  8
_0-0_0
  6
CONTINUOUS
 62
    7
 10
299.42082938998885
 20
185.07271302107367
 11
297.67713438998885
 21
185.90622502107365
  0
LINE
  8
_0-0_0
  6
CONTINUOUS
 62
    7
 10
297.67713438998885
 20
185.90622502107365
 11
296.23170038998887
 21
186.67874702107366
  0
LINE
  8
_0-0_0
  6
CONTINUOUS
 62
    7
 10
296.23170038998887
 20
186.67874702107366
 11
294.55684038998879
 21
188.34576902107364
  0
LINE
  8
_0-0_0
  6
CONTINUOUS
 62
    7
 10
295.01570838998884
 20
189.72817902107366
 11
296.30053538998885
 21
188.73203002107365
  0
LINE
  8
_0-0_0
  6
CONTINUOUS
 62
    7
 10
296.30053538998885
 20
188.73203002107365
 11
297.60830538998886
 21
187.28863402107368
  0
LINE
  8
_0-0_0
  6
CONTINUOUS
 62
    7
 10
297.60830538998886
 20
187.28863402107368
 11
300.65977038998886
 21
186.45512002107364
  0
LINE
  8
_0-0_0
  6
CONTINUOUS
 62
    7
 10
299.87969838998885
 20
188.04083202107367
 11
298.36543438998882
 21
189.80950202107365
  0
LINE
  8
_0-0_0
  6
CONTINUOUS
 62
    7
 10
298.36543438998882
 20
189.80950202107365
 11
297.44770338998882
 21
191.63915902107365
  0
LINE
  8
_0-0_0
  6
CONTINUOUS
 62
    7
 10
300.20090138998887
 20
191.55784202107364
 11
300.43033938998883
 21
188.20346602107364
  0
LINE
  8
_0-0_0
  6
CONTINUOUS
 62
    7
 10
302.40346538998887
 20
187.43094402107366
 11
302.40346538998887
 21
190.03312302107364
  0
LINE
  8
_0-0_0
  6
CONTINUOUS
 62
    7
 10
302.40346538998887
 20
190.03312302107364
 11
302.63289638998884
 21
195.66440902107365
  0
LINE
  8
_0-0_0
  6
CONTINUOUS
 62
    7
 10
303.71123538998881
 20
192.39135602107365
 11
304.30776238998885
 21
190.94796002107364
  0
LINE
  8
_0-0_0
  6
CONTINUOUS
 62
    7
 10
304.30776238998885
 20
190.94796002107364
 11
303.78006438998887
 21
187.81720502107365
  0
ARC
  8
_0-0_0
  6
CONTINUOUS
 62
    7
 10
303.78516638998883
 20
192.48325702107365
 40
6.2302889999999991
 50
258.69718500000005
 51
15.418531000000051
  0
LINE
  8
_0-0_0
  6
CONTINUOUS
 62
    7
 10
306.28089438998882
 20
196.21331102107365
 11
303.55063338998883
 21
194.83090102107366
  0
ARC
  8
_0-0_0
  6
CONTINUOUS
 62
    7
 10
304.54770938998888
 20
187.97800802107366
 40
10.531065
 50
93.429577000000009
 51
214.10592600000004
  0
ARC
  8
_0-0_0
  6
CONTINUOUS
 62
    7
 10
304.38446538998886
 20
192.98028502107366
 40
5.529666999999999
 50
12.103012
 51
94.841924000000034
  0
ARC
  8
_0-0_0
  6
CONTINUOUS
 62
    7
 10
299.41263838998884
 20
180.30905102107366
 40
29.009314
 50
109.353624
 51
135.58347599999999
  0
ARC
  8
_0-0_0
  6
CONTINUOUS
 62
    7
 10
291.33666838998886
 20
207.31429302107364
 40
1.5
 50
185.0001409999999
 51
274.99991799999998
  0
LINE
  8
_0-0_0
  6
CONTINUOUS
 62
    7
 10
304.53719938998887
 20
180.66119902107366
 11
299.42082938998885
 21
180.66119902107366
  0
ARC
  8
_0-0_0
  6
CONTINUOUS
 62
    7
 10
587.0615703899889
 20
140.80313802107366
 40
328.1518549999999
 50
176.42647700000001
 51
178.65598800000001
  0
ARC
  8
_0-0_0
  6
CONTINUOUS
 62
    7
 10
328.73991538998882
 20
151.93199102107366
 40
69.817639
 50
135.79386
 51
172.32482600000003
  0
LINE
  8
_0-0_0
  6
CONTINUOUS
 62
    7
 10
299.43695538998884
 20
206.51724102107363
 11
297.81716138998883
 21
225.03156602107364
  0
LINE
  8
_0-0_0
  6
CONTINUOUS
 62
    7
 10
292.83619238998887
 20
224.59579402107363
 11
294.45598638998882
 21
206.08146302107363
  0
LINE
  8
_0-0_0
  6
CONTINUOUS
 62
    7
 10
303.78909738998885
 20
208.40374002107365
 11
302.43077238998887
 21
223.92947302107365
  0
LINE
  8
_0-0_0
  6
CONTINUOUS
 62
    7
 10
289.84237538998883
 20
207.18355602107366
 11
288.48404338998887
 21
222.70928902107363
  0
ARC
  8
_0-0_0
  6
CONTINUOUS
 62
    7
 10
299.41263838998884
 20
180.30905102107366
 40
35.009310999999997
 50
106.854041
 51
135.6028189999999
  0
ARC
  8
_0-0_0
  6
CONTINUOUS
 62
    7
 10
299.41263838998884
 20
180.30905102107366
 40
35.009310999999997
 50
70.318970000000007
 51
83.785977999999986
  0
ARC
  8
_0-0_0
  6
CONTINUOUS
 62
    7
 10
296.32061038998881
 20
291.32801402107361
 40
75.817633000000001
 50
218.40554399999999
 51
264.52259900000001
  0
LINE
  8
_0-0_0
  6
CONTINUOUS
 62
    7
 10
288.55099338998883
 20
221.94403002107364
 11
289.79902138998887
 21
207.67908202107364
  0
LINE
  8
_0-0_0
  6
CONTINUOUS
 62
    7
 10
303.73743738998883
 20
208.99417602107366
 11
302.48371438998885
 21
223.32438302107366
  0
ARC
  8
_0-0_0
  6
CONTINUOUS
 62
    7
 10
302.64331538998886
 20
192.51364602107364
 40
22.455072000000001
 50
354.24319900000006
 51
67.591948000000059
  0
ARC
  8
_0-0_0
  6
CONTINUOUS
 62
    7
 10
308.99578038998885
 20
191.19067302107362
 40
16.016354
 50
214.69959300000002
 51
356.67332500000003
  0
ARC
  8
_0-0_0
  6
CONTINUOUS
 62
    7
 10
302.64331538998886
 20
192.51364602107364
 40
16.455076999999999
 50
353.78270700000002
 51
67.109948999999986
  0
ARC
  8
_0-0_0
  6
CONTINUOUS
 62
    7
 10
308.85090138998885
 20
190.51776602107364
 40
10.0509
 50
220.920939
 51
352.6876640000001
  0
ARC
  8
_0-0_0
  6
CONTINUOUS
 62
    7
 10
307.17552938998887
 20
248.74577502107365
 40
16.016354
 50
44.326636999999991
 51
186.30040400000001
  0
ARC
  8
_0-0_0
  6
CONTINUOUS
 62
    7
 10
303.24921138998883
 20
243.57972302107362
 40
16.455076999999999
 50
333.8900549999999
 51
47.217278999999991
  0
ARC
  8
_0-0_0
  6
CONTINUOUS
 62
    7
 10
292.80405138998884
 20
250.67114202107365
 40
29.009314
 50
289.49194000000006
 51
330.39023800000007
  0
ARC
  8
_0-0_0
  6
CONTINUOUS
 62
    7
 10
292.80405138998884
 20
250.67114202107365
 40
35.009310999999997
 50
286.96747499999998
 51
330.68104099999999
  0
ARC
  8
_0-0_0
  6
CONTINUOUS
 62
    7
 10
291.81741738998886
 20
296.50830002107364
 40
69.817639
 50
185.80419000000001
 51
213.324826
  0
ARC
  8
_0-0_0
  6
CONTINUOUS
 62
    7
 10
291.81741738998886
 20
296.50830002107364
 40
75.817633000000001
 50
185.34346700000003
 51
223.59445200000002
  0
ARC
  8
_0-0_0
  6
CONTINUOUS
 62
    7
 10
308.99578038998885
 20
105.80932502107366
 40
10.016356
 50
2.6270780000000005
 51
11.238747
  0
ARC
  8
_0-0_0
  6
CONTINUOUS
 62
    7
 10
303.24921138998883
 20
53.420275021073664
 40
22.455072000000001
 50
313.24321200000003
 51
26.591928000000003
  0
LINE
  8
_0-0_0
  6
CONTINUOUS
 62
    7
 10
304.53719938998887
 20
116.33879902107364
 11
299.42082938998885
 21
116.33879902107364
  0
LINE
  8
_0-0_0
  6
CONTINUOUS
 62
    7
 10
304.76663038998885
 20
108.10533002107366
 11
305.29432838998883
 21
105.66578002107366
  0
LINE
  8
_0-0_0
  6
CONTINUOUS
 62
    7
 10
305.29432838998883
 20
105.66578002107366
 11
305.91379838998887
 21
103.53118202107365
  0
LINE
  8
_0-0_0
  6
CONTINUOUS
 62
    7
 10
305.91379838998887
 20
103.53118202107365
 11
307.74926638998886
 21
101.33558602107365
  0
LINE
  8
_0-0_0
  6
CONTINUOUS
 62
    7
 10
309.19469438998885
 20
103.47019202107364
 11
307.88692438998885
 21
105.29984902107364
  0
LINE
  8
_0-0_0
  6
CONTINUOUS
 62
    7
 10
307.88692438998885
 20
105.29984902107364
 11
306.73975638998883
 21
107.27181902107367
  0
LINE
  8
_0-0_0
  6
CONTINUOUS
 62
    7
 10
306.73975638998883
 20
107.27181902107367
 11
306.28089438998882
 21
108.95916602107363
  0
ARC
  8
_0-0_0
  6
CONTINUOUS
 62
    7
 10
302.55488138998885
 20
112.19157302107365
 40
1.5654110000000001
 50
146.05272199999999
 51
270.33620999999999
  0
LINE
  8
_0-0_0
  6
CONTINUOUS
 62
    7
 10
297.74596438998884
 20
115.28166102107365
 11
296.16287038998883
 21
113.67562802107365
  0
LINE
  8
_0-0_0
  6
CONTINUOUS
 62
    7
 10
295.15336738998883
 20
111.70365802107365
 11
298.06716738998887
 21
112.61849302107365
  0
LINE
  8
_0-0_0
  6
CONTINUOUS
 62
    7
 10
298.06716738998887
 20
112.61849302107365
 11
298.75547338998882
 21
113.83826202107363
  0
LINE
  8
_0-0_0
  6
CONTINUOUS
 62
    7
 10
298.75547338998882
 20
113.83826202107363
 11
300.49916838998882
 21
114.06188902107365
  0
LINE
  8
_0-0_0
  6
CONTINUOUS
 62
    7
 10
300.49916838998882
 20
113.28936102107365
 11
299.42082938998885
 21
111.92728202107365
  0
LINE
  8
_0-0_0
  6
CONTINUOUS
 62
    7
 10
299.42082938998885
 20
111.92728202107365
 11
297.67713438998885
 21
111.09377302107364
  0
LINE
  8
_0-0_0
  6
CONTINUOUS
 62
    7
 10
297.67713438998885
 20
111.09377302107364
 11
296.23170038998887
 21
110.32125102107365
  0
LINE
  8
_0-0_0
  6
CONTINUOUS
 62
    7
 10
296.23170038998887
 20
110.32125102107365
 11
294.55684038998879
 21
108.65422902107365
  0
LINE
  8
_0-0_0
  6
CONTINUOUS
 62
    7
 10
303.55063338998883
 20
99.81086602107365
 11
304.46836338998884
 21
99.729552021073658
  0
LINE
  8
_0-0_0
  6
CONTINUOUS
 62
    7
 10
297.37887438998882
 20
102.69767102107365
 11
297.97540138998886
 21
102.86030502107366
  0
LINE
  8
_0-0_0
  6
CONTINUOUS
 62
    7
 10
297.97540138998886
 20
102.86030502107366
 11
299.65026038998883
 21
104.52732702107365
  0
LINE
  8
_0-0_0
  6
CONTINUOUS
 62
    7
 10
295.01570838998884
 20
107.27181902107367
 11
296.30053538998885
 21
108.26796802107366
  0
LINE
  8
_0-0_0
  6
CONTINUOUS
 62
    7
 10
296.30053538998885
 20
108.26796802107366
 11
297.60830538998886
 21
109.71136402107365
  0
LINE
  8
_0-0_0
  6
CONTINUOUS
 62
    7
 10
297.60830538998886
 20
109.71136402107365
 11
300.65977038998886
 21
110.54487502107365
  0
LINE
  8
_0-0_0
  6
CONTINUOUS
 62
    7
 10
299.87969838998885
 20
108.95916602107363
 11
298.36543438998882
 21
107.19049902107365
  0
LINE
  8
_0-0_0
  6
CONTINUOUS
 62
    7
 10
298.36543438998882
 20
107.19049902107365
 11
297.44770338998882
 21
105.36083902107364
  0
LINE
  8
_0-0_0
  6
CONTINUOUS
 62
    7
 10
300.20090138998887
 20
105.44215302107366
 11
300.43033938998883
 21
108.79653202107365
  0
LINE
  8
_0-0_0
  6
CONTINUOUS
 62
    7
 10
302.40346538998887
 20
109.56905402107364
 11
302.40346538998887
 21
106.96687202107366
  0
LINE
  8
_0-0_0
  6
CONTINUOUS
 62
    7
 10
302.40346538998887
 20
106.96687202107366
 11
302.63289638998884
 21
101.33558602107365
  0
LINE
  8
_0-0_0
  6
CONTINUOUS
 62
    7
 10
303.71123538998881
 20
104.60864202107365
 11
304.30776238998885
 21
106.05204102107365
  0
LINE
  8
_0-0_0
  6
CONTINUOUS
 62
    7
 10
304.30776238998885
 20
106.05204102107365
 11
303.78006438998887
 21
109.18279302107365
  0
ARC
  8
_0-0_0
  6
CONTINUOUS
 62
    7
 10
303.78516638998883
 20
104.51673802107365
 40
6.2302889999999991
 50
344.58145900000005
 51
101.30280400000002
  0
LINE
  8
_0-0_0
  6
CONTINUOUS
 62
    7
 10
306.28089438998882
 20
100.78669002107367
 11
303.55063338998883
 21
102.16909702107367
  0
LINE
  8
_0-0_0
  6
CONTINUOUS
 62
    7
 10
299.43695538998884
 20
90.482757021073667
 11
302.42553538998885
 21
90.221288021073647
  0
ARC
  8
_0-0_0
  6
CONTINUOUS
 62
    7
 10
302.29480438998883
 20
88.727001021073647
 40
1.5
 50
354.99987399999998
 51
85.000091999999981
  0
ARC
  8
_0-0_0
  6
CONTINUOUS
 62
    7
 10
296.94647038998886
 20
90.700646021073652
 40
2.4999989999999999
 50
354.99998399999998
 51
175.00006100000002
  0
LINE
  8
_0-0_0
  6
CONTINUOUS
 62
    7
 10
294.45598638998882
 20
90.918529021073653
 11
291.46739938998883
 21
91.180004021073643
  0
ARC
  8
_0-0_0
  6
CONTINUOUS
 62
    7
 10
299.41263838998884
 20
116.69094702107364
 40
29.009314
 50
278.573801
 51
289.39025199999998
  0
ARC
  8
_0-0_0
  6
CONTINUOUS
 62
    7
 10
304.54770938998888
 20
109.02198702107364
 40
10.531065
 50
145.89405600000001
 51
266.570426
  0
ARC
  8
_0-0_0
  6
CONTINUOUS
 62
    7
 10
304.38446538998886
 20
104.01971302107366
 40
5.529666999999999
 50
265.15807999999998
 51
347.89696900000001
  0
ARC
  8
_0-0_0
  6
CONTINUOUS
 62
    7
 10
299.41263838998884
 20
116.69094702107364
 40
29.009314
 50
224.41652000000011
 51
250.64638600000001
  0
ARC
  8
_0-0_0
  6
CONTINUOUS
 62
    7
 10
291.33666838998886
 20
89.685705021073659
 40
1.5
 50
85.000091999999995
 51
174.99986899999999
  0
ARC
  8
_0-0_0
  6
CONTINUOUS
 62
    7
 10
587.0615703899889
 20
156.19686002107363
 40
328.1518549999999
 50
181.344009
 51
183.573519
  0
ARC
  8
_0-0_0
  6
CONTINUOUS
 62
    7
 10
328.73991538998882
 20
145.06800702107364
 40
75.817633000000001
 50
177.40554399999999
 51
224.213855
  0
ARC
  8
_0-0_0
  6
CONTINUOUS
 62
    7
 10
328.73991538998882
 20
145.06800702107364
 40
69.817639
 50
187.67517100000001
 51
224.20613700000001
  0
LINE
  8
_0-0_0
  6
CONTINUOUS
 62
    7
 10
297.81716138998883
 20
71.968432021073653
 11
300.80574838998882
 21
71.706969021073647
  0
ARC
  8
_0-0_0
  6
CONTINUOUS
 62
    7
 10
300.93647938998885
 20
73.201262021073646
 40
1.5
 50
265.00008400000002
 51
354.99987399999998
  0
ARC
  8
_0-0_0
  6
CONTINUOUS
 62
    7
 10
295.32667638998885
 20
72.186327021073652
 40
2.4999980000000002
 50
174.99985600000002
 51
354.99984700000016
  0
LINE
  8
_0-0_0
  6
CONTINUOUS
 62
    7
 10
307.00136538998885
 20
56.353655021073664
 11
307.74734338998883
 21
55.812945021073659
  0
LINE
  8
_0-0_0
  6
CONTINUOUS
 62
    7
 10
308.42172038998888
 20
53.825976021073643
 11
305.45422238998884
 21
54.573852021073634
  0
LINE
  8
_0-0_0
  6
CONTINUOUS
 62
    7
 10
298.22904538998887
 20
51.857696021073664
 11
298.24656238998887
 21
54.18597302107365
  0
LINE
  8
_0-0_0
  6
CONTINUOUS
 62
    7
 10
298.24656238998887
 20
54.18597302107365
 11
298.75431338998885
 21
56.168914021073647
  0
LINE
  8
_0-0_0
  6
CONTINUOUS
 62
    7
 10
300.77883738998884
 20
54.301287021073634
 11
298.75133538998887
 21
51.61920102107365
  0
LINE
  8
_0-0_0
  6
CONTINUOUS
 62
    7
 10
295.66515338998886
 20
56.322222021073657
 11
295.98129738998887
 21
54.727495021073665
  0
LINE
  8
_0-0_0
  6
CONTINUOUS
 62
    7
 10
295.98129738998887
 20
54.727495021073665
 11
296.02132438998888
 21
52.780169021073633
  0
LINE
  8
_0-0_0
  6
CONTINUOUS
 62
    7
 10
296.02132438998888
 20
52.780169021073633
 11
297.77745838998885
 21
50.149169021073646
  0
LINE
  8
_0-0_0
  6
CONTINUOUS
 62
    7
 10
300.44955938998885
 20
58.223998021073655
 11
300.79306438998884
 21
57.709899021073653
  0
LINE
  8
_0-0_0
  6
CONTINUOUS
 62
    7
 10
300.79306438998884
 20
57.709899021073653
 11
300.96344438998887
 21
55.352965021073658
  0
ARC
  8
_0-0_0
  6
CONTINUOUS
 62
    7
 10
289.97833738998884
 20
74.159972021073642
 40
1.5
 50
174.99986899999996
 51
264.999865
  0
LINE
  8
_0-0_0
  6
CONTINUOUS
 62
    7
 10
289.84759938998883
 20
72.665679021073643
 11
292.83619238998887
 21
72.404204021073653
  0
ARC
  8
_0-0_0
  6
CONTINUOUS
 62
    7
 10
301.71082638998882
 20
48.747790021073655
 40
10.531065
 50
52.429614999999998
 51
173.105954
  0
ARC
  8
_0-0_0
  6
CONTINUOUS
 62
    7
 10
307.17552938998887
 20
48.254229021073655
 40
10.016356
 50
307.76122100000003
 51
316.37291400000004
  0
LINE
  8
_0-0_0
  6
CONTINUOUS
 62
    7
 10
296.90264738998883
 20
43.232616021073653
 11
293.04127038998882
 21
46.58925102107365
  0
ARC
  8
_0-0_0
  6
CONTINUOUS
 62
    7
 10
298.12738438998883
 20
47.663085021073655
 40
1.5654110000000001
 50
48.663626000000008
 51
172.94746600000002
  0
ARC
  8
_0-0_0
  6
CONTINUOUS
 62
    7
 10
304.09103838998885
 20
52.648223021073662
 40
6.2302889999999991
 50
217.69726700000001
 51
334.41843799999998
  0
ARC
  8
_0-0_0
  6
CONTINUOUS
 62
    7
 10
306.62472338998884
 20
47.841430021073649
 40
10.0509
 50
179.921021
 51
311.68765000000002
  0
LINE
  8
_0-0_0
  6
CONTINUOUS
 62
    7
 10
308.86025838998887
 20
49.889086021073652
 11
306.67291138998883
 21
49.366198021073643
  0
LINE
  8
_0-0_0
  6
CONTINUOUS
 62
    7
 10
306.67291138998883
 20
49.366198021073643
 11
304.51340138998887
 21
48.630541021073654
  0
LINE
  8
_0-0_0
  6
CONTINUOUS
 62
    7
 10
304.51340138998887
 20
48.630541021073654
 11
303.06009338998888
 21
47.658129021073648
  0
ARC
  8
_0-0_0
  6
CONTINUOUS
 62
    7
 10
304.86942538998886
 20
52.630156021073645
 40
5.529666999999999
 50
331.10289999999998
 51
53.842084000000007
  0
LINE
  8
_0-0_0
  6
CONTINUOUS
 62
    7
 10
292.47076838998885
 20
48.485900021073647
 11
292.32964938998884
 21
50.736590021073653
  0
LINE
  8
_0-0_0
  6
CONTINUOUS
 62
    7
 10
292.86149138998883
 20
52.88714502107365
 11
294.46038638998886
 21
50.285094021073633
  0
LINE
  8
_0-0_0
  6
CONTINUOUS
 62
    7
 10
294.46038638998886
 20
50.285094021073633
 11
294.17960038998888
 21
48.912932021073644
  0
LINE
  8
_0-0_0
  6
CONTINUOUS
 62
    7
 10
294.17960038998888
 20
48.912932021073644
 11
295.34888138998883
 21
47.600207021073643
  0
LINE
  8
_0-0_0
  6
CONTINUOUS
 62
    7
 10
295.85571138998887
 20
48.183245021073645
 11
295.93547838998882
 21
49.918657021073628
  0
LINE
  8
_0-0_0
  6
CONTINUOUS
 62
    7
 10
295.93547838998882
 20
49.918657021073628
 11
295.16633138998884
 21
51.691698021073634
  0
LINE
  8
_0-0_0
  6
CONTINUOUS
 62
    7
 10
295.16633138998884
 20
51.691698021073634
 11
294.58226738998883
 21
53.223040021073643
  0
LINE
  8
_0-0_0
  6
CONTINUOUS
 62
    7
 10
294.58226738998883
 20
53.223040021073643
 11
294.41189438998884
 21
55.579955021073644
  0
LINE
  8
_0-0_0
  6
CONTINUOUS
 62
    7
 10
299.73365338998883
 20
49.741686021073633
 11
301.44083138998883
 21
51.705565021073653
  0
LINE
  8
_0-0_0
  6
CONTINUOUS
 62
    7
 10
301.44083138998883
 20
51.705565021073653
 11
305.30843938998885
 21
55.805022021073654
  0
LINE
  8
_0-0_0
  6
CONTINUOUS
 62
    7
 10
303.97495538998885
 20
52.627367021073653
 11
303.47819038998887
 21
51.146654021073644
  0
LINE
  8
_0-0_0
  6
CONTINUOUS
 62
    7
 10
303.47819038998887
 20
51.146654021073644
 11
301.02598138998883
 21
49.130065021073648
  0
LINE
  8
_0-0_0
  6
CONTINUOUS
 62
    7
 10
302.47742738998886
 20
49.295958021073673
 11
304.47617638998884
 21
50.790911021073654
  0
LINE
  8
_0-0_0
  6
CONTINUOUS
 62
    7
 10
304.47617638998884
 20
50.790911021073654
 11
306.34412638998884
 21
51.995513021073648
  0
LINE
  8
_0-0_0
  6
CONTINUOUS
 62
    7
 10
306.34412638998884
 20
51.995513021073648
 11
309.16980438998888
 21
52.448394021073653
  0
ARC
  8
_0-0_0
  6
CONTINUOUS
 62
    7
 10
494.07641438998883
 20
-160.5835459789264
 40
328.1518549999999
 50
140.34399500000001
 51
142.573519
  0
ARC
  8
_0-0_0
  6
CONTINUOUS
 62
    7
 10
483.97726938998881
 20
-172.20131897892634
 40
328.1518549999999
 50
135.42647700000001
 51
137.65598800000004
  0
ARC
  8
_0-0_0
  6
CONTINUOUS
 62
    7
 10
296.32061038998881
 20
5.671984021073655
 40
69.817639
 50
96.389364000000015
 51
131.324826
  0
LINE
  8
_0-0_0
  6
CONTINUOUS
 62
    7
 10
299.43695538998884
 20
90.482757021073667
 11
297.81716138998883
 21
71.968432021073653
  0
LINE
  8
_0-0_0
  6
CONTINUOUS
 62
    7
 10
292.83619238998887
 20
72.404204021073653
 11
294.45598638998882
 21
90.918529021073653
  0
LINE
  8
_0-0_0
  6
CONTINUOUS
 62
    7
 10
303.78909738998885
 20
88.596264021073651
 11
302.43077238998887
 21
73.070525021073649
  0
LINE
  8
_0-0_0
  6
CONTINUOUS
 62
    7
 10
289.84237538998883
 20
89.816442021073641
 11
288.48404338998887
 21
74.290709021073653
  0
ARC
  8
_0-0_0
  6
CONTINUOUS
 62
    7
 10
299.41263838998884
 20
116.69094702107364
 40
35.009310999999997
 50
224.39717700000003
 51
253.145962
  0
ARC
  8
_0-0_0
  6
CONTINUOUS
 62
    7
 10
299.41263838998884
 20
116.69094702107364
 40
35.009310999999997
 50
276.21402499999999
 51
289.68102699999997
  0
ARC
  8
_0-0_0
  6
CONTINUOUS
 62
    7
 10
296.32061038998881
 20
5.671984021073655
 40
75.817633000000001
 50
95.47739799999998
 51
141.59445199999999
  0
ARC
  8
_0-0_0
  6
CONTINUOUS
 62
    7
 10
302.64331538998886
 20
104.48635202107366
 40
22.455072000000001
 50
292.40804800000001
 51
5.7567949999999968
  0
ARC
  8
_0-0_0
  6
CONTINUOUS
 62
    7
 10
308.99578038998885
 20
105.80932502107366
 40
16.016354
 50
3.3266640000000005
 51
145.30040400000001
  0
ARC
  8
_0-0_0
  6
CONTINUOUS
 62
    7
 10
302.64331538998886
 20
104.48635202107366
 40
16.455076999999999
 50
292.89006799999999
 51
6.2172909999999701
  0
ARC
  8
_0-0_0
  6
CONTINUOUS
 62
    7
 10
308.85090138998885
 20
106.48223202107366
 40
10.0509
 50
7.3123220000000009
 51
139.07907100000003
  0
ARC
  8
_0-0_0
  6
CONTINUOUS
 62
    7
 10
307.17552938998887
 20
48.254229021073655
 40
16.016354
 50
173.69964700000003
 51
315.67333900000006
  0
ARC
  8
_0-0_0
  6
CONTINUOUS
 62
    7
 10
303.24921138998883
 20
53.420275021073664
 40
16.455076999999999
 50
312.78272099999998
 51
26.109944999999989
  0
ARC
  8
_0-0_0
  6
CONTINUOUS
 62
    7
 10
292.80405138998884
 20
46.328856021073648
 40
29.009314
 50
29.609765000000014
 51
70.508063000000021
  0
ARC
  8
_0-0_0
  6
CONTINUOUS
 62
    7
 10
292.80405138998884
 20
46.328856021073648
 40
35.009310999999997
 50
29.31897
 51
73.032542000000007
  0
LINE
  8
_0-0_0
  6
CONTINUOUS
 62
    7
 10
254.70334038998885
 20
-5.3120979789263458
 11
250.84197538998885
 21
-1.9554939789263415
  0
LINE
  8
_0-0_0
  6
CONTINUOUS
 62
    7
 10
248.88438838998886
 20
-1.6545049789263544
 11
246.63596038998884
 21
-1.8279919789263488
  0
LINE
  8
_0-0_0
  6
CONTINUOUS
 62
    7
 10
244.58035438998886
 20
-2.6539439789263497
 11
247.37960638998885
 21
-3.8751469789263524
  0
LINE
  8
_0-0_0
  6
CONTINUOUS
 62
    7
 10
247.37960638998885
 20
-3.8751469789263524
 11
248.69933038998886
 21
-3.4061289789263469
  0
LINE
  8
_0-0_0
  6
CONTINUOUS
 62
    7
 10
248.69933038998886
 20
-3.4061289789263469
 11
250.16201938998884
 21
-4.3813359789263586
  0
LINE
  8
_0-0_0
  6
CONTINUOUS
 62
    7
 10
249.65518938998883
 20
-4.964368978926359
 11
247.94777038998885
 21
-5.284863978926353
  0
LINE
  8
_0-0_0
  6
CONTINUOUS
 62
    7
 10
247.94777038998885
 20
-5.284863978926353
 11
246.08494438998883
 21
-4.7699839789263478
  0
LINE
  8
_0-0_0
  6
CONTINUOUS
 62
    7
 10
246.08494438998883
 20
-4.7699839789263478
 11
244.48722938998884
 21
-4.4047369789263655
  0
LINE
  8
_0-0_0
  6
CONTINUOUS
 62
    7
 10
244.48722938998884
 20
-4.4047369789263655
 11
242.12953038998884
 21
-4.5640389789263622
  0
LINE
  8
_0-0_0
  6
CONTINUOUS
 62
    7
 10
241.56891338998884
 20
-5.9083869789263588
 11
243.19210638998885
 21
-5.9995129789263615
  0
LINE
  8
_0-0_0
  6
CONTINUOUS
 62
    7
 10
243.19210638998885
 20
-5.9995129789263615
 11
245.12605138998885
 21
-5.7681409789263398
  0
LINE
  8
_0-0_0
  6
CONTINUOUS
 62
    7
 10
245.12605138998885
 20
-5.7681409789263398
 11
247.97586238998883
 21
-7.1410039789263635
  0
LINE
  8
_0-0_0
  6
CONTINUOUS
 62
    7
 10
244.28185538998883
 20
-10.691064978926363
 11
246.65567438998886
 21
-8.3099859789263633
  0
LINE
  8
_0-0_0
  6
CONTINUOUS
 62
    7
 10
246.38429738998883
 20
-13.623108978926354
 11
247.78146838998885
 21
-12.925110978926341
  0
LINE
  8
_0-0_0
  6
CONTINUOUS
 62
    7
 10
247.78146838998885
 20
-12.925110978926341
 11
249.43715338998885
 21
-10.216089978926362
  0
LINE
  8
_0-0_0
  6
CONTINUOUS
 62
    7
 10
240.35150638998886
 20
-10.910913978926345
 11
240.90840338998885
 21
-11.179517978926356
  0
LINE
  8
_0-0_0
  6
CONTINUOUS
 62
    7
 10
240.90840338998885
 20
-11.179517978926356
 11
243.26609938998885
 21
-11.020215978926359
  0
LINE
  8
_0-0_0
  6
CONTINUOUS
 62
    7
 10
246.34680638998884
 20
-7.8259899789263443
 11
244.04363238998883
 21
-8.1673839789263525
  0
LINE
  8
_0-0_0
  6
CONTINUOUS
 62
    7
 10
244.04363238998883
 20
-8.1673839789263525
 11
242.15063938998884
 21
-8.9461679789263542
  0
LINE
  8
_0-0_0
  6
CONTINUOUS
 62
    7
 10
248.65163438998886
 20
-9.0214489789263439
 11
246.94445938998885
 21
-10.985352978926358
  0
LINE
  8
_0-0_0
  6
CONTINUOUS
 62
    7
 10
246.94445938998885
 20
-10.985352978926358
 11
243.42315538998884
 21
-15.385828978926355
  0
ARC
  8
_0-0_0
  6
CONTINUOUS
 62
    7
 10
250.48645438998884
 20
-7.141541978926341
 40
1.5654110000000001
 50
105.052852
 51
229.33644200000001
  0
LINE
  8
_0-0_0
  6
CONTINUOUS
 62
    7
 10
224.79845138998886
 20
3.052282021073637
 11
224.79845138998886
 21
6.052282021073637
  0
ARC
  8
_0-0_0
  6
CONTINUOUS
 62
    7
 10
223.29845138998886
 20
6.052282021073637
 40
1.5
 50
0
 51
90.000003000000007
  0
LINE
  8
_0-0_0
  6
CONTINUOUS
 62
    7
 10
224.79845138998886
 20
-4.947717978926363
 11
224.79845138998886
 21
-1.947717978926363
  0
ARC
  8
_0-0_0
  6
CONTINUOUS
 62
    7
 10
223.29845138998886
 20
-4.947717978926363
 40
1.5
 50
270.000001
 51
0
  0
ARC
  8
_0-0_0
  6
CONTINUOUS
 62
    7
 10
224.79845138998886
 20
0.552282021073637
 40
2.5
 50
270.000001
 51
90.000002999999992
  0
ARC
  8
_0-0_0
  6
CONTINUOUS
 62
    7
 10
251.16031638998885
 20
-16.183911978926346
 40
10.016356
 50
321.62707799999998
 51
330.238854
  0
LINE
  8
_0-0_0
  6
CONTINUOUS
 62
    7
 10
243.11547738998885
 20
-17.138660978926339
 11
243.75474738998884
 21
-17.802124978926344
  0
ARC
  8
_0-0_0
  6
CONTINUOUS
 62
    7
 10
246.50602538998885
 20
-14.509265978926351
 40
5.529666999999999
 50
224.15762899999999
 51
306.89711999999997
  0
ARC
  8
_0-0_0
  6
CONTINUOUS
 62
    7
 10
245.49810338998884
 20
-13.014771978926348
 40
16.455076999999999
 50
251.89008200000001
 51
325.21724400000005
  0
ARC
  8
_0-0_0
  6
CONTINUOUS
 62
    7
 10
249.91101238998885
 20
-10.841077978926364
 40
10.531065
 50
104.8940149999999
 51
225.570289
  0
ARC
  8
_0-0_0
  6
CONTINUOUS
 62
    7
 10
246.37981138998884
 20
-13.740955978926365
 40
6.2302889999999991
 50
303.58144499999997
 51
60.302729000000014
  0
LINE
  8
_0-0_0
  6
CONTINUOUS
 62
    7
 10
245.81623638998883
 20
-18.193408978926357
 11
244.66262038998883
 21
-15.358850978926341
  0
LINE
  8
_0-0_0
  6
CONTINUOUS
 62
    7
 10
249.47486438998885
 20
-11.676526978926347
 11
248.27263338998884
 21
-13.863855978926352
  0
LINE
  8
_0-0_0
  6
CONTINUOUS
 62
    7
 10
248.27263338998884
 20
-13.863855978926352
 11
247.33972638998884
 21
-15.881299978926364
  0
LINE
  8
_0-0_0
  6
CONTINUOUS
 62
    7
 10
247.33972638998884
 20
-15.881299978926364
 11
247.28452338998886
 21
-18.742493978926348
  0
LINE
  8
_0-0_0
  6
CONTINUOUS
 62
    7
 10
249.77584038998884
 20
-18.079761978926342
 11
249.98922238998884
 21
-15.840942978926364
  0
LINE
  8
_0-0_0
  6
CONTINUOUS
 62
    7
 10
249.98922238998884
 20
-15.840942978926364
 11
250.41717038998883
 21
-13.600049978926364
  0
LINE
  8
_0-0_0
  6
CONTINUOUS
 62
    7
 10
250.41717038998883
 20
-13.600049978926364
 11
251.17786138998883
 21
-12.025562978926359
  0
ARC
  8
_0-0_0
  6
CONTINUOUS
 62
    7
 10
251.06681638998884
 20
-1.6843269789263502
 40
29.009314
 50
189.45088300000003
 51
248.390266
  0
ARC
  8
_0-0_0
  6
CONTINUOUS
 62
    7
 10
251.06681638998884
 20
-1.6843269789263502
 40
35.009310999999997
 50
187.81995700000002
 51
248.68104099999999
  0
ARC
  8
_0-0_0
  6
CONTINUOUS
 62
    7
 10
245.49810338998884
 20
-13.014771978926348
 40
22.455072000000001
 50
251.408062
 51
324.75680800000009
  0
ARC
  8
_0-0_0
  6
CONTINUOUS
 62
    7
 10
251.16031638998885
 20
-16.183911978926346
 40
16.016354
 50
322.326708
 51
104.30035600000004
  0
ARC
  8
_0-0_0
  6
CONTINUOUS
 62
    7
 10
251.49243638998882
 20
-15.580994978926356
 40
10.0509
 50
326.312342
 51
98.078982000000025
  0
ARC
  8
_0-0_0
  6
CONTINUOUS
 62
    7
 10
291.81741738998886
 20
0.4916980210736596
 40
69.817639
 50
146.675184
 51
174.19582
  0
ARC
  8
_0-0_0
  6
CONTINUOUS
 62
    7
 10
291.81741738998886
 20
0.4916980210736596
 40
75.817633000000001
 50
136.40554399999999
 51
174.65654300000003
  0
ARC
  8
_0-0_0
  6
CONTINUOUS
 62
    7
 10
328.73991538998882
 20
151.93199102107366
 40
75.817633000000001
 50
135.78614099999999
 51
182.5944659999999
  0
LINE
  8
_0-0_0
  6
CONTINUOUS
 62
    7
 10
176.88451938998884
 20
314.13865902107364
 11
176.24525338998885
 21
314.80212302107361
  0
ARC
  8
_0-0_0
  6
CONTINUOUS
 62
    7
 10
173.49397138998884
 20
311.50926402107365
 40
5.529666999999999
 50
44.157643999999991
 51
126.89711500000001
  0
ARC
  8
_0-0_0
  6
CONTINUOUS
 62
    7
 10
168.83968338998886
 20
313.18391002107364
 40
10.016356
 50
141.627073
 51
150.23884899999999
  0
ARC
  8
_0-0_0
  6
CONTINUOUS
 62
    7
 10
174.50189038998883
 20
310.01477002107367
 40
16.455076999999999
 50
71.890070000000009
 51
145.21723900000003
  0
LINE
  8
_0-0_0
  6
CONTINUOUS
 62
    7
 10
209.99999838998883
 20
303.44771602107369
 11
196.70154838998886
 21
303.44771602107369
  0
LINE
  8
_0-0_0
  6
CONTINUOUS
 62
    7
 10
195.20154838998886
 20
301.94771602107369
 11
195.20154838998886
 21
298.94771602107369
  0
LINE
  8
_0-0_0
  6
CONTINUOUS
 62
    7
 10
195.20154838998886
 20
298.94771602107369
 11
209.99999838998883
 21
298.94771602107369
  0
ARC
  8
_0-0_0
  6
CONTINUOUS
 62
    7
 10
196.70154838998886
 20
301.94771602107369
 40
1.5
 50
90.000003000000007
 51
180.00000499999999
  0
LINE
  8
_0-0_0
  6
CONTINUOUS
 62
    7
 10
196.70154838998886
 20
289.44771602107369
 11
209.99999838998883
 21
289.44771602107369
  0
LINE
  8
_0-0_0
  6
CONTINUOUS
 62
    7
 10
195.20154838998886
 20
293.94771602107369
 11
195.20154838998886
 21
290.94771602107369
  0
LINE
  8
_0-0_0
  6
CONTINUOUS
 62
    7
 10
209.99999838998883
 20
293.94771602107369
 11
195.20154838998886
 21
293.94771602107369
  0
ARC
  8
_0-0_0
  6
CONTINUOUS
 62
    7
 10
196.70154838998886
 20
290.94771602107369
 40
1.5
 50
180.00000500000002
 51
270.00000100000005
  0
ARC
  8
_0-0_0
  6
CONTINUOUS
 62
    7
 10
195.20154838998886
 20
296.44771602107369
 40
2.5
 50
90.000003000000007
 51
270.00000100000005
  0
LINE
  8
_0-0_0
  6
CONTINUOUS
 62
    7
 10
179.64849038998884
 20
307.91091202107361
 11
179.09159738998883
 21
308.17951602107365
  0
LINE
  8
_0-0_0
  6
CONTINUOUS
 62
    7
 10
179.09159738998883
 20
308.17951602107365
 11
176.73389438998885
 21
308.02021402107357
  0
LINE
  8
_0-0_0
  6
CONTINUOUS
 62
    7
 10
175.71814738998884
 20
307.69106302107366
 11
173.34432238998886
 21
305.30998402107366
  0
LINE
  8
_0-0_0
  6
CONTINUOUS
 62
    7
 10
173.61569938998883
 20
310.62310702107368
 11
172.21852838998885
 21
309.92510902107364
  0
LINE
  8
_0-0_0
  6
CONTINUOUS
 62
    7
 10
172.21852838998885
 20
309.92510902107364
 11
170.56284338998884
 21
307.21608802107369
  0
LINE
  8
_0-0_0
  6
CONTINUOUS
 62
    7
 10
173.65319038998885
 20
304.82598802107361
 11
175.95636738998883
 21
305.16738202107365
  0
LINE
  8
_0-0_0
  6
CONTINUOUS
 62
    7
 10
175.95636738998883
 20
305.16738202107365
 11
177.84935738998882
 21
305.94616602107362
  0
LINE
  8
_0-0_0
  6
CONTINUOUS
 62
    7
 10
171.34836538998886
 20
306.02144702107364
 11
173.05554038998883
 21
307.98535102107365
  0
LINE
  8
_0-0_0
  6
CONTINUOUS
 62
    7
 10
173.05554038998883
 20
307.98535102107365
 11
176.57684138998886
 21
312.38582702107362
  0
LINE
  8
_0-0_0
  6
CONTINUOUS
 62
    7
 10
171.11560838998884
 20
298.65450302107365
 11
173.36403638998883
 21
298.82799002107367
  0
LINE
  8
_0-0_0
  6
CONTINUOUS
 62
    7
 10
175.41964538998883
 20
299.65394202107365
 11
172.62039038998887
 21
300.87514502107365
  0
LINE
  8
_0-0_0
  6
CONTINUOUS
 62
    7
 10
172.62039038998887
 20
300.87514502107365
 11
171.30066638998886
 21
300.40612702107353
  0
LINE
  8
_0-0_0
  6
CONTINUOUS
 62
    7
 10
171.30066638998886
 20
300.40612702107353
 11
169.83798038998884
 21
301.38133402107366
  0
LINE
  8
_0-0_0
  6
CONTINUOUS
 62
    7
 10
170.34481038998885
 20
301.96436702107366
 11
172.05222938998884
 21
302.28486202107365
  0
LINE
  8
_0-0_0
  6
CONTINUOUS
 62
    7
 10
172.05222938998884
 20
302.28486202107365
 11
173.91505238998883
 21
301.76998202107364
  0
LINE
  8
_0-0_0
  6
CONTINUOUS
 62
    7
 10
173.91505238998883
 20
301.76998202107364
 11
175.51277038998884
 21
301.40473502107363
  0
LINE
  8
_0-0_0
  6
CONTINUOUS
 62
    7
 10
175.51277038998884
 20
301.40473502107363
 11
177.87046638998885
 21
301.56403702107366
  0
LINE
  8
_0-0_0
  6
CONTINUOUS
 62
    7
 10
178.43108338998886
 20
302.90838502107351
 11
176.80789038998887
 21
302.99951102107366
  0
LINE
  8
_0-0_0
  6
CONTINUOUS
 62
    7
 10
176.80789038998887
 20
302.99951102107366
 11
174.87394538998885
 21
302.76813902107364
  0
LINE
  8
_0-0_0
  6
CONTINUOUS
 62
    7
 10
174.87394538998885
 20
302.76813902107364
 11
172.02413738998885
 21
304.14100202107363
  0
ARC
  8
_0-0_0
  6
CONTINUOUS
 62
    7
 10
169.51354238998886
 20
304.14154002107364
 40
1.5654110000000001
 50
285.05294500000002
 51
49.336434000000033
  0
LINE
  8
_0-0_0
  6
CONTINUOUS
 62
    7
 10
165.29665938998886
 20
302.31209602107367
 11
169.15801838998885
 21
298.95549202107361
  0
ARC
  8
_0-0_0
  6
CONTINUOUS
 62
    7
 10
170.08898738998886
 20
307.84107602107366
 40
10.531065
 50
284.89402000000001
 51
45.570304999999976
  0
ARC
  8
_0-0_0
  6
CONTINUOUS
 62
    7
 10
173.62018538998885
 20
310.74095402107366
 40
6.2302889999999991
 50
123.58143999999999
 51
240.30272099999996
  0
LINE
  8
_0-0_0
  6
CONTINUOUS
 62
    7
 10
174.18376038998883
 20
315.19340702107365
 11
175.33737938998885
 21
312.35884902107364
  0
LINE
  8
_0-0_0
  6
CONTINUOUS
 62
    7
 10
170.52512938998885
 20
308.67652502107353
 11
171.72736338998885
 21
310.86385402107351
  0
LINE
  8
_0-0_0
  6
CONTINUOUS
 62
    7
 10
171.72736338998885
 20
310.86385402107351
 11
172.66027038998885
 21
312.88129802107369
  0
LINE
  8
_0-0_0
  6
CONTINUOUS
 62
    7
 10
172.66027038998885
 20
312.88129802107369
 11
172.71547738998885
 21
315.74249202107364
  0
LINE
  8
_0-0_0
  6
CONTINUOUS
 62
    7
 10
170.22415938998884
 20
315.07976002107364
 11
170.01077138998886
 21
312.84094102107366
  0
LINE
  8
_0-0_0
  6
CONTINUOUS
 62
    7
 10
170.01077138998886
 20
312.84094102107366
 11
169.58282338998885
 21
310.60004802107369
  0
LINE
  8
_0-0_0
  6
CONTINUOUS
 62
    7
 10
169.58282338998885
 20
310.60004802107369
 11
168.82213538998883
 21
309.02556102107366
  0
ARC
  8
_0-0_0
  6
CONTINUOUS
 62
    7
 10
168.93318038998882
 20
298.68432502107362
 40
29.009314
 50
9.4508860000000006
 51
68.390260999999995
  0
ARC
  8
_0-0_0
  6
CONTINUOUS
 62
    7
 10
168.93318038998882
 20
298.68432502107362
 40
35.009310999999997
 50
7.8199579999999997
 51
68.681028999999995
  0
ARC
  8
_0-0_0
  6
CONTINUOUS
 62
    7
 10
174.50189038998883
 20
310.01477002107367
 40
22.455072000000001
 50
71.408050000000017
 51
144.75680300000002
  0
ARC
  8
_0-0_0
  6
CONTINUOUS
 62
    7
 10
168.83968338998886
 20
313.18391002107364
 40
16.016354
 50
142.32670300000001
 51
284.30036799999999
  0
ARC
  8
_0-0_0
  6
CONTINUOUS
 62
    7
 10
168.50756038998884
 20
312.58099302107365
 40
10.0509
 50
146.31235100000001
 51
278.07899400000002
  0
ARC
  8
_0-0_0
  6
CONTINUOUS
 62
    7
 10
-74.076417610011163
 20
457.58354402107364
 40
328.1518549999999
 50
320.34398599999997
 51
322.57352400000002
  0
ARC
  8
_0-0_0
  6
CONTINUOUS
 62
    7
 10
-63.977272610011141
 20
469.20131702107369
 40
328.1518549999999
 50
315.42646900000005
 51
317.65600600000005
  0
LINE
  8
_0-0_0
  6
CONTINUOUS
 62
    7
 10
123.09734938998885
 20
253.76738202107364
 11
126.95872638998885
 21
250.41075302107365
  0
ARC
  8
_0-0_0
  6
CONTINUOUS
 62
    7
 10
121.87261838998883
 20
249.33691302107366
 40
1.5654110000000001
 50
228.66394199999999
 51
352.94743
  0
ARC
  8
_0-0_0
  6
CONTINUOUS
 62
    7
 10
112.82447338998885
 20
248.74577502107365
 40
10.016356
 50
127.76127
 51
136.37295
  0
ARC
  8
_0-0_0
  6
CONTINUOUS
 62
    7
 10
115.90897038998885
 20
244.35176902107364
 40
6.2302889999999991
 50
37.697271999999998
 51
154.41839200000001
  0
ARC
  8
_0-0_0
  6
CONTINUOUS
 62
    7
 10
113.37527938998886
 20
249.15856802107365
 40
10.0509
 50
359.92102599999993
 51
131.68765899999997
  0
LINE
  8
_0-0_0
  6
CONTINUOUS
 62
    7
 10
111.13974438998883
 20
247.11091202107363
 11
113.32708538998885
 21
247.63380002107365
  0
LINE
  8
_0-0_0
  6
CONTINUOUS
 62
    7
 10
113.32708538998885
 20
247.63380002107365
 11
115.48660738998886
 21
248.36945702107363
  0
LINE
  8
_0-0_0
  6
CONTINUOUS
 62
    7
 10
115.48660738998886
 20
248.36945702107363
 11
116.93990938998887
 21
249.34186902107365
  0
ARC
  8
_0-0_0
  6
CONTINUOUS
 62
    7
 10
130.02165938998886
 20
222.84002602107364
 40
1.5
 50
354.99987399999998
 51
84.999860000000012
  0
LINE
  8
_0-0_0
  6
CONTINUOUS
 62
    7
 10
124.33485538998886
 20
240.67778202107365
 11
124.01870538998885
 21
242.27250902107366
  0
LINE
  8
_0-0_0
  6
CONTINUOUS
 62
    7
 10
124.01870538998885
 20
242.27250902107366
 11
123.97868538998885
 21
244.21983502107366
  0
LINE
  8
_0-0_0
  6
CONTINUOUS
 62
    7
 10
123.97868538998885
 20
244.21983502107366
 11
122.22255038998887
 21
246.85082902107365
  0
LINE
  8
_0-0_0
  6
CONTINUOUS
 62
    7
 10
121.77095138998885
 20
245.14229602107363
 11
121.75343438998887
 21
242.81402502107366
  0
LINE
  8
_0-0_0
  6
CONTINUOUS
 62
    7
 10
121.75343438998887
 20
242.81402502107366
 11
121.24568338998886
 21
240.83107802107367
  0
LINE
  8
_0-0_0
  6
CONTINUOUS
 62
    7
 10
119.22115938998887
 20
242.69871702107363
 11
121.24867438998884
 21
245.38079702107365
  0
LINE
  8
_0-0_0
  6
CONTINUOUS
 62
    7
 10
119.55044438998884
 20
238.77600002107363
 11
119.20693838998885
 21
239.29009902107364
  0
LINE
  8
_0-0_0
  6
CONTINUOUS
 62
    7
 10
119.20693838998885
 20
239.29009902107364
 11
119.03655838998884
 21
241.64703302107367
  0
LINE
  8
_0-0_0
  6
CONTINUOUS
 62
    7
 10
112.99864338998884
 20
240.64634902107366
 11
112.25265938998885
 21
241.18706002107365
  0
LINE
  8
_0-0_0
  6
CONTINUOUS
 62
    7
 10
111.57828238998884
 20
243.17402202107365
 11
114.54577438998884
 21
242.42614602107363
  0
LINE
  8
_0-0_0
  6
CONTINUOUS
 62
    7
 10
122.18282938998884
 20
225.03156602107364
 11
119.19426138998882
 21
225.29302902107366
  0
ARC
  8
_0-0_0
  6
CONTINUOUS
 62
    7
 10
119.06352338998883
 20
223.79873602107367
 40
1.5
 50
84.999859999999984
 51
174.99986899999999
  0
ARC
  8
_0-0_0
  6
CONTINUOUS
 62
    7
 10
124.67332638998884
 20
224.81367102107365
 40
2.4999980000000002
 50
354.9998470000001
 51
174.99988300000001
  0
LINE
  8
_0-0_0
  6
CONTINUOUS
 62
    7
 10
130.15239738998886
 20
224.33431902107364
 11
127.16381038998885
 21
224.59579402107363
  0
ARC
  8
_0-0_0
  6
CONTINUOUS
 62
    7
 10
118.28917038998887
 20
248.25220802107367
 40
10.531065
 50
232.42958900000002
 51
353.10591800000009
  0
ARC
  8
_0-0_0
  6
CONTINUOUS
 62
    7
 10
115.13056438998883
 20
244.36983502107364
 40
5.529666999999999
 50
151.102745
 51
233.84204500000004
  0
LINE
  8
_0-0_0
  6
CONTINUOUS
 62
    7
 10
127.52922838998884
 20
248.51409802107366
 11
127.67034738998886
 21
246.26341502107363
  0
LINE
  8
_0-0_0
  6
CONTINUOUS
 62
    7
 10
127.13850538998885
 20
244.11285302107365
 11
125.53961038998885
 21
246.71490402107366
  0
LINE
  8
_0-0_0
  6
CONTINUOUS
 62
    7
 10
125.53961038998885
 20
246.71490402107366
 11
125.82039638998883
 21
248.08706002107365
  0
LINE
  8
_0-0_0
  6
CONTINUOUS
 62
    7
 10
125.82039638998883
 20
248.08706002107365
 11
124.65112138998883
 21
249.39979102107367
  0
LINE
  8
_0-0_0
  6
CONTINUOUS
 62
    7
 10
124.14428538998887
 20
248.81675902107366
 11
124.06453038998886
 21
247.08134702107367
  0
LINE
  8
_0-0_0
  6
CONTINUOUS
 62
    7
 10
124.06453038998886
 20
247.08134702107367
 11
124.83366538998885
 21
245.30830002107365
  0
LINE
  8
_0-0_0
  6
CONTINUOUS
 62
    7
 10
124.83366538998885
 20
245.30830002107365
 11
125.41772938998885
 21
243.77696402107364
  0
LINE
  8
_0-0_0
  6
CONTINUOUS
 62
    7
 10
125.41772938998885
 20
243.77696402107364
 11
125.58810238998886
 21
241.42004302107364
  0
LINE
  8
_0-0_0
  6
CONTINUOUS
 62
    7
 10
120.26634338998886
 20
247.25831202107364
 11
118.55917238998886
 21
245.29443302107364
  0
LINE
  8
_0-0_0
  6
CONTINUOUS
 62
    7
 10
118.55917238998886
 20
245.29443302107364
 11
114.69156338998884
 21
241.19497002107363
  0
LINE
  8
_0-0_0
  6
CONTINUOUS
 62
    7
 10
116.02503538998884
 20
244.37263102107363
 11
116.52180638998887
 21
245.85334402107367
  0
LINE
  8
_0-0_0
  6
CONTINUOUS
 62
    7
 10
116.52180638998887
 20
245.85334402107367
 11
118.97401538998885
 21
247.86993302107365
  0
LINE
  8
_0-0_0
  6
CONTINUOUS
 62
    7
 10
117.52256938998885
 20
247.70404002107364
 11
115.52381438998884
 21
246.20909302107364
  0
LINE
  8
_0-0_0
  6
CONTINUOUS
 62
    7
 10
115.52381438998884
 20
246.20909302107364
 11
113.65587038998883
 21
245.00447902107365
  0
LINE
  8
_0-0_0
  6
CONTINUOUS
 62
    7
 10
113.65587038998883
 20
245.00447902107365
 11
110.83019838998882
 21
244.55159802107369
  0
ARC
  8
_0-0_0
  6
CONTINUOUS
 62
    7
 10
123.67939938998886
 20
291.32801402107361
 40
69.817639
 50
276.389342
 51
311.32480399999997
  0
ARC
  8
_0-0_0
  6
CONTINUOUS
 62
    7
 10
120.58735838998886
 20
180.30905102107366
 40
29.009314
 50
44.416522000000001
 51
70.646360999999999
  0
LINE
  8
_0-0_0
  6
CONTINUOUS
 62
    7
 10
120.56304738998885
 20
206.51724102107363
 11
117.57446138998884
 21
206.77871002107366
  0
ARC
  8
_0-0_0
  6
CONTINUOUS
 62
    7
 10
117.70519838998885
 20
208.27300302107363
 40
1.5
 50
174.99986899999996
 51
264.999865
  0
ARC
  8
_0-0_0
  6
CONTINUOUS
 62
    7
 10
123.05352638998885
 20
206.29935202107364
 40
2.4999989999999999
 50
174.99997900000002
 51
354.99998400000004
  0
LINE
  8
_0-0_0
  6
CONTINUOUS
 62
    7
 10
125.54401038998886
 20
206.08146302107363
 11
128.53259738998884
 21
205.82000002107364
  0
ARC
  8
_0-0_0
  6
CONTINUOUS
 62
    7
 10
120.58735838998886
 20
180.30905102107366
 40
29.009314
 50
98.573796000000016
 51
109.390247
  0
LINE
  8
_0-0_0
  6
CONTINUOUS
 62
    7
 10
116.44936938998883
 20
197.18912902107365
 11
115.53162638998886
 21
197.27044602107364
  0
LINE
  8
_0-0_0
  6
CONTINUOUS
 62
    7
 10
122.62112238998887
 20
194.30233102107366
 11
122.02459538998886
 21
194.13969002107362
  0
LINE
  8
_0-0_0
  6
CONTINUOUS
 62
    7
 10
122.02459538998886
 20
194.13969002107362
 11
120.34972938998887
 21
192.47266702107365
  0
LINE
  8
_0-0_0
  6
CONTINUOUS
 62
    7
 10
122.25402638998885
 20
181.71833702107364
 11
123.83712638998885
 21
183.32437002107366
  0
ARC
  8
_0-0_0
  6
CONTINUOUS
 62
    7
 10
117.44511538998884
 20
184.80842502107365
 40
1.5654110000000001
 50
326.05268599999999
 51
90.336212000000017
  0
LINE
  8
_0-0_0
  6
CONTINUOUS
 62
    7
 10
124.84663538998886
 20
185.29634002107366
 11
121.93282938998884
 21
184.38150502107365
  0
LINE
  8
_0-0_0
  6
CONTINUOUS
 62
    7
 10
121.93282938998884
 20
184.38150502107365
 11
121.24452338998886
 21
183.16173302107364
  0
LINE
  8
_0-0_0
  6
CONTINUOUS
 62
    7
 10
121.24452338998886
 20
183.16173302107364
 11
119.50084038998885
 21
182.93810902107364
  0
LINE
  8
_0-0_0
  6
CONTINUOUS
 62
    7
 10
119.50084038998885
 20
183.71063702107364
 11
120.57916138998884
 21
185.07271302107367
  0
LINE
  8
_0-0_0
  6
CONTINUOUS
 62
    7
 10
120.57916138998884
 20
185.07271302107367
 11
122.32286238998883
 21
185.90622502107365
  0
LINE
  8
_0-0_0
  6
CONTINUOUS
 62
    7
 10
122.32286238998883
 20
185.90622502107365
 11
123.76829638998882
 21
186.67874702107366
  0
LINE
  8
_0-0_0
  6
CONTINUOUS
 62
    7
 10
123.76829638998882
 20
186.67874702107366
 11
125.44316238998884
 21
188.34576902107364
  0
LINE
  8
_0-0_0
  6
CONTINUOUS
 62
    7
 10
124.98430038998886
 20
189.72817902107366
 11
123.69946138998881
 21
188.73203002107365
  0
LINE
  8
_0-0_0
  6
CONTINUOUS
 62
    7
 10
123.69946138998881
 20
188.73203002107365
 11
122.39169138998885
 21
187.28863402107368
  0
LINE
  8
_0-0_0
  6
CONTINUOUS
 62
    7
 10
122.39169138998885
 20
187.28863402107368
 11
119.34022638998884
 21
186.45512002107364
  0
LINE
  8
_0-0_0
  6
CONTINUOUS
 62
    7
 10
120.12029838998883
 20
188.04083202107367
 11
121.63456838998884
 21
189.80950202107365
  0
LINE
  8
_0-0_0
  6
CONTINUOUS
 62
    7
 10
121.63456838998884
 20
189.80950202107365
 11
122.55229338998883
 21
191.63915902107365
  0
LINE
  8
_0-0_0
  6
CONTINUOUS
 62
    7
 10
119.79910138998886
 20
191.55784202107364
 11
119.56965738998886
 21
188.20346602107364
  0
LINE
  8
_0-0_0
  6
CONTINUOUS
 62
    7
 10
117.59652538998886
 20
187.43094402107366
 11
117.59652538998886
 21
190.03312302107364
  0
LINE
  8
_0-0_0
  6
CONTINUOUS
 62
    7
 10
117.59652538998886
 20
190.03312302107364
 11
117.36709438998885
 21
195.66440902107365
  0
LINE
  8
_0-0_0
  6
CONTINUOUS
 62
    7
 10
116.28875538998885
 20
192.39135602107365
 11
115.69223438998885
 21
190.94796002107364
  0
LINE
  8
_0-0_0
  6
CONTINUOUS
 62
    7
 10
115.69223438998885
 20
190.94796002107364
 11
116.21993838998883
 21
187.81720502107365
  0
LINE
  8
_0-0_0
  6
CONTINUOUS
 62
    7
 10
115.23337238998884
 20
188.89466502107365
 11
114.70567438998886
 21
191.33422102107363
  0
LINE
  8
_0-0_0
  6
CONTINUOUS
 62
    7
 10
114.70567438998886
 20
191.33422102107363
 11
114.08619238998885
 21
193.46881602107362
  0
LINE
  8
_0-0_0
  6
CONTINUOUS
 62
    7
 10
114.08619238998885
 20
193.46881602107362
 11
112.25073038998883
 21
195.66440902107365
  0
LINE
  8
_0-0_0
  6
CONTINUOUS
 62
    7
 10
110.80529638998884
 20
193.52980902107367
 11
112.11307238998886
 21
191.70014502107364
  0
LINE
  8
_0-0_0
  6
CONTINUOUS
 62
    7
 10
112.11307238998886
 20
191.70014502107364
 11
113.26024038998885
 21
189.72817902107366
  0
LINE
  8
_0-0_0
  6
CONTINUOUS
 62
    7
 10
113.26024038998885
 20
189.72817902107366
 11
113.71910238998886
 21
188.04083202107367
  0
ARC
  8
_0-0_0
  6
CONTINUOUS
 62
    7
 10
116.21483038998886
 20
192.48325702107365
 40
6.2302889999999991
 50
164.581468
 51
281.30281600000001
  0
LINE
  8
_0-0_0
  6
CONTINUOUS
 62
    7
 10
113.71910238998886
 20
196.21331102107365
 11
116.44936938998883
 21
194.83090102107366
  0
ARC
  8
_0-0_0
  6
CONTINUOUS
 62
    7
 10
115.45228138998884
 20
187.97800802107366
 40
10.531065
 50
325.89406100000002
 51
86.570386999999982
  0
ARC
  8
_0-0_0
  6
CONTINUOUS
 62
    7
 10
115.61553838998883
 20
192.98028502107366
 40
5.529666999999999
 50
85.158142999999995
 51
167.89700500000001
  0
ARC
  8
_0-0_0
  6
CONTINUOUS
 62
    7
 10
128.66332838998886
 20
207.31429302107364
 40
1.5
 50
265.00008400000002
 51
354.99987399999998
  0
LINE
  8
_0-0_0
  6
CONTINUOUS
 62
    7
 10
115.46280338998885
 20
180.66119902107366
 11
120.57916138998884
 21
180.66119902107366
  0
ARC
  8
_0-0_0
  6
CONTINUOUS
 62
    7
 10
91.260081389988841
 20
151.93199102107366
 40
75.817633000000001
 50
357.40554900000001
 51
44.213859999999997
  0
ARC
  8
_0-0_0
  6
CONTINUOUS
 62
    7
 10
91.260081389988841
 20
151.93199102107366
 40
69.817639
 50
7.6751720000000008
 51
44.206145000000006
  0
LINE
  8
_0-0_0
  6
CONTINUOUS
 62
    7
 10
120.56304738998885
 20
206.51724102107363
 11
122.18282938998884
 21
225.03156602107364
  0
LINE
  8
_0-0_0
  6
CONTINUOUS
 62
    7
 10
127.16381038998885
 20
224.59579402107363
 11
125.54401038998886
 21
206.08146302107363
  0
LINE
  8
_0-0_0
  6
CONTINUOUS
 62
    7
 10
116.21090538998887
 20
208.40374002107365
 11
117.56923038998885
 21
223.92947302107365
  0
LINE
  8
_0-0_0
  6
CONTINUOUS
 62
    7
 10
130.15762138998883
 20
207.18355602107366
 11
131.51595338998885
 21
222.70928902107363
  0
ARC
  8
_0-0_0
  6
CONTINUOUS
 62
    7
 10
120.58735838998886
 20
180.30905102107366
 40
35.009310999999997
 50
44.397176000000002
 51
73.145964000000006
  0
ARC
  8
_0-0_0
  6
CONTINUOUS
 62
    7
 10
120.58735838998886
 20
180.30905102107366
 40
35.009310999999997
 50
96.214032999999986
 51
109.681029
  0
ARC
  8
_0-0_0
  6
CONTINUOUS
 62
    7
 10
123.67939938998886
 20
291.32801402107361
 40
75.817633000000001
 50
275.47740299999998
 51
321.59445699999998
  0
ARC
  8
_0-0_0
  6
CONTINUOUS
 62
    7
 10
116.75079138998883
 20
243.57972302107362
 40
22.455072000000001
 50
133.243235
 51
206.591926
  0
ARC
  8
_0-0_0
  6
CONTINUOUS
 62
    7
 10
111.00422238998884
 20
191.19067302107362
 40
10.016356
 50
182.62707300000002
 51
191.23875300000003
  0
ARC
  8
_0-0_0
  6
CONTINUOUS
 62
    7
 10
117.35668738998883
 20
192.51364602107364
 40
22.455072000000001
 50
112.40807
 51
185.75680299999999
  0
ARC
  8
_0-0_0
  6
CONTINUOUS
 62
    7
 10
111.00422238998884
 20
191.19067302107362
 40
16.016354
 50
183.326662
 51
325.30038100000002
  0
ARC
  8
_0-0_0
  6
CONTINUOUS
 62
    7
 10
117.35668738998883
 20
192.51364602107364
 40
16.455076999999999
 50
112.89006999999999
 51
186.2172939999999
  0
ARC
  8
_0-0_0
  6
CONTINUOUS
 62
    7
 10
111.14909538998883
 20
190.51776602107364
 40
10.0509
 50
187.31233700000001
 51
319.07906299999991
  0
ARC
  8
_0-0_0
  6
CONTINUOUS
 62
    7
 10
112.82447338998885
 20
248.74577502107365
 40
16.016354
 50
353.69959799999998
 51
135.67337499999999
  0
ARC
  8
_0-0_0
  6
CONTINUOUS
 62
    7
 10
116.75079138998883
 20
243.57972302107362
 40
16.455076999999999
 50
132.78272999999999
 51
206.10994700000003
  0
ARC
  8
_0-0_0
  6
CONTINUOUS
 62
    7
 10
127.19594538998885
 20
250.67114202107365
 40
29.009314
 50
209.60977700000001
 51
250.508061
  0
ARC
  8
_0-0_0
  6
CONTINUOUS
 62
    7
 10
127.19594538998885
 20
250.67114202107365
 40
35.009310999999997
 50
209.31897500000002
 51
253.03255400000003
  0
ARC
  8
_0-0_0
  6
CONTINUOUS
 62
    7
 10
128.18257938998886
 20
296.50830002107364
 40
69.817639
 50
326.67518900000005
 51
354.19582500000007
  0
ARC
  8
_0-0_0
  6
CONTINUOUS
 62
    7
 10
128.18257938998886
 20
296.50830002107364
 40
75.817633000000001
 50
316.40553499999999
 51
354.65653400000002
  0
ARC
  8
_0-0_0
  6
CONTINUOUS
 62
    7
 10
-167.06157361001107
 20
156.19686002107363
 40
328.1518549999999
 50
356.42648200000002
 51
358.65599300000002
  0
LINE
  8
_0-0_0
  6
CONTINUOUS
 62
    7
 10
115.46280338998885
 20
116.33879902107364
 11
120.57916138998884
 21
116.33879902107364
  0
ARC
  8
_0-0_0
  6
CONTINUOUS
 62
    7
 10
120.58735838998886
 20
116.69094702107364
 40
29.009314
 50
289.35364199999998
 51
315.58348100000001
  0
LINE
  8
_0-0_0
  6
CONTINUOUS
 62
    7
 10
122.25402638998885
 20
115.28166102107365
 11
123.83712638998885
 21
113.67562802107365
  0
ARC
  8
_0-0_0
  6
CONTINUOUS
 62
    7
 10
117.44511538998884
 20
112.19157302107365
 40
1.5654110000000001
 50
269.663791
 51
33.947276000000016
  0
LINE
  8
_0-0_0
  6
CONTINUOUS
 62
    7
 10
124.84663538998886
 20
111.70365802107365
 11
121.93282938998884
 21
112.61849302107365
  0
LINE
  8
_0-0_0
  6
CONTINUOUS
 62
    7
 10
121.93282938998884
 20
112.61849302107365
 11
121.24452338998886
 21
113.83826202107363
  0
LINE
  8
_0-0_0
  6
CONTINUOUS
 62
    7
 10
121.24452338998886
 20
113.83826202107363
 11
119.50084038998885
 21
114.06188902107365
  0
LINE
  8
_0-0_0
  6
CONTINUOUS
 62
    7
 10
119.50084038998885
 20
113.28936102107365
 11
120.57916138998884
 21
111.92728202107365
  0
LINE
  8
_0-0_0
  6
CONTINUOUS
 62
    7
 10
120.57916138998884
 20
111.92728202107365
 11
122.32286238998883
 21
111.09377302107364
  0
LINE
  8
_0-0_0
  6
CONTINUOUS
 62
    7
 10
122.32286238998883
 20
111.09377302107364
 11
123.76829638998882
 21
110.32125102107365
  0
LINE
  8
_0-0_0
  6
CONTINUOUS
 62
    7
 10
123.76829638998882
 20
110.32125102107365
 11
125.44316238998884
 21
108.65422902107365
  0
LINE
  8
_0-0_0
  6
CONTINUOUS
 62
    7
 10
116.44936938998883
 20
99.81086602107365
 11
115.53162638998886
 21
99.729552021073658
  0
LINE
  8
_0-0_0
  6
CONTINUOUS
 62
    7
 10
122.62112238998887
 20
102.69767102107365
 11
122.02459538998886
 21
102.86030502107366
  0
LINE
  8
_0-0_0
  6
CONTINUOUS
 62
    7
 10
122.02459538998886
 20
102.86030502107366
 11
120.34972938998887
 21
104.52732702107365
  0
LINE
  8
_0-0_0
  6
CONTINUOUS
 62
    7
 10
124.98430038998886
 20
107.27181902107367
 11
123.69946138998881
 21
108.26796802107366
  0
LINE
  8
_0-0_0
  6
CONTINUOUS
 62
    7
 10
123.69946138998881
 20
108.26796802107366
 11
122.39169138998885
 21
109.71136402107365
  0
LINE
  8
_0-0_0
  6
CONTINUOUS
 62
    7
 10
122.39169138998885
 20
109.71136402107365
 11
119.34022638998884
 21
110.54487502107365
  0
LINE
  8
_0-0_0
  6
CONTINUOUS
 62
    7
 10
120.12029838998883
 20
108.95916602107363
 11
121.63456838998884
 21
107.19049902107365
  0
LINE
  8
_0-0_0
  6
CONTINUOUS
 62
    7
 10
121.63456838998884
 20
107.19049902107365
 11
122.55229338998883
 21
105.36083902107364
  0
LINE
  8
_0-0_0
  6
CONTINUOUS
 62
    7
 10
119.79910138998886
 20
105.44215302107366
 11
119.56965738998886
 21
108.79653202107365
  0
LINE
  8
_0-0_0
  6
CONTINUOUS
 62
    7
 10
117.59652538998886
 20
109.56905402107364
 11
117.59652538998886
 21
106.96687202107366
  0
LINE
  8
_0-0_0
  6
CONTINUOUS
 62
    7
 10
117.59652538998886
 20
106.96687202107366
 11
117.36709438998885
 21
101.33558602107365
  0
LINE
  8
_0-0_0
  6
CONTINUOUS
 62
    7
 10
116.28875538998885
 20
104.60864202107365
 11
115.69223438998885
 21
106.05204102107365
  0
LINE
  8
_0-0_0
  6
CONTINUOUS
 62
    7
 10
115.69223438998885
 20
106.05204102107365
 11
116.21993838998883
 21
109.18279302107365
  0
LINE
  8
_0-0_0
  6
CONTINUOUS
 62
    7
 10
115.23337238998884
 20
108.10533002107366
 11
114.70567438998886
 21
105.66578002107366
  0
LINE
  8
_0-0_0
  6
CONTINUOUS
 62
    7
 10
114.70567438998886
 20
105.66578002107366
 11
114.08619238998885
 21
103.53118202107365
  0
LINE
  8
_0-0_0
  6
CONTINUOUS
 62
    7
 10
114.08619238998885
 20
103.53118202107365
 11
112.25073038998883
 21
101.33558602107365
  0
LINE
  8
_0-0_0
  6
CONTINUOUS
 62
    7
 10
110.80529638998884
 20
103.47019202107364
 11
112.11307238998886
 21
105.29984902107364
  0
LINE
  8
_0-0_0
  6
CONTINUOUS
 62
    7
 10
112.11307238998886
 20
105.29984902107364
 11
113.26024038998885
 21
107.27181902107367
  0
LINE
  8
_0-0_0
  6
CONTINUOUS
 62
    7
 10
113.26024038998885
 20
107.27181902107367
 11
113.71910238998886
 21
108.95916602107363
  0
ARC
  8
_0-0_0
  6
CONTINUOUS
 62
    7
 10
116.21483038998886
 20
104.51673802107365
 40
6.2302889999999991
 50
78.697193999999996
 51
195.41852900000001
  0
LINE
  8
_0-0_0
  6
CONTINUOUS
 62
    7
 10
113.71910238998886
 20
100.78669002107367
 11
116.44936938998883
 21
102.16909702107367
  0
LINE
  8
_0-0_0
  6
CONTINUOUS
 62
    7
 10
120.56304738998885
 20
90.482757021073667
 11
117.57446138998884
 21
90.221288021073647
  0
ARC
  8
_0-0_0
  6
CONTINUOUS
 62
    7
 10
117.70519838998885
 20
88.727001021073647
 40
1.5
 50
95.000138000000021
 51
185.00014099999993
  0
ARC
  8
_0-0_0
  6
CONTINUOUS
 62
    7
 10
123.05352638998885
 20
90.700646021073652
 40
2.4999989999999999
 50
4.9999359999999999
 51
185.00001800000001
  0
LINE
  8
_0-0_0
  6
CONTINUOUS
 62
    7
 10
125.54401038998886
 20
90.918529021073653
 11
128.53259738998884
 21
91.180004021073643
  0
ARC
  8
_0-0_0
  6
CONTINUOUS
 62
    7
 10
120.58735838998886
 20
116.69094702107364
 40
29.009314
 50
250.60974900000002
 51
261.42620100000005
  0
ARC
  8
_0-0_0
  6
CONTINUOUS
 62
    7
 10
115.45228138998884
 20
109.02198702107364
 40
10.531065
 50
273.42960300000004
 51
34.105938000000059
  0
ARC
  8
_0-0_0
  6
CONTINUOUS
 62
    7
 10
115.61553838998883
 20
104.01971302107366
 40
5.529666999999999
 50
192.10303200000001
 51
274.84186699999998
  0
ARC
  8
_0-0_0
  6
CONTINUOUS
 62
    7
 10
128.66332838998886
 20
89.685705021073659
 40
1.5
 50
5.0001360000000012
 51
94.999906000000024
  0
ARC
  8
_0-0_0
  6
CONTINUOUS
 62
    7
 10
91.260081389988841
 20
145.06800702107364
 40
75.817633000000001
 50
315.78614599999997
 51
2.5944600000000317
  0
ARC
  8
_0-0_0
  6
CONTINUOUS
 62
    7
 10
91.260081389988841
 20
145.06800702107364
 40
69.817639
 50
315.79385100000002
 51
352.324817
  0
ARC
  8
_0-0_0
  6
CONTINUOUS
 62
    7
 10
-74.076417610011163
 20
-160.5835459789264
 40
328.1518549999999
 50
37.426485999999997
 51
39.655999999999999
  0
ARC
  8
_0-0_0
  6
CONTINUOUS
 62
    7
 10
-63.977272610011141
 20
-172.20131897892634
 40
328.1518549999999
 50
42.344006999999991
 51
44.573520999999992
  0
ARC
  8
_0-0_0
  6
CONTINUOUS
 62
    7
 10
130.02165938998886
 20
74.159972021073642
 40
1.5
 50
275.000136
 51
5.0001359999999719
  0
LINE
  8
_0-0_0
  6
CONTINUOUS
 62
    7
 10
122.18282938998884
 20
71.968432021073653
 11
119.19426138998882
 21
71.706969021073647
  0
ARC
  8
_0-0_0
  6
CONTINUOUS
 62
    7
 10
119.06352338998883
 20
73.201262021073646
 40
1.5
 50
185.0001409999999
 51
275.000136
  0
ARC
  8
_0-0_0
  6
CONTINUOUS
 62
    7
 10
124.67332638998884
 20
72.186327021073652
 40
2.4999980000000002
 50
185.00012700000002
 51
5.0001450000000336
  0
LINE
  8
_0-0_0
  6
CONTINUOUS
 62
    7
 10
124.33485538998886
 20
56.322222021073657
 11
124.01870538998885
 21
54.727495021073665
  0
LINE
  8
_0-0_0
  6
CONTINUOUS
 62
    7
 10
124.01870538998885
 20
54.727495021073665
 11
123.97868538998885
 21
52.780169021073633
  0
LINE
  8
_0-0_0
  6
CONTINUOUS
 62
    7
 10
123.97868538998885
 20
52.780169021073633
 11
122.22255038998887
 21
50.149169021073646
  0
LINE
  8
_0-0_0
  6
CONTINUOUS
 62
    7
 10
121.77095138998885
 20
51.857696021073664
 11
121.75343438998887
 21
54.18597302107365
  0
LINE
  8
_0-0_0
  6
CONTINUOUS
 62
    7
 10
121.75343438998887
 20
54.18597302107365
 11
121.24568338998886
 21
56.168914021073647
  0
LINE
  8
_0-0_0
  6
CONTINUOUS
 62
    7
 10
119.22115938998887
 20
54.301287021073634
 11
121.24867438998884
 21
51.61920102107365
  0
LINE
  8
_0-0_0
  6
CONTINUOUS
 62
    7
 10
116.02503538998884
 20
52.627367021073653
 11
116.52180638998887
 21
51.146654021073644
  0
LINE
  8
_0-0_0
  6
CONTINUOUS
 62
    7
 10
119.20693838998885
 20
57.709899021073653
 11
119.03655838998884
 21
55.352965021073658
  0
LINE
  8
_0-0_0
  6
CONTINUOUS
 62
    7
 10
119.55044438998884
 20
58.223998021073655
 11
119.20693838998885
 21
57.709899021073653
  0
LINE
  8
_0-0_0
  6
CONTINUOUS
 62
    7
 10
112.99864338998884
 20
56.353655021073664
 11
112.25265938998885
 21
55.812945021073659
  0
LINE
  8
_0-0_0
  6
CONTINUOUS
 62
    7
 10
111.57828238998884
 20
53.825976021073643
 11
114.54577438998884
 21
54.573852021073634
  0
LINE
  8
_0-0_0
  6
CONTINUOUS
 62
    7
 10
113.65587038998883
 20
51.995513021073648
 11
110.83019838998882
 21
52.448394021073653
  0
LINE
  8
_0-0_0
  6
CONTINUOUS
 62
    7
 10
115.52381438998884
 20
50.790911021073654
 11
113.65587038998883
 21
51.995513021073648
  0
LINE
  8
_0-0_0
  6
CONTINUOUS
 62
    7
 10
118.55917238998886
 20
51.705565021073653
 11
114.69156338998884
 21
55.805022021073654
  0
LINE
  8
_0-0_0
  6
CONTINUOUS
 62
    7
 10
130.15239738998886
 20
72.665679021073643
 11
127.16381038998885
 21
72.404204021073653
  0
ARC
  8
_0-0_0
  6
CONTINUOUS
 62
    7
 10
118.28917038998887
 20
48.747790021073655
 40
10.531065
 50
6.8940440000000001
 51
127.570407
  0
LINE
  8
_0-0_0
  6
CONTINUOUS
 62
    7
 10
123.09734938998885
 20
43.232616021073653
 11
126.95872638998885
 21
46.58925102107365
  0
LINE
  8
_0-0_0
  6
CONTINUOUS
 62
    7
 10
115.48660738998886
 20
48.630541021073654
 11
116.93990938998887
 21
47.658129021073648
  0
ARC
  8
_0-0_0
  6
CONTINUOUS
 62
    7
 10
121.87261838998883
 20
47.663085021073655
 40
1.5654110000000001
 50
7.0525580000000003
 51
131.33620500000001
  0
LINE
  8
_0-0_0
  6
CONTINUOUS
 62
    7
 10
111.13974438998883
 20
49.889086021073652
 11
113.32708538998885
 21
49.366198021073643
  0
ARC
  8
_0-0_0
  6
CONTINUOUS
 62
    7
 10
112.82447338998885
 20
48.254229021073655
 40
10.016356
 50
223.62707300000002
 51
232.23878100000002
  0
ARC
  8
_0-0_0
  6
CONTINUOUS
 62
    7
 10
115.90897038998885
 20
52.648223021073662
 40
6.2302889999999991
 50
205.58155000000002
 51
322.30272100000013
  0
ARC
  8
_0-0_0
  6
CONTINUOUS
 62
    7
 10
113.37527938998886
 20
47.841430021073649
 40
10.0509
 50
228.312365
 51
0.0789810000000115
  0
LINE
  8
_0-0_0
  6
CONTINUOUS
 62
    7
 10
113.32708538998885
 20
49.366198021073643
 11
115.48660738998886
 21
48.630541021073654
  0
ARC
  8
_0-0_0
  6
CONTINUOUS
 62
    7
 10
115.13056438998883
 20
52.630156021073645
 40
5.529666999999999
 50
126.157911
 51
208.89719700000001
  0
LINE
  8
_0-0_0
  6
CONTINUOUS
 62
    7
 10
127.52922838998884
 20
48.485900021073647
 11
127.67034738998886
 21
50.736590021073653
  0
LINE
  8
_0-0_0
  6
CONTINUOUS
 62
    7
 10
127.13850538998885
 20
52.88714502107365
 11
125.53961038998885
 21
50.285094021073633
  0
LINE
  8
_0-0_0
  6
CONTINUOUS
 62
    7
 10
125.53961038998885
 20
50.285094021073633
 11
125.82039638998883
 21
48.912932021073644
  0
LINE
  8
_0-0_0
  6
CONTINUOUS
 62
    7
 10
125.82039638998883
 20
48.912932021073644
 11
124.65112138998883
 21
47.600207021073643
  0
LINE
  8
_0-0_0
  6
CONTINUOUS
 62
    7
 10
124.14428538998887
 20
48.183245021073645
 11
124.06453038998886
 21
49.918657021073628
  0
LINE
  8
_0-0_0
  6
CONTINUOUS
 62
    7
 10
124.06453038998886
 20
49.918657021073628
 11
124.83366538998885
 21
51.691698021073634
  0
LINE
  8
_0-0_0
  6
CONTINUOUS
 62
    7
 10
124.83366538998885
 20
51.691698021073634
 11
125.41772938998885
 21
53.223040021073643
  0
LINE
  8
_0-0_0
  6
CONTINUOUS
 62
    7
 10
125.41772938998885
 20
53.223040021073643
 11
125.58810238998886
 21
55.579955021073644
  0
LINE
  8
_0-0_0
  6
CONTINUOUS
 62
    7
 10
117.52256938998885
 20
49.295958021073673
 11
115.52381438998884
 21
50.790911021073654
  0
LINE
  8
_0-0_0
  6
CONTINUOUS
 62
    7
 10
116.52180638998887
 20
51.146654021073644
 11
118.97401538998885
 21
49.130065021073648
  0
LINE
  8
_0-0_0
  6
CONTINUOUS
 62
    7
 10
120.26634338998886
 20
49.741686021073633
 11
118.55917238998886
 21
51.705565021073653
  0
ARC
  8
_0-0_0
  6
CONTINUOUS
 62
    7
 10
123.67939938998886
 20
5.671984021073655
 40
69.817639
 50
48.675185999999989
 51
83.610646999999986
  0
LINE
  8
_0-0_0
  6
CONTINUOUS
 62
    7
 10
120.56304738998885
 20
90.482757021073667
 11
122.18282938998884
 21
71.968432021073653
  0
LINE
  8
_0-0_0
  6
CONTINUOUS
 62
    7
 10
127.16381038998885
 20
72.404204021073653
 11
125.54401038998886
 21
90.918529021073653
  0
LINE
  8
_0-0_0
  6
CONTINUOUS
 62
    7
 10
116.21090538998887
 20
88.596264021073651
 11
117.56923038998885
 21
73.070525021073649
  0
LINE
  8
_0-0_0
  6
CONTINUOUS
 62
    7
 10
130.15762138998883
 20
89.816442021073641
 11
131.51595338998885
 21
74.290709021073653
  0
ARC
  8
_0-0_0
  6
CONTINUOUS
 62
    7
 10
120.58735838998886
 20
116.69094702107364
 40
35.009310999999997
 50
286.85403900000006
 51
315.60282400000006
  0
ARC
  8
_0-0_0
  6
CONTINUOUS
 62
    7
 10
120.58735838998886
 20
116.69094702107364
 40
35.009310999999997
 50
250.31897500000005
 51
263.78597700000006
  0
ARC
  8
_0-0_0
  6
CONTINUOUS
 62
    7
 10
123.67939938998886
 20
5.671984021073655
 40
75.817633000000001
 50
38.405549000000008
 51
84.522606999999994
  0
ARC
  8
_0-0_0
  6
CONTINUOUS
 62
    7
 10
111.00422238998884
 20
105.80932502107366
 40
10.016356
 50
168.761257
 51
177.37292299999999
  0
ARC
  8
_0-0_0
  6
CONTINUOUS
 62
    7
 10
116.75079138998883
 20
53.420275021073664
 40
22.455072000000001
 50
153.408084
 51
226.756775
  0
ARC
  8
_0-0_0
  6
CONTINUOUS
 62
    7
 10
117.35668738998883
 20
104.48635202107366
 40
22.455072000000001
 50
174.24320700000001
 51
247.591926
  0
ARC
  8
_0-0_0
  6
CONTINUOUS
 62
    7
 10
111.00422238998884
 20
105.80932502107366
 40
16.016354
 50
34.699621999999998
 51
176.67333400000001
  0
ARC
  8
_0-0_0
  6
CONTINUOUS
 62
    7
 10
117.35668738998883
 20
104.48635202107366
 40
16.455076999999999
 50
173.782702
 51
247.10993300000001
  0
ARC
  8
_0-0_0
  6
CONTINUOUS
 62
    7
 10
111.14909538998883
 20
106.48223202107366
 40
10.0509
 50
40.920926999999999
 51
172.68767299999999
  0
ARC
  8
_0-0_0
  6
CONTINUOUS
 62
    7
 10
112.82447338998885
 20
48.254229021073655
 40
16.016354
 50
224.32664900000009
 51
6.3003559999999981
  0
ARC
  8
_0-0_0
  6
CONTINUOUS
 62
    7
 10
116.75079138998883
 20
53.420275021073664
 40
16.455076999999999
 50
153.89005
 51
227.21726699999996
  0
ARC
  8
_0-0_0
  6
CONTINUOUS
 62
    7
 10
127.19594538998885
 20
46.328856021073648
 40
29.009314
 50
109.491935
 51
150.39023299999999
  0
ARC
  8
_0-0_0
  6
CONTINUOUS
 62
    7
 10
127.19594538998885
 20
46.328856021073648
 40
35.009310999999997
 50
106.96744200000001
 51
150.68103600000001
  0
LINE
  8
_0-0_0
  6
CONTINUOUS
 62
    7
 10
196.70154838998886
 20
7.552282021073637
 11
209.99999838998883
 21
7.552282021073637
  0
LINE
  8
_0-0_0
  6
CONTINUOUS
 62
    7
 10
195.20154838998886
 20
3.052282021073637
 11
195.20154838998886
 21
6.052282021073637
  0
LINE
  8
_0-0_0
  6
CONTINUOUS
 62
    7
 10
209.99999838998883
 20
3.052282021073637
 11
195.20154838998886
 21
3.052282021073637
  0
ARC
  8
_0-0_0
  6
CONTINUOUS
 62
    7
 10
196.70154838998886
 20
6.052282021073637
 40
1.5
 50
90.000003000000007
 51
180.00000499999999
  0
LINE
  8
_0-0_0
  6
CONTINUOUS
 62
    7
 10
209.99999838998883
 20
-6.447717978926363
 11
196.70154838998886
 21
-6.447717978926363
  0
LINE
  8
_0-0_0
  6
CONTINUOUS
 62
    7
 10
195.20154838998886
 20
-4.947717978926363
 11
195.20154838998886
 21
-1.947717978926363
  0
LINE
  8
_0-0_0
  6
CONTINUOUS
 62
    7
 10
195.20154838998886
 20
-1.947717978926363
 11
209.99999838998883
 21
-1.947717978926363
  0
ARC
  8
_0-0_0
  6
CONTINUOUS
 62
    7
 10
196.70154838998886
 20
-4.947717978926363
 40
1.5
 50
180.00000500000002
 51
270.00000100000005
  0
ARC
  8
_0-0_0
  6
CONTINUOUS
 62
    7
 10
195.20154838998886
 20
0.552282021073637
 40
2.5
 50
90.000003000000007
 51
270.00000100000005
  0
LINE
  8
_0-0_0
  6
CONTINUOUS
 62
    7
 10
171.11560838998884
 20
-1.6545049789263544
 11
173.36403638998883
 21
-1.8279919789263488
  0
LINE
  8
_0-0_0
  6
CONTINUOUS
 62
    7
 10
175.41964538998883
 20
-2.6539439789263497
 11
172.62039038998887
 21
-3.8751469789263524
  0
LINE
  8
_0-0_0
  6
CONTINUOUS
 62
    7
 10
172.62039038998887
 20
-3.8751469789263524
 11
171.30066638998886
 21
-3.4061289789263469
  0
LINE
  8
_0-0_0
  6
CONTINUOUS
 62
    7
 10
171.30066638998886
 20
-3.4061289789263469
 11
169.83798038998884
 21
-4.3813359789263586
  0
LINE
  8
_0-0_0
  6
CONTINUOUS
 62
    7
 10
170.34481038998885
 20
-4.964368978926359
 11
172.05222938998884
 21
-5.284863978926353
  0
LINE
  8
_0-0_0
  6
CONTINUOUS
 62
    7
 10
172.05222938998884
 20
-5.284863978926353
 11
173.91505238998883
 21
-4.7699839789263478
  0
LINE
  8
_0-0_0
  6
CONTINUOUS
 62
    7
 10
173.91505238998883
 20
-4.7699839789263478
 11
175.51277038998884
 21
-4.4047369789263655
  0
LINE
  8
_0-0_0
  6
CONTINUOUS
 62
    7
 10
175.51277038998884
 20
-4.4047369789263655
 11
177.87046638998885
 21
-4.5640389789263622
  0
LINE
  8
_0-0_0
  6
CONTINUOUS
 62
    7
 10
178.43108338998886
 20
-5.9083869789263588
 11
176.80789038998887
 21
-5.9995129789263615
  0
LINE
  8
_0-0_0
  6
CONTINUOUS
 62
    7
 10
176.80789038998887
 20
-5.9995129789263615
 11
174.87394538998885
 21
-5.7681409789263398
  0
LINE
  8
_0-0_0
  6
CONTINUOUS
 62
    7
 10
174.87394538998885
 20
-5.7681409789263398
 11
172.02413738998885
 21
-7.1410039789263635
  0
LINE
  8
_0-0_0
  6
CONTINUOUS
 62
    7
 10
179.64849038998884
 20
-10.910913978926345
 11
179.09159738998883
 21
-11.179517978926356
  0
LINE
  8
_0-0_0
  6
CONTINUOUS
 62
    7
 10
179.09159738998883
 20
-11.179517978926356
 11
176.73389438998885
 21
-11.020215978926359
  0
LINE
  8
_0-0_0
  6
CONTINUOUS
 62
    7
 10
175.71814738998884
 20
-10.691064978926363
 11
173.34432238998886
 21
-8.3099859789263633
  0
LINE
  8
_0-0_0
  6
CONTINUOUS
 62
    7
 10
173.61569938998883
 20
-13.623108978926354
 11
172.21852838998885
 21
-12.925110978926341
  0
LINE
  8
_0-0_0
  6
CONTINUOUS
 62
    7
 10
172.21852838998885
 20
-12.925110978926341
 11
170.56284338998884
 21
-10.216089978926362
  0
LINE
  8
_0-0_0
  6
CONTINUOUS
 62
    7
 10
173.65319038998885
 20
-7.8259899789263443
 11
175.95636738998883
 21
-8.1673839789263525
  0
LINE
  8
_0-0_0
  6
CONTINUOUS
 62
    7
 10
175.95636738998883
 20
-8.1673839789263525
 11
177.84935738998882
 21
-8.9461679789263542
  0
LINE
  8
_0-0_0
  6
CONTINUOUS
 62
    7
 10
171.34836538998886
 20
-9.0214489789263439
 11
173.05554038998883
 21
-10.985352978926358
  0
LINE
  8
_0-0_0
  6
CONTINUOUS
 62
    7
 10
173.05554038998883
 20
-10.985352978926358
 11
176.57684138998886
 21
-15.385828978926355
  0
ARC
  8
_0-0_0
  6
CONTINUOUS
 62
    7
 10
169.51354238998886
 20
-7.141541978926341
 40
1.5654110000000001
 50
310.66355900000002
 51
74.947044000000005
  0
LINE
  8
_0-0_0
  6
CONTINUOUS
 62
    7
 10
165.29665938998886
 20
-5.3120979789263458
 11
169.15801838998885
 21
-1.9554939789263415
  0
LINE
  8
_0-0_0
  6
CONTINUOUS
 62
    7
 10
176.88451938998884
 20
-17.138660978926339
 11
176.24525338998885
 21
-17.802124978926344
  0
ARC
  8
_0-0_0
  6
CONTINUOUS
 62
    7
 10
173.49397138998884
 20
-14.509265978926351
 40
5.529666999999999
 50
233.10288200000002
 51
315.84234500000002
  0
ARC
  8
_0-0_0
  6
CONTINUOUS
 62
    7
 10
168.83968338998886
 20
-16.183911978926346
 40
10.016356
 50
209.76114700000002
 51
218.37292300000001
  0
ARC
  8
_0-0_0
  6
CONTINUOUS
 62
    7
 10
174.50189038998883
 20
-13.014771978926348
 40
16.455076999999999
 50
214.782757
 51
288.10991899999999
  0
ARC
  8
_0-0_0
  6
CONTINUOUS
 62
    7
 10
170.08898738998886
 20
-10.841077978926364
 40
10.531065
 50
314.42969800000003
 51
75.105983000000023
  0
ARC
  8
_0-0_0
  6
CONTINUOUS
 62
    7
 10
173.62018538998885
 20
-13.740955978926365
 40
6.2302889999999991
 50
119.697276
 51
236.41855600000005
  0
LINE
  8
_0-0_0
  6
CONTINUOUS
 62
    7
 10
174.18376038998883
 20
-18.193408978926357
 11
175.33737938998885
 21
-15.358850978926341
  0
LINE
  8
_0-0_0
  6
CONTINUOUS
 62
    7
 10
170.52512938998885
 20
-11.676526978926347
 11
171.72736338998885
 21
-13.863855978926352
  0
LINE
  8
_0-0_0
  6
CONTINUOUS
 62
    7
 10
171.72736338998885
 20
-13.863855978926352
 11
172.66027038998885
 21
-15.881299978926364
  0
LINE
  8
_0-0_0
  6
CONTINUOUS
 62
    7
 10
172.66027038998885
 20
-15.881299978926364
 11
172.71547738998885
 21
-18.742493978926348
  0
LINE
  8
_0-0_0
  6
CONTINUOUS
 62
    7
 10
170.22415938998884
 20
-18.079761978926342
 11
170.01077138998886
 21
-15.840942978926364
  0
LINE
  8
_0-0_0
  6
CONTINUOUS
 62
    7
 10
170.01077138998886
 20
-15.840942978926364
 11
169.58282338998885
 21
-13.600049978926364
  0
LINE
  8
_0-0_0
  6
CONTINUOUS
 62
    7
 10
169.58282338998885
 20
-13.600049978926364
 11
168.82213538998883
 21
-12.025562978926359
  0
ARC
  8
_0-0_0
  6
CONTINUOUS
 62
    7
 10
168.93318038998882
 20
-1.6843269789263502
 40
29.009314
 50
291.609736
 51
350.549105
  0
ARC
  8
_0-0_0
  6
CONTINUOUS
 62
    7
 10
168.93318038998882
 20
-1.6843269789263502
 40
35.009310999999997
 50
291.318961
 51
352.18004400000001
  0
ARC
  8
_0-0_0
  6
CONTINUOUS
 62
    7
 10
174.50189038998883
 20
-13.014771978926348
 40
22.455072000000001
 50
215.24320700000004
 51
288.59194000000002
  0
ARC
  8
_0-0_0
  6
CONTINUOUS
 62
    7
 10
168.83968338998886
 20
-16.183911978926346
 40
16.016354
 50
75.699641999999997
 51
217.67329300000003
  0
ARC
  8
_0-0_0
  6
CONTINUOUS
 62
    7
 10
168.50756038998884
 20
-15.580994978926356
 40
10.0509
 50
81.921002000000001
 51
213.68765900000002
  0
ARC
  8
_0-0_0
  6
CONTINUOUS
 62
    7
 10
128.18257938998886
 20
0.4916980210736596
 40
69.817639
 50
5.8041849999999995
 51
33.324824000000007
  0
ARC
  8
_0-0_0
  6
CONTINUOUS
 62
    7
 10
128.18257938998886
 20
0.4916980210736596
 40
75.817633000000001
 50
5.3434609999999996
 51
43.594453999999999
  0
ARC
  8
_0-0_0
  6
CONTINUOUS
 62
    7
 10
-167.06157361001107
 20
140.80313802107366
 40
328.1518549999999
 50
1.344006
 51
3.5735209999999999
  0
LINE
  8
_0-0_0
  6
CONTINUOUS
 62
    7
 10
224.79845138998886
 20
298.94771602107369
 11
209.99999838998883
 21
298.94771602107369
  0
LINE
  8
_0-0_0
  6
CONTINUOUS
 62
    7
 10
209.99999838998883
 20
293.94771602107369
 11
224.79845138998886
 21
293.94771602107369
  0
LINE
  8
_0-0_0
  6
CONTINUOUS
 62
    7
 10
209.99999838998883
 20
303.44771602107369
 11
223.29845138998886
 21
303.44771602107369
  0
LINE
  8
_0-0_0
  6
CONTINUOUS
 62
    7
 10
223.29845138998886
 20
289.44771602107369
 11
209.99999838998883
 21
289.44771602107369
  0
LINE
  8
_0-0_0
  6
CONTINUOUS
 62
    7
 10
224.79845138998886
 20
-1.947717978926363
 11
209.99999838998883
 21
-1.947717978926363
  0
LINE
  8
_0-0_0
  6
CONTINUOUS
 62
    7
 10
209.99999838998883
 20
3.052282021073637
 11
224.79845138998886
 21
3.052282021073637
  0
LINE
  8
_0-0_0
  6
CONTINUOUS
 62
    7
 10
209.99999838998883
 20
-6.447717978926363
 11
223.29845138998886
 21
-6.447717978926363
  0
LINE
  8
_0-0_0
  6
CONTINUOUS
 62
    7
 10
223.29845138998886
 20
7.552282021073637
 11
209.99999838998883
 21
7.552282021073637
  0
ENDSEC
  0
EOF
