  0
SECTION
  2
HEADER
  9
$ACADVER
  1
AC1009
  9
$INSBASE
 10
0
 20
0
 30
0
  9
$EXTMIN
 10
0
 20
0
  9
$EXTMAX
 10
420
 20
297
  9
$LIMMIN
 10
0
 20
0
  9
$LIMMAX
 10
420
 20
297
  9
$LTSCALE
 40
1
  0
ENDSEC
  0
SECTION
  2
TABLES
  0
TABLE
  2
LTYPE
 70
     9
  0
LTYPE
  2
CONTINUOUS
 70
    64
  3
実線
 72
    65
 73
     0
 40
0.0
  0
LTYPE
  2
DASHED1
 70
    64
  3
--  --  --  --  --  --  --  --  
 72
    65
 73
     2
 40
2.5
 49
1.25
 49
-1.25
  0
LTYPE
  2
DASHED2
 70
    64
  3
----    ----    ----    ----    
 72
    65
 73
     2
 40
5.0
 49
2.5
 49
-2.5
  0
LTYPE
  2
DASHED3
 70
    64
  3
------  ------  ------  ------  
 72
    65
 73
     2
 40
5.0
 49
3.75
 49
-1.25
  0
LTYPE
  2
CENTER1
 70
    64
  3
----- - ----- - ----- - ----- - 
 72
    65
 73
     4
 40
10.0
 49
6.25
 49
-1.25
 49
1.25
 49
-1.25
  0
LTYPE
  2
CENTER2
 70
    64
  3
----------  --  ----------  --  
 72
    65
 73
     4
 40
20.0
 49
12.5
 49
-2.5
 49
2.5
 49
-2.5
  0
LTYPE
  2
PHANTOM1
 70
    64
  3
--- - - --- - - --- - - --- - - 
 72
    65
 73
     6
 40
10.0
 49
3.25
 49
-1.25
 49
1.25
 49
-1.25
 49
1.25
 49
-1.25
  0
LTYPE
  2
PHANTOM2
 70
    64
  3
--------  -  -  --------  -  -  
 72
    65
 73
     6
 40
20.0
 49
10.0
 49
-2.5
 49
1.25
 49
-2.5
 49
1.25
 49
-2.5
  0
LTYPE
  2
DOT
 70
    64
  3
-   -   -   -   -   -   -   -   
 72
    65
 73
     2
 40
2.5
 49
0.625
 49
-1.875
  0
LTYPE
  2
DUMMY
 70
    64
  3
ダミー
 72
    65
 73
     0
 40
0.0
  0
LTYPE
  2
RAND1
 70
    64
  3
ランダム線1
 72
    65
 73
     4
 40
10.0
 49
1.0
 49
-2.0
 49
3.0
 49
-4.0
  0
LTYPE
  2
RAND2
 70
    64
  3
ランダム線2
 72
    65
 73
     4
 40
14.0
 49
2.0
 49
-3.0
 49
4.0
 49
-5.0
  0
LTYPE
  2
RAND3
 70
    64
  3
ランダム線3
 72
    65
 73
     4
 40
18.0
 49
3.0
 49
-4.0
 49
5.0
 49
-6.0
  0
LTYPE
  2
RAND4
 70
    64
  3
ランダム線4
 72
    65
 73
     4
 40
22.0
 49
4.0
 49
-5.0
 49
6.0
 49
-7.0
  0
LTYPE
  2
RAND5
 70
    64
  3
ランダム線5
 72
    65
 73
     4
 40
26.0
 49
5.0
 49
-6.0
 49
7.0
 49
-8.0
  0
LTYPE
  2
LONG1
 70
    64
  3
----------  --  ----------  --  
 72
    65
 73
     4
 40
40.0
 49
32.5
 49
-2.5
 49
2.5
 49
-2.5
  0
LTYPE
  2
LONG2
 70
    64
  3
--------  -  -  --------  -  -  
 72
    65
 73
     6
 40
40.0
 49
30.0
 49
-2.5
 49
1.25
 49
-2.5
 49
1.25
 49
-2.5
  0
LTYPE
  2
LONG3
 70
    64
  3
+++++++++++++++..+++++++++++++++
 72
    65
 73
     2
 40
40.0
 49
37.5
 49
-2.5
  0
LTYPE
  2
LONG4
 70
    64
  3
+++++++++++++++..+++++++++++++++
 72
    65
 73
     2
 40
80.0
 49
75.0
 49
-5.0
  0
LTYPE
  2
LONG5
 70
    64
  3
----------  --  ----------  --  
 72
    65
 73
     4
 40
60.0
 49
37.5
 49
-7.5
 49
7.5
 49
-7.5
  0
LTYPE
  2
dashed
 70
   64
  3
-------   -------------   ------
 72
   65
 73
    2
 40
7.5
 49
6
 49
-1.5
  0
LTYPE
  2
dashed_spaced
 70
   64
  3
----        --------        ----
 72
   65
 73
    2
 40
12
 49
6
 49
-6
  0
LTYPE
  2
long_dashed_dotted
 70
   64
  3
------------- --- --------------
 72
   65
 73
    4
 40
15.25
 49
12
 49
-1.5
 49
0.25
 49
-1.5
  0
LTYPE
  2
long_dashed_double-dotted
 70
   64
  3
----------- --- --- ------------
 72
   65
 73
    6
 40
17
 49
12
 49
-1.5
 49
0.25
 49
-1.5
 49
0.25
 49
-1.5
  0
LTYPE
  2
long_dashed_triplicate-dotted
 70
   64
  3
--------- --- --- --- ----------
 72
   65
 73
    8
 40
18.75
 49
12
 49
-1.5
 49
0.25
 49
-1.5
 49
0.25
 49
-1.5
 49
0.25
 49
-1.5
  0
LTYPE
  2
dotted
 70
   64
  3
   -       -       -       -    
 72
   65
 73
    2
 40
1.75
 49
0.25
 49
-1.5
  0
LTYPE
  2
chain
 70
   64
  3
-------------- -- --------------
 72
   65
 73
    4
 40
18.5
 49
12
 49
-1.5
 49
3.5
 49
-1.5
  0
LTYPE
  2
chain_double_dash
 70
   64
  3
------------ -- -- -------------
 72
   65
 73
    6
 40
23.5
 49
12
 49
-1.5
 49
3.5
 49
-1.5
 49
3.5
 49
-1.5
  0
LTYPE
  2
dashed_dotted
 70
   64
  3
-----------     -     ----------
 72
   65
 73
    4
 40
9.25
 49
6
 49
-1.5
 49
0.25
 49
-1.5
  0
LTYPE
  2
double-dashed_dotted
 70
   64
  3
------   -----------   -   -----
 72
   65
 73
    6
 40
16.75
 49
6
 49
-1.5
 49
6
 49
-1.5
 49
0.25
 49
-1.5
  0
LTYPE
  2
dashed_double-dotted
 70
   64
  3
---------    -    -    ---------
 72
   65
 73
    6
 40
11
 49
6
 49
-1.5
 49
0.25
 49
-1.5
 49
0.25
 49
-1.5
  0
LTYPE
  2
double-dashed_double-dotted
 70
   64
  3
-----   ---------   -   -   ----
 72
   65
 73
    8
 40
18.5
 49
6
 49
-1.5
 49
6
 49
-1.5
 49
0.25
 49
-1.5
 49
0.25
 49
-1.5
  0
LTYPE
  2
dashed_triplicate-dotted
 70
   64
  3
-------    -    -    -    ------
 72
   65
 73
    8
 40
12.75
 49
6
 49
-1.5
 49
0.25
 49
-1.5
 49
0.25
 49
-1.5
 49
0.25
 49
-1.5
  0
LTYPE
  2
double-dashed_triplicate-dotted
 70
   64
  3
-----  ---------  -  -  -  -----
 72
   65
 73
   10
 40
20.25
 49
6
 49
-1.5
 49
6
 49
-1.5
 49
0.25
 49
-1.5
 49
0.25
 49
-1.5
 49
0.25
 49
-1.5
  0
LTYPE
  2
undefined
 70
   64
  3
--------------------------------
 72
   65
 73
    0
 40
0
  0
LTYPE
  2
BORDER
 70
   64
  3
----     --------     -     ----
 72
   65
 73
    6
 40
1.76
 49
0.5
 49
-0.25
 49
0.5
 49
-0.25
 49
0.01
 49
-0.25
  0
LTYPE
  2
BORDER2
 70
   64
  3
----     --------     -     ----
 72
   65
 73
    6
 40
0.885
 49
0.25
 49
-0.125
 49
0.25
 49
-0.125
 49
0.01
 49
-0.125
  0
LTYPE
  2
BORDERX2
 70
   64
  3
----     --------     -     ----
 72
   65
 73
    6
 40
3.5099999999999998
 49
1
 49
-0.5
 49
1
 49
-0.5
 49
0.01
 49
-0.5
  0
LTYPE
  2
CENTER
 70
   64
  3
----------    ----    ----------
 72
   65
 73
    4
 40
2
 49
1.25
 49
-0.25
 49
0.25
 49
-0.25
  0
LTYPE
  2
CENTER2_21
 70
   64
  3
----------    ----    ----------
 72
   65
 73
    4
 40
1.125
 49
0.75
 49
-0.125
 49
0.125
 49
-0.125
  0
LTYPE
  2
CENTERX2
 70
   64
  3
----------    ----    ----------
 72
   65
 73
    4
 40
4
 49
2.5
 49
-0.5
 49
0.5
 49
-0.5
  0
LTYPE
  2
DASHDOT
 70
   64
  3
--------        -        -------
 72
   65
 73
    4
 40
1.01
 49
0.5
 49
-0.25
 49
0.01
 49
-0.25
  0
LTYPE
  2
DASHDOT2
 70
   64
  3
--------        -        -------
 72
   65
 73
    4
 40
0.51
 49
0.25
 49
-0.125
 49
0.01
 49
-0.125
  0
LTYPE
  2
DASHDOTX2
 70
   64
  3
--------        -        -------
 72
   65
 73
    4
 40
2.0099999999999998
 49
1
 49
-0.5
 49
0.01
 49
-0.5
  0
LTYPE
  2
DASHED
 70
   64
  3
------     -----------     -----
 72
   65
 73
    2
 40
0.75
 49
0.5
 49
-0.25
  0
LTYPE
  2
DASHED2_27
 70
   64
  3
------     -----------     -----
 72
   65
 73
    2
 40
0.375
 49
0.25
 49
-0.125
  0
LTYPE
  2
DASHEDX2
 70
   64
  3
------     -----------     -----
 72
   65
 73
    2
 40
1.5
 49
1
 49
-0.5
  0
LTYPE
  2
DIVIDE
 70
   64
  3
------      -      -      ------
 72
   65
 73
    6
 40
1.27
 49
0.5
 49
-0.25
 49
0.01
 49
-0.25
 49
0.01
 49
-0.25
  0
LTYPE
  2
DIVIDE2
 70
   64
  3
------      -      -      ------
 72
   65
 73
    6
 40
0.645
 49
0.25
 49
-0.125
 49
0.01
 49
-0.125
 49
0.01
 49
-0.125
  0
LTYPE
  2
DIVIDEX2
 70
   64
  3
------      -      -      ------
 72
   65
 73
    6
 40
2.5199999999999996
 49
1
 49
-0.5
 49
0.01
 49
-0.5
 49
0.01
 49
-0.5
  0
LTYPE
  2
DOT_32
 70
   64
  3
-               -               
 72
   65
 73
    2
 40
0.26
 49
0.01
 49
-0.25
  0
ENDTAB
  0
TABLE
  2
STYLE
  5
3
100
AcDbSymbolTable
 70
     1
  0
STYLE
  5
10
100
AcDbSymbolTableRecord
100
AcDbTextStyleTableRecord
  2
STANDARD
 70
     0
 40
0.0
 41
1.0
 50
0.0
 71
     0
 42
0.2
  3
txt
  4
bigfont.shx
  0
STYLE
  5
26
100
AcDbSymbolTableRecord
100
AcDbTextStyleTableRecord
  2
TATEGAKI
 70
    68
 40
0.0
 41
1.0
 50
0.0
 71
     0
 42
1.0
  3
txt
  4
bigfont.shx
  0
ENDTAB
  0
TABLE
  2
LAYER
 70
    2
  0
LAYER
  2
_0-0_0
 70
   64
 62
    7
  6
CONTINUOUS
  0
LAYER
  2
ADD_LINE
 70
   64
 62
    7
  6
CONTINUOUS
  0
ENDTAB
  0
ENDSEC
  0
SECTION
  2
BLOCKS
  0
ENDSEC
  0
SECTION
  2
ENTITIES
  0
LINE
  8
_0-0_0
  6
CONTINUOUS
 62
    7
 10
241.68513858498366
 20
370.99999853161057
 11
235.09723358498366
 21
370.99999853161057
  0
LINE
  8
_0-0_0
  6
CONTINUOUS
 62
    7
 10
226.17337958498365
 20
349.17205053161058
 11
226.17337958498365
 21
353.17204453161054
  0
ARC
  8
_0-0_0
  6
CONTINUOUS
 62
    7
 10
224.17337858498365
 20
353.17204453161054
 40
2
 50
0
 51
90.000003000000007
  0
ARC
  8
_0-0_0
  6
CONTINUOUS
 62
    7
 10
241.32675158498367
 20
346.74295553161051
 40
25.076584
 50
125.044726
 51
160.358485
  0
ARC
  8
_0-0_0
  6
CONTINUOUS
 62
    7
 10
241.32675158498367
 20
346.74295553161051
 40
19.076592000000002
 50
124.453328
 51
153.77767900000001
  0
ARC
  8
_0-0_0
  6
CONTINUOUS
 62
    7
 10
238.39118658498364
 20
352.96039253161052
 40
18.337862000000001
 50
100.34795800000001
 51
128.69277099999999
  0
ARC
  8
_0-0_0
  6
CONTINUOUS
 62
    7
 10
238.39118658498364
 20
352.96039253161052
 40
12.337866
 50
328.01603700000004
 51
129.55344400000007
  0
ARC
  8
_0-0_0
  6
CONTINUOUS
 62
    7
 10
224.17337858498365
 20
339.17205753161056
 40
2
 50
270.000001
 51
0
  0
LINE
  8
_0-0_0
  6
CONTINUOUS
 62
    7
 10
226.17337958498365
 20
339.17205753161056
 11
226.17337958498365
 21
343.17205053161047
  0
ARC
  8
_0-0_0
  6
CONTINUOUS
 62
    7
 10
244.32644458498365
 20
352.63999553161057
 40
12.961591
 50
222.66456299999996
 51
326.54265600000002
  0
ARC
  8
_0-0_0
  6
CONTINUOUS
 62
    7
 10
274.87568258498368
 20
264.83930453161054
 40
3.9947900000000001
 50
289.149857
 51
81.806965000000005
  0
ARC
  8
_0-0_0
  6
CONTINUOUS
 62
    7
 10
274.87568258498368
 20
264.83930453161054
 40
9.9948009999999972
 50
294.08423099999999
 51
74.907149000000018
  0
ARC
  8
_0-0_0
  6
CONTINUOUS
 62
    7
 10
325.99622858498367
 20
369.42739653161055
 40
106.617248
 50
197.60987200000002
 51
242.93070400000005
  0
ARC
  8
_0-0_0
  6
CONTINUOUS
 62
    7
 10
325.99622858498367
 20
369.42739653161055
 40
112.617248
 50
196.64349600000003
 51
243.32835800000004
  0
ARC
  8
_0-0_0
  6
CONTINUOUS
 62
    7
 10
276.83467758498364
 20
182.70387053161053
 40
5.473503
 50
49.657876000000002
 51
100.41910799999999
  0
ARC
  8
_0-0_0
  6
CONTINUOUS
 62
    7
 10
280.07751158498365
 20
183.36580153161054
 40
6.3408739999999986
 50
58.780805999999998
 51
131.87645900000001
  0
ARC
  8
_0-0_0
  6
CONTINUOUS
 62
    7
 10
276.70694258498366
 20
183.15606953161054
 40
5.2261110000000004
 50
245.61931300000003
 51
45.377195000000029
  0
ARC
  8
_0-0_0
  6
CONTINUOUS
 62
    7
 10
274.39751158498365
 20
195.53085653161054
 40
41.3795
 50
279.46970299999998
 51
279.80301600000001
  0
ARC
  8
_0-0_0
  6
CONTINUOUS
 62
    7
 10
274.39751158498365
 20
195.53085653161054
 40
47.3795
 50
278.26149700000002
 51
279.240837
  0
ARC
  8
_0-0_0
  6
CONTINUOUS
 62
    7
 10
274.20552558498366
 20
156.95162053161056
 40
2
 50
0
 51
180.00000500000002
  0
LINE
  8
_0-0_0
  6
CONTINUOUS
 62
    7
 10
276.20552658498366
 20
156.95162053161056
 11
279.70552358498367
 21
156.95162053161056
  0
ARC
  8
_0-0_0
  6
CONTINUOUS
 62
    7
 10
279.70552358498367
 20
155.45162053161053
 40
1.5
 50
0
 51
90.000003000000007
  0
ARC
  8
_0-0_0
  6
CONTINUOUS
 62
    7
 10
268.70552658498366
 20
155.45162053161053
 40
1.5
 50
90.000003000000007
 51
180.00000499999999
  0
LINE
  8
_0-0_0
  6
CONTINUOUS
 62
    7
 10
268.70552658498366
 20
156.95162053161056
 11
272.20552358498367
 21
156.95162053161056
  0
ARC
  8
_0-0_0
  6
CONTINUOUS
 62
    7
 10
277.22913658498362
 20
181.68446953161055
 40
9.3863760000000003
 50
267.47854100000001
 51
49.186421999999993
  0
ARC
  8
_0-0_0
  6
CONTINUOUS
 62
    7
 10
279.59211258498362
 20
191.59702353161055
 40
19.488555000000002
 50
86.816095999999987
 51
261.81104099999999
  0
ARC
  8
_0-0_0
  6
CONTINUOUS
 62
    7
 10
280.01706358498365
 20
191.24987353161055
 40
13.968356
 50
110.406176
 51
246.95731900000001
  0
ARC
  8
_0-0_0
  6
CONTINUOUS
 62
    7
 10
281.10899058498364
 20
179.90592953161055
 40
31.152598000000001
 50
271.64987400000001
 51
90.799086999999972
  0
ARC
  8
_0-0_0
  6
CONTINUOUS
 62
    7
 10
281.10899058498364
 20
179.90592953161055
 40
25.152598000000001
 50
271.420817
 51
103.71224200000002
  0
ARC
  8
_0-0_0
  6
CONTINUOUS
 62
    7
 10
281.10899058498364
 20
179.90592953161055
 40
25.152598000000001
 50
270.76052900000002
 51
102.15399600000003
  0
ARC
  8
_0-0_0
  6
CONTINUOUS
 62
    7
 10
352.62987958498366
 20
140.72445253161055
 40
142.567992
 50
122.42474799999999
 51
147.73320799999999
  0
ARC
  8
_0-0_0
  6
CONTINUOUS
 62
    7
 10
352.62987958498366
 20
140.72445253161055
 40
136.567992
 50
122.648163
 51
147.60850199999999
  0
ARC
  8
_0-0_0
  6
CONTINUOUS
 62
    7
 10
238.20433858498365
 20
348.10359353161056
 40
5.4465180000000002
 50
63.812497
 51
231.25143599999998
  0
ARC
  8
_0-0_0
  6
CONTINUOUS
 62
    7
 10
240.26185358498367
 20
348.75310553161057
 40
4.2520530000000001
 50
85.331384
 51
253.83846200000002
  0
ARC
  8
_0-0_0
  6
CONTINUOUS
 62
    7
 10
241.92177358498364
 20
356.93561253161056
 40
12.591766
 50
256.94895700000001
 51
303.41533500000003
  0
ARC
  8
_0-0_0
  6
CONTINUOUS
 62
    7
 10
226.17337958498365
 20
346.17205053161047
 40
3
 50
270.000001
 51
90.000002999999992
  0
ARC
  8
_0-0_0
  6
CONTINUOUS
 62
    7
 10
238.39118658498364
 20
352.96039253161052
 40
18.337862000000001
 50
335.97383600000001
 51
79.652041000000011
  0
ARC
  8
_0-0_0
  6
CONTINUOUS
 62
    7
 10
274.39751158498365
 20
101.46914053161055
 40
41.3795
 50
80.196973
 51
80.530287000000001
  0
ARC
  8
_0-0_0
  6
CONTINUOUS
 62
    7
 10
274.39751158498365
 20
101.46914053161055
 40
47.3795
 50
80.759173000000004
 51
81.738505999999987
  0
LINE
  8
_0-0_0
  6
CONTINUOUS
 62
    7
 10
281.20552358498367
 20
141.54837653161053
 11
281.20552358498367
 21
148.49999853161054
  0
LINE
  8
_0-0_0
  6
CONTINUOUS
 62
    7
 10
272.20552358498367
 20
140.04837653161053
 11
272.20552358498367
 21
148.49999853161054
  0
LINE
  8
_0-0_0
  6
CONTINUOUS
 62
    7
 10
276.20552658498366
 20
148.49999853161054
 11
276.20552658498366
 21
140.04837653161053
  0
ARC
  8
_0-0_0
  6
CONTINUOUS
 62
    7
 10
274.20552558498366
 20
140.04837653161053
 40
2
 50
180.00000500000002
 51
0.0000000000000254
  0
LINE
  8
_0-0_0
  6
CONTINUOUS
 62
    7
 10
276.20552658498366
 20
140.04837653161053
 11
279.70552358498367
 21
140.04837653161053
  0
ARC
  8
_0-0_0
  6
CONTINUOUS
 62
    7
 10
279.70552358498367
 20
141.54837653161053
 40
1.5
 50
270.000001
 51
0
  0
LINE
  8
_0-0_0
  6
CONTINUOUS
 62
    7
 10
267.20552658498366
 20
148.49999853161054
 11
267.20552658498366
 21
141.54837653161053
  0
ARC
  8
_0-0_0
  6
CONTINUOUS
 62
    7
 10
268.70552658498366
 20
141.54837653161053
 40
1.5
 50
180.00000500000002
 51
270.00000100000005
  0
LINE
  8
_0-0_0
  6
CONTINUOUS
 62
    7
 10
268.70552658498366
 20
140.04837653161053
 11
272.20552358498367
 21
140.04837653161053
  0
ARC
  8
_0-0_0
  6
CONTINUOUS
 62
    7
 10
276.83467758498364
 20
114.29612653161055
 40
5.473503
 50
259.58090199999998
 51
310.34213099999999
  0
ARC
  8
_0-0_0
  6
CONTINUOUS
 62
    7
 10
280.07751158498365
 20
113.63419653161054
 40
6.3408739999999986
 50
228.12353700000003
 51
301.21918300000004
  0
ARC
  8
_0-0_0
  6
CONTINUOUS
 62
    7
 10
276.70694258498366
 20
113.84392753161055
 40
5.2261110000000004
 50
314.62280099999998
 51
114.38069100000001
  0
ARC
  8
_0-0_0
  6
CONTINUOUS
 62
    7
 10
277.22913658498362
 20
115.31552753161054
 40
9.3863760000000003
 50
310.81357800000001
 51
92.521456000000001
  0
ARC
  8
_0-0_0
  6
CONTINUOUS
 62
    7
 10
279.59211258498362
 20
105.40297353161056
 40
19.488555000000002
 50
98.188962000000004
 51
273.18390699999998
  0
ARC
  8
_0-0_0
  6
CONTINUOUS
 62
    7
 10
280.01706358498365
 20
105.75012353161056
 40
13.968356
 50
113.04268400000001
 51
249.59382700000003
  0
ARC
  8
_0-0_0
  6
CONTINUOUS
 62
    7
 10
281.10899058498364
 20
117.09406753161055
 40
31.152598000000001
 50
269.20092299999999
 51
88.350136000000035
  0
ARC
  8
_0-0_0
  6
CONTINUOUS
 62
    7
 10
281.10899058498364
 20
117.09406753161055
 40
25.152598000000001
 50
256.28776800000003
 51
88.579186999999976
  0
ARC
  8
_0-0_0
  6
CONTINUOUS
 62
    7
 10
281.10899058498364
 20
117.09406753161055
 40
25.152598000000001
 50
257.84600699999999
 51
89.239475000000056
  0
ARC
  8
_0-0_0
  6
CONTINUOUS
 62
    7
 10
274.87568258498368
 20
32.16069253161055
 40
3.9947900000000001
 50
278.19303100000013
 51
70.850153000000034
  0
ARC
  8
_0-0_0
  6
CONTINUOUS
 62
    7
 10
274.87568258498368
 20
32.16069253161055
 40
9.9948009999999972
 50
285.09286100000003
 51
65.915758000000011
  0
ARC
  8
_0-0_0
  6
CONTINUOUS
 62
    7
 10
224.17337858498365
 20
-42.172059468389449
 40
2
 50
0
 51
90.000003000000007
  0
LINE
  8
_0-0_0
  6
CONTINUOUS
 62
    7
 10
226.17337958498365
 20
-42.172059468389449
 11
226.17337958498365
 21
-46.172053468389464
  0
ARC
  8
_0-0_0
  6
CONTINUOUS
 62
    7
 10
244.32644458498365
 20
-55.639997468389453
 40
12.961591
 50
33.457340000000002
 51
137.33543300000002
  0
ARC
  8
_0-0_0
  6
CONTINUOUS
 62
    7
 10
325.99622858498367
 20
-72.427399468389467
 40
106.617248
 50
117.06929200000002
 51
162.39013799999992
  0
ARC
  8
_0-0_0
  6
CONTINUOUS
 62
    7
 10
325.99622858498367
 20
-72.427399468389467
 40
112.617248
 50
116.671638
 51
163.35651399999989
  0
ARC
  8
_0-0_0
  6
CONTINUOUS
 62
    7
 10
352.62987958498366
 20
156.27554453161054
 40
142.567992
 50
212.2667890000001
 51
237.57523499999999
  0
ARC
  8
_0-0_0
  6
CONTINUOUS
 62
    7
 10
352.62987958498366
 20
156.27554453161054
 40
136.567992
 50
212.39149400000002
 51
237.35183300000006
  0
LINE
  8
_0-0_0
  6
CONTINUOUS
 62
    7
 10
226.17337958498365
 20
-52.172053468389464
 11
226.17337958498365
 21
-56.172047468389451
  0
ARC
  8
_0-0_0
  6
CONTINUOUS
 62
    7
 10
224.17337858498365
 20
-56.172047468389451
 40
2
 50
270.000001
 51
0
  0
ARC
  8
_0-0_0
  6
CONTINUOUS
 62
    7
 10
241.32675158498367
 20
-49.742958468389446
 40
25.076584
 50
199.64151200000003
 51
234.95528400000001
  0
ARC
  8
_0-0_0
  6
CONTINUOUS
 62
    7
 10
241.32675158498367
 20
-49.742958468389446
 40
19.076592000000002
 50
206.22231700000003
 51
235.54666900000004
  0
LINE
  8
_0-0_0
  6
CONTINUOUS
 62
    7
 10
241.68513858498366
 20
-74.000000468389459
 11
235.09723358498366
 21
-74.000000468389459
  0
ARC
  8
_0-0_0
  6
CONTINUOUS
 62
    7
 10
238.39118658498364
 20
-55.960395468389464
 40
18.337862000000001
 50
231.30722500000002
 51
259.65204600000004
  0
ARC
  8
_0-0_0
  6
CONTINUOUS
 62
    7
 10
238.39118658498364
 20
-55.960395468389464
 40
12.337866
 50
230.44656599999999
 51
31.983959000000002
  0
ARC
  8
_0-0_0
  6
CONTINUOUS
 62
    7
 10
238.20433858498365
 20
-51.103596468389469
 40
5.4465180000000002
 50
128.74856
 51
296.18749200000002
  0
ARC
  8
_0-0_0
  6
CONTINUOUS
 62
    7
 10
240.26185358498367
 20
-51.753108468389456
 40
4.2520530000000001
 50
106.1615409999999
 51
274.66862600000007
  0
ARC
  8
_0-0_0
  6
CONTINUOUS
 62
    7
 10
241.92177358498364
 20
-59.935615468389443
 40
12.591766
 50
56.584651000000008
 51
103.05105300000001
  0
ARC
  8
_0-0_0
  6
CONTINUOUS
 62
    7
 10
226.17337958498365
 20
-49.172053468389464
 40
3
 50
270.000001
 51
90.000002999999992
  0
ARC
  8
_0-0_0
  6
CONTINUOUS
 62
    7
 10
238.39118658498364
 20
-55.960395468389464
 40
18.337862000000001
 50
280.34795600000001
 51
24.02615300000005
  0
LINE
  8
_0-0_0
  6
CONTINUOUS
 62
    7
 10
272.20552358498367
 20
156.95162053161056
 11
272.20552358498367
 21
148.49999853161054
  0
LINE
  8
_0-0_0
  6
CONTINUOUS
 62
    7
 10
276.20552658498366
 20
148.49999853161054
 11
276.20552658498366
 21
156.95162053161056
  0
ARC
  8
_0-0_0
  6
CONTINUOUS
 62
    7
 10
274.39751158498365
 20
195.53085653161054
 40
41.3795
 50
153.67035000000001
 51
259.99085000000002
  0
LINE
  8
_0-0_0
  6
CONTINUOUS
 62
    7
 10
281.20552358498367
 20
155.45162053161053
 11
281.20552358498367
 21
148.49999853161054
  0
LINE
  8
_0-0_0
  6
CONTINUOUS
 62
    7
 10
267.20552658498366
 20
148.49999853161054
 11
267.20552658498366
 21
155.45162053161053
  0
ARC
  8
_0-0_0
  6
CONTINUOUS
 62
    7
 10
274.39751158498365
 20
195.53085653161054
 40
47.3795
 50
153.2773
 51
261.26902499999994
  0
ARC
  8
_0-0_0
  6
CONTINUOUS
 62
    7
 10
274.39751158498365
 20
101.46914053161055
 40
41.3795
 50
100.009153
 51
206.32964699999999
  0
ARC
  8
_0-0_0
  6
CONTINUOUS
 62
    7
 10
274.39751158498365
 20
101.46914053161055
 40
47.3795
 50
98.730979000000005
 51
206.72269700000001
  0
LINE
  8
_0-0_0
  6
CONTINUOUS
 62
    7
 10
178.31485558498366
 20
370.99999853161057
 11
184.90276158498366
 21
370.99999853161057
  0
LINE
  8
_0-0_0
  6
CONTINUOUS
 62
    7
 10
193.82661558498364
 20
349.17205053161058
 11
193.82661558498364
 21
353.17204453161054
  0
ARC
  8
_0-0_0
  6
CONTINUOUS
 62
    7
 10
195.82661658498364
 20
353.17204453161054
 40
2
 50
90.000003000000007
 51
180.00000499999999
  0
LINE
  8
_0-0_0
  6
CONTINUOUS
 62
    7
 10
193.82661558498364
 20
349.17205053161058
 11
209.99999758498365
 21
349.17205053161058
  0
LINE
  8
_0-0_0
  6
CONTINUOUS
 62
    7
 10
195.82661658498364
 20
355.17205053161058
 11
209.99999758498365
 21
355.17205053161058
  0
ARC
  8
_0-0_0
  6
CONTINUOUS
 62
    7
 10
178.67324358498365
 20
346.74295553161051
 40
25.076584
 50
19.641515000000002
 51
54.955275000000007
  0
ARC
  8
_0-0_0
  6
CONTINUOUS
 62
    7
 10
178.67324358498365
 20
346.74295553161051
 40
19.076592000000002
 50
26.222321000000012
 51
55.546670999999996
  0
ARC
  8
_0-0_0
  6
CONTINUOUS
 62
    7
 10
181.60880858498365
 20
352.96039253161052
 40
18.337862000000001
 50
51.307229999999997
 51
79.652040999999997
  0
ARC
  8
_0-0_0
  6
CONTINUOUS
 62
    7
 10
181.60880858498365
 20
352.96039253161052
 40
12.337866
 50
50.44655800000001
 51
211.98396399999999
  0
ARC
  8
_0-0_0
  6
CONTINUOUS
 62
    7
 10
195.82661658498364
 20
339.17205753161056
 40
2
 50
180.00000500000002
 51
270.00000100000005
  0
LINE
  8
_0-0_0
  6
CONTINUOUS
 62
    7
 10
193.82661558498364
 20
339.17205753161056
 11
193.82661558498364
 21
343.17205053161047
  0
LINE
  8
_0-0_0
  6
CONTINUOUS
 62
    7
 10
193.82661558498364
 20
343.17205053161047
 11
209.99999758498365
 21
343.17205053161047
  0
LINE
  8
_0-0_0
  6
CONTINUOUS
 62
    7
 10
209.99999758498365
 20
337.17205153161058
 11
195.82661658498364
 21
337.17205153161058
  0
ARC
  8
_0-0_0
  6
CONTINUOUS
 62
    7
 10
175.67355058498364
 20
352.63999553161057
 40
12.961591
 50
213.457345
 51
317.33545200000003
  0
ARC
  8
_0-0_0
  6
CONTINUOUS
 62
    7
 10
145.12431258498364
 20
264.83930453161054
 40
3.9947900000000001
 50
98.193039999999982
 51
250.85014499999997
  0
ARC
  8
_0-0_0
  6
CONTINUOUS
 62
    7
 10
145.12431258498364
 20
264.83930453161054
 40
9.9948009999999972
 50
105.09284900000002
 51
245.91577000000004
  0
ARC
  8
_0-0_0
  6
CONTINUOUS
 62
    7
 10
94.003766584983651
 20
369.42739653161055
 40
106.617248
 50
297.06929700000001
 51
342.39014300000002
  0
ARC
  8
_0-0_0
  6
CONTINUOUS
 62
    7
 10
94.003766584983651
 20
369.42739653161055
 40
112.617248
 50
296.67164400000001
 51
343.35650600000002
  0
ARC
  8
_0-0_0
  6
CONTINUOUS
 62
    7
 10
143.16531758498365
 20
182.70387053161053
 40
5.473503
 50
79.580889999999997
 51
130.34212600000001
  0
ARC
  8
_0-0_0
  6
CONTINUOUS
 62
    7
 10
139.92248358498367
 20
183.36580153161054
 40
6.3408739999999986
 50
48.123536000000001
 51
121.21919200000001
  0
ARC
  8
_0-0_0
  6
CONTINUOUS
 62
    7
 10
143.29305258498366
 20
183.15606953161054
 40
5.2261110000000004
 50
134.62280999999999
 51
294.38068900000007
  0
ARC
  8
_0-0_0
  6
CONTINUOUS
 62
    7
 10
151.29446758498364
 20
155.45162053161053
 40
1.5
 50
0
 51
90.000003000000007
  0
ARC
  8
_0-0_0
  6
CONTINUOUS
 62
    7
 10
145.79446958498366
 20
156.95162053161056
 40
2
 50
0
 51
180.00000500000002
  0
LINE
  8
_0-0_0
  6
CONTINUOUS
 62
    7
 10
143.79446858498366
 20
156.95162053161056
 11
140.29447158498365
 21
156.95162053161056
  0
ARC
  8
_0-0_0
  6
CONTINUOUS
 62
    7
 10
145.60248358498364
 20
195.53085653161054
 40
41.3795
 50
260.19698499999993
 51
260.53029900000001
  0
ARC
  8
_0-0_0
  6
CONTINUOUS
 62
    7
 10
145.60248358498364
 20
195.53085653161054
 40
47.3795
 50
260.759165
 51
261.73850399999998
  0
ARC
  8
_0-0_0
  6
CONTINUOUS
 62
    7
 10
140.29447158498365
 20
155.45162053161053
 40
1.5
 50
90.000003000000007
 51
180.00000499999999
  0
LINE
  8
_0-0_0
  6
CONTINUOUS
 62
    7
 10
151.29446758498364
 20
156.95162053161056
 11
147.79447058498366
 21
156.95162053161056
  0
ARC
  8
_0-0_0
  6
CONTINUOUS
 62
    7
 10
142.77085858498364
 20
181.68446953161055
 40
9.3863760000000003
 50
130.81357199999999
 51
272.52146099999999
  0
ARC
  8
_0-0_0
  6
CONTINUOUS
 62
    7
 10
140.40788258498364
 20
191.59702353161055
 40
19.488555000000002
 50
278.18896000000001
 51
93.183901999999989
  0
ARC
  8
_0-0_0
  6
CONTINUOUS
 62
    7
 10
139.98293058498368
 20
191.24987353161055
 40
13.968356
 50
293.04268200000001
 51
69.593828999999999
  0
ARC
  8
_0-0_0
  6
CONTINUOUS
 62
    7
 10
138.89100458498368
 20
179.90592953161055
 40
31.152598000000001
 50
89.200911000000005
 51
268.35012799999998
  0
ARC
  8
_0-0_0
  6
CONTINUOUS
 62
    7
 10
138.89100458498368
 20
179.90592953161055
 40
25.152598000000001
 50
76.287756000000002
 51
268.579185
  0
ARC
  8
_0-0_0
  6
CONTINUOUS
 62
    7
 10
138.89100458498368
 20
179.90592953161055
 40
25.152598000000001
 50
77.846008999999995
 51
269.23947300000003
  0
ARC
  8
_0-0_0
  6
CONTINUOUS
 62
    7
 10
67.370115584983637
 20
140.72445253161055
 40
142.567992
 50
32.26679
 51
57.575244000000019
  0
ARC
  8
_0-0_0
  6
CONTINUOUS
 62
    7
 10
67.370115584983637
 20
140.72445253161055
 40
136.567992
 50
32.391492999999997
 51
57.351835000000001
  0
ARC
  8
_0-0_0
  6
CONTINUOUS
 62
    7
 10
181.79565658498365
 20
348.10359353161056
 40
5.4465180000000002
 50
308.74856499999999
 51
116.187501
  0
ARC
  8
_0-0_0
  6
CONTINUOUS
 62
    7
 10
179.73814158498365
 20
348.75310553161057
 40
4.2520530000000001
 50
286.16154000000006
 51
94.668621000000059
  0
ARC
  8
_0-0_0
  6
CONTINUOUS
 62
    7
 10
178.07822158498365
 20
356.93561253161056
 40
12.591766
 50
236.5846390000001
 51
283.05104399999999
  0
ARC
  8
_0-0_0
  6
CONTINUOUS
 62
    7
 10
193.82661558498364
 20
346.17205053161047
 40
3
 50
90.000003000000007
 51
270.00000100000005
  0
ARC
  8
_0-0_0
  6
CONTINUOUS
 62
    7
 10
181.60880858498365
 20
352.96039253161052
 40
18.337862000000001
 50
100.34795800000001
 51
204.02615199999997
  0
LINE
  8
_0-0_0
  6
CONTINUOUS
 62
    7
 10
152.79446758498364
 20
148.49999853161054
 11
152.79446758498364
 21
141.54837653161053
  0
ARC
  8
_0-0_0
  6
CONTINUOUS
 62
    7
 10
151.29446758498364
 20
141.54837653161053
 40
1.5
 50
270.000001
 51
0
  0
LINE
  8
_0-0_0
  6
CONTINUOUS
 62
    7
 10
147.79447058498366
 20
140.04837653161053
 11
147.79447058498366
 21
148.49999853161054
  0
LINE
  8
_0-0_0
  6
CONTINUOUS
 62
    7
 10
143.79446858498366
 20
148.49999853161054
 11
143.79446858498366
 21
140.04837653161053
  0
ARC
  8
_0-0_0
  6
CONTINUOUS
 62
    7
 10
145.79446958498366
 20
140.04837653161053
 40
2
 50
180.00000500000002
 51
0.0000000000000254
  0
LINE
  8
_0-0_0
  6
CONTINUOUS
 62
    7
 10
143.79446858498366
 20
140.04837653161053
 11
140.29447158498365
 21
140.04837653161053
  0
ARC
  8
_0-0_0
  6
CONTINUOUS
 62
    7
 10
145.60248358498364
 20
101.46914053161055
 40
41.3795
 50
99.469711000000004
 51
99.803025000000005
  0
ARC
  8
_0-0_0
  6
CONTINUOUS
 62
    7
 10
145.60248358498364
 20
101.46914053161055
 40
47.3795
 50
98.261492000000004
 51
99.240825000000001
  0
LINE
  8
_0-0_0
  6
CONTINUOUS
 62
    7
 10
138.79447158498365
 20
141.54837653161053
 11
138.79447158498365
 21
148.49999853161054
  0
ARC
  8
_0-0_0
  6
CONTINUOUS
 62
    7
 10
140.29447158498365
 20
141.54837653161053
 40
1.5
 50
180.00000500000002
 51
270.00000100000005
  0
LINE
  8
_0-0_0
  6
CONTINUOUS
 62
    7
 10
151.29446758498364
 20
140.04837653161053
 11
147.79447058498366
 21
140.04837653161053
  0
ARC
  8
_0-0_0
  6
CONTINUOUS
 62
    7
 10
143.16531758498365
 20
114.29612653161055
 40
5.473503
 50
229.65787100000003
 51
280.41909900000007
  0
ARC
  8
_0-0_0
  6
CONTINUOUS
 62
    7
 10
139.92248358498367
 20
113.63419653161054
 40
6.3408739999999986
 50
238.78079100000002
 51
311.876464
  0
ARC
  8
_0-0_0
  6
CONTINUOUS
 62
    7
 10
143.29305258498366
 20
113.84392753161055
 40
5.2261110000000004
 50
65.619314000000017
 51
225.37719999999999
  0
ARC
  8
_0-0_0
  6
CONTINUOUS
 62
    7
 10
142.77085858498364
 20
115.31552753161054
 40
9.3863760000000003
 50
87.478542999999988
 51
229.18642399999996
  0
ARC
  8
_0-0_0
  6
CONTINUOUS
 62
    7
 10
140.40788258498364
 20
105.40297353161056
 40
19.488555000000002
 50
266.81609400000002
 51
81.811036000000001
  0
ARC
  8
_0-0_0
  6
CONTINUOUS
 62
    7
 10
139.98293058498368
 20
105.75012353161056
 40
13.968356
 50
290.40617400000002
 51
66.957320999999993
  0
ARC
  8
_0-0_0
  6
CONTINUOUS
 62
    7
 10
138.89100458498368
 20
117.09406753161055
 40
31.152598000000001
 50
91.649861999999985
 51
270.79907799999989
  0
ARC
  8
_0-0_0
  6
CONTINUOUS
 62
    7
 10
138.89100458498368
 20
117.09406753161055
 40
25.152598000000001
 50
91.420811999999998
 51
283.71223400000002
  0
ARC
  8
_0-0_0
  6
CONTINUOUS
 62
    7
 10
138.89100458498368
 20
117.09406753161055
 40
25.152598000000001
 50
90.760524000000004
 51
282.15399400000001
  0
ARC
  8
_0-0_0
  6
CONTINUOUS
 62
    7
 10
145.12431258498364
 20
32.16069253161055
 40
3.9947900000000001
 50
109.149845
 51
261.80697000000004
  0
ARC
  8
_0-0_0
  6
CONTINUOUS
 62
    7
 10
145.12431258498364
 20
32.16069253161055
 40
9.9948009999999972
 50
114.08423999999999
 51
254.90714
  0
ARC
  8
_0-0_0
  6
CONTINUOUS
 62
    7
 10
195.82661658498364
 20
-42.172059468389449
 40
2
 50
90.000003000000007
 51
180.00000499999999
  0
LINE
  8
_0-0_0
  6
CONTINUOUS
 62
    7
 10
193.82661558498364
 20
-42.172059468389449
 11
193.82661558498364
 21
-46.172053468389464
  0
LINE
  8
_0-0_0
  6
CONTINUOUS
 62
    7
 10
193.82661558498364
 20
-46.172053468389464
 11
209.99999758498365
 21
-46.172053468389464
  0
LINE
  8
_0-0_0
  6
CONTINUOUS
 62
    7
 10
209.99999758498365
 20
-40.172053468389464
 11
195.82661658498364
 21
-40.172053468389464
  0
ARC
  8
_0-0_0
  6
CONTINUOUS
 62
    7
 10
175.67355058498364
 20
-55.639997468389453
 40
12.961591
 50
42.664560999999999
 51
146.54266500000003
  0
ARC
  8
_0-0_0
  6
CONTINUOUS
 62
    7
 10
94.003766584983651
 20
-72.427399468389467
 40
106.617248
 50
17.609867000000005
 51
62.930712999999997
  0
ARC
  8
_0-0_0
  6
CONTINUOUS
 62
    7
 10
94.003766584983651
 20
-72.427399468389467
 40
112.617248
 50
16.643488999999999
 51
63.328367000000007
  0
ARC
  8
_0-0_0
  6
CONTINUOUS
 62
    7
 10
67.370115584983637
 20
156.27554453161054
 40
142.567992
 50
302.42476599999998
 51
327.73321299999998
  0
ARC
  8
_0-0_0
  6
CONTINUOUS
 62
    7
 10
67.370115584983637
 20
156.27554453161054
 40
136.567992
 50
302.648168
 51
327.608521
  0
LINE
  8
_0-0_0
  6
CONTINUOUS
 62
    7
 10
193.82661558498364
 20
-52.172053468389464
 11
193.82661558498364
 21
-56.172047468389451
  0
ARC
  8
_0-0_0
  6
CONTINUOUS
 62
    7
 10
195.82661658498364
 20
-56.172047468389451
 40
2
 50
180.00000500000002
 51
270.00000100000005
  0
LINE
  8
_0-0_0
  6
CONTINUOUS
 62
    7
 10
193.82661558498364
 20
-52.172053468389464
 11
209.99999758498365
 21
-52.172053468389464
  0
LINE
  8
_0-0_0
  6
CONTINUOUS
 62
    7
 10
195.82661658498364
 20
-58.172053468389464
 11
209.99999758498365
 21
-58.172053468389464
  0
ARC
  8
_0-0_0
  6
CONTINUOUS
 62
    7
 10
178.67324358498365
 20
-49.742958468389446
 40
25.076584
 50
305.04471799999999
 51
340.35849000000002
  0
ARC
  8
_0-0_0
  6
CONTINUOUS
 62
    7
 10
178.67324358498365
 20
-49.742958468389446
 40
19.076592000000002
 50
304.4533330000001
 51
333.77768400000002
  0
LINE
  8
_0-0_0
  6
CONTINUOUS
 62
    7
 10
178.31485558498366
 20
-74.000000468389459
 11
184.90276158498366
 21
-74.000000468389459
  0
ARC
  8
_0-0_0
  6
CONTINUOUS
 62
    7
 10
181.60880858498365
 20
-55.960395468389464
 40
18.337862000000001
 50
280.34795600000001
 51
308.69277599999998
  0
ARC
  8
_0-0_0
  6
CONTINUOUS
 62
    7
 10
181.60880858498365
 20
-55.960395468389464
 40
12.337866
 50
148.01604599999999
 51
309.55343499999998
  0
ARC
  8
_0-0_0
  6
CONTINUOUS
 62
    7
 10
181.79565658498365
 20
-51.103596468389469
 40
5.4465180000000002
 50
243.81250900000003
 51
51.251434000000017
  0
ARC
  8
_0-0_0
  6
CONTINUOUS
 62
    7
 10
179.73814158498365
 20
-51.753108468389456
 40
4.2520530000000001
 50
265.33137499999998
 51
73.838456999999991
  0
ARC
  8
_0-0_0
  6
CONTINUOUS
 62
    7
 10
178.07822158498365
 20
-59.935615468389443
 40
12.591766
 50
76.94895200000002
 51
123.41534400000002
  0
ARC
  8
_0-0_0
  6
CONTINUOUS
 62
    7
 10
193.82661558498364
 20
-49.172053468389464
 40
3
 50
90.000003000000007
 51
270.00000100000005
  0
ARC
  8
_0-0_0
  6
CONTINUOUS
 62
    7
 10
181.60880858498365
 20
-55.960395468389464
 40
18.337862000000001
 50
155.9738449999999
 51
259.65204599999998
  0
LINE
  8
_0-0_0
  6
CONTINUOUS
 62
    7
 10
147.79447058498366
 20
156.95162053161056
 11
147.79447058498366
 21
148.49999853161054
  0
LINE
  8
_0-0_0
  6
CONTINUOUS
 62
    7
 10
143.79446858498366
 20
148.49999853161054
 11
143.79446858498366
 21
156.95162053161056
  0
ARC
  8
_0-0_0
  6
CONTINUOUS
 62
    7
 10
145.60248358498364
 20
195.53085653161054
 40
41.3795
 50
280.00915099999997
 51
26.329653999999998
  0
LINE
  8
_0-0_0
  6
CONTINUOUS
 62
    7
 10
138.79447158498365
 20
155.45162053161053
 11
138.79447158498365
 21
148.49999853161054
  0
LINE
  8
_0-0_0
  6
CONTINUOUS
 62
    7
 10
152.79446758498364
 20
148.49999853161054
 11
152.79446758498364
 21
155.45162053161053
  0
ARC
  8
_0-0_0
  6
CONTINUOUS
 62
    7
 10
145.60248358498364
 20
195.53085653161054
 40
47.3795
 50
278.730977
 51
26.722700000000007
  0
ARC
  8
_0-0_0
  6
CONTINUOUS
 62
    7
 10
145.60248358498364
 20
101.46914053161055
 40
41.3795
 50
333.67034100000001
 51
79.990844999999979
  0
ARC
  8
_0-0_0
  6
CONTINUOUS
 62
    7
 10
145.60248358498364
 20
101.46914053161055
 40
47.3795
 50
333.27730500000001
 51
81.269018999999986
  0
LINE
  8
_0-0_0
  6
CONTINUOUS
 62
    7
 10
226.17337958498365
 20
349.17205053161058
 11
209.99999758498365
 21
349.17205053161058
  0
LINE
  8
_0-0_0
  6
CONTINUOUS
 62
    7
 10
226.17337958498365
 20
343.17205053161047
 11
209.99999758498365
 21
343.17205053161047
  0
LINE
  8
_0-0_0
  6
CONTINUOUS
 62
    7
 10
224.17337858498365
 20
355.17205053161058
 11
209.99999758498365
 21
355.17205053161058
  0
LINE
  8
_0-0_0
  6
CONTINUOUS
 62
    7
 10
209.99999758498365
 20
337.17205153161058
 11
224.17337858498365
 21
337.17205153161058
  0
LINE
  8
_0-0_0
  6
CONTINUOUS
 62
    7
 10
226.17337958498365
 20
-52.172053468389464
 11
209.99999758498365
 21
-52.172053468389464
  0
LINE
  8
_0-0_0
  6
CONTINUOUS
 62
    7
 10
226.17337958498365
 20
-46.172053468389464
 11
209.99999758498365
 21
-46.172053468389464
  0
LINE
  8
_0-0_0
  6
CONTINUOUS
 62
    7
 10
224.17337858498365
 20
-58.172053468389464
 11
209.99999758498365
 21
-58.172053468389464
  0
LINE
  8
_0-0_0
  6
CONTINUOUS
 62
    7
 10
209.99999758498365
 20
-40.172053468389464
 11
224.17337858498365
 21
-40.172053468389464
  0
LINE
  8
_0-0_0
  6
CONTINUOUS
 62
    7
 10
195.82661658498364
 20
355.17205053161058
 11
224.17337858498365
 21
355.17205053161058
  0
LINE
  8
_0-0_0
  6
CONTINUOUS
 62
    7
 10
195.82661658498364
 20
337.17205153161058
 11
224.17337858498365
 21
337.17205153161058
  0
ENDSEC
  0
EOF
