  0
SECTION
  2
HEADER
  9
$ACADVER
  1
AC1009
  9
$INSBASE
 10
0
 20
0
 30
0
  9
$EXTMIN
 10
0
 20
0
  9
$EXTMAX
 10
420
 20
297
  9
$LIMMIN
 10
0
 20
0
  9
$LIMMAX
 10
420
 20
297
  9
$LTSCALE
 40
1
  0
ENDSEC
  0
SECTION
  2
TABLES
  0
TABLE
  2
LTYPE
 70
     9
  0
LTYPE
  2
CONTINUOUS
 70
    64
  3
実線
 72
    65
 73
     0
 40
0.0
  0
LTYPE
  2
DASHED1
 70
    64
  3
--  --  --  --  --  --  --  --  
 72
    65
 73
     2
 40
2.5
 49
1.25
 49
-1.25
  0
LTYPE
  2
DASHED2
 70
    64
  3
----    ----    ----    ----    
 72
    65
 73
     2
 40
5.0
 49
2.5
 49
-2.5
  0
LTYPE
  2
DASHED3
 70
    64
  3
------  ------  ------  ------  
 72
    65
 73
     2
 40
5.0
 49
3.75
 49
-1.25
  0
LTYPE
  2
CENTER1
 70
    64
  3
----- - ----- - ----- - ----- - 
 72
    65
 73
     4
 40
10.0
 49
6.25
 49
-1.25
 49
1.25
 49
-1.25
  0
LTYPE
  2
CENTER2
 70
    64
  3
----------  --  ----------  --  
 72
    65
 73
     4
 40
20.0
 49
12.5
 49
-2.5
 49
2.5
 49
-2.5
  0
LTYPE
  2
PHANTOM1
 70
    64
  3
--- - - --- - - --- - - --- - - 
 72
    65
 73
     6
 40
10.0
 49
3.25
 49
-1.25
 49
1.25
 49
-1.25
 49
1.25
 49
-1.25
  0
LTYPE
  2
PHANTOM2
 70
    64
  3
--------  -  -  --------  -  -  
 72
    65
 73
     6
 40
20.0
 49
10.0
 49
-2.5
 49
1.25
 49
-2.5
 49
1.25
 49
-2.5
  0
LTYPE
  2
DOT
 70
    64
  3
-   -   -   -   -   -   -   -   
 72
    65
 73
     2
 40
2.5
 49
0.625
 49
-1.875
  0
LTYPE
  2
DUMMY
 70
    64
  3
ダミー
 72
    65
 73
     0
 40
0.0
  0
LTYPE
  2
RAND1
 70
    64
  3
ランダム線1
 72
    65
 73
     4
 40
10.0
 49
1.0
 49
-2.0
 49
3.0
 49
-4.0
  0
LTYPE
  2
RAND2
 70
    64
  3
ランダム線2
 72
    65
 73
     4
 40
14.0
 49
2.0
 49
-3.0
 49
4.0
 49
-5.0
  0
LTYPE
  2
RAND3
 70
    64
  3
ランダム線3
 72
    65
 73
     4
 40
18.0
 49
3.0
 49
-4.0
 49
5.0
 49
-6.0
  0
LTYPE
  2
RAND4
 70
    64
  3
ランダム線4
 72
    65
 73
     4
 40
22.0
 49
4.0
 49
-5.0
 49
6.0
 49
-7.0
  0
LTYPE
  2
RAND5
 70
    64
  3
ランダム線5
 72
    65
 73
     4
 40
26.0
 49
5.0
 49
-6.0
 49
7.0
 49
-8.0
  0
LTYPE
  2
LONG1
 70
    64
  3
----------  --  ----------  --  
 72
    65
 73
     4
 40
40.0
 49
32.5
 49
-2.5
 49
2.5
 49
-2.5
  0
LTYPE
  2
LONG2
 70
    64
  3
--------  -  -  --------  -  -  
 72
    65
 73
     6
 40
40.0
 49
30.0
 49
-2.5
 49
1.25
 49
-2.5
 49
1.25
 49
-2.5
  0
LTYPE
  2
LONG3
 70
    64
  3
+++++++++++++++..+++++++++++++++
 72
    65
 73
     2
 40
40.0
 49
37.5
 49
-2.5
  0
LTYPE
  2
LONG4
 70
    64
  3
+++++++++++++++..+++++++++++++++
 72
    65
 73
     2
 40
80.0
 49
75.0
 49
-5.0
  0
LTYPE
  2
LONG5
 70
    64
  3
----------  --  ----------  --  
 72
    65
 73
     4
 40
60.0
 49
37.5
 49
-7.5
 49
7.5
 49
-7.5
  0
LTYPE
  2
dashed
 70
   64
  3
-------   -------------   ------
 72
   65
 73
    2
 40
7.5
 49
6
 49
-1.5
  0
LTYPE
  2
dashed_spaced
 70
   64
  3
----        --------        ----
 72
   65
 73
    2
 40
12
 49
6
 49
-6
  0
LTYPE
  2
long_dashed_dotted
 70
   64
  3
------------- --- --------------
 72
   65
 73
    4
 40
15.25
 49
12
 49
-1.5
 49
0.25
 49
-1.5
  0
LTYPE
  2
long_dashed_double-dotted
 70
   64
  3
----------- --- --- ------------
 72
   65
 73
    6
 40
17
 49
12
 49
-1.5
 49
0.25
 49
-1.5
 49
0.25
 49
-1.5
  0
LTYPE
  2
long_dashed_triplicate-dotted
 70
   64
  3
--------- --- --- --- ----------
 72
   65
 73
    8
 40
18.75
 49
12
 49
-1.5
 49
0.25
 49
-1.5
 49
0.25
 49
-1.5
 49
0.25
 49
-1.5
  0
LTYPE
  2
dotted
 70
   64
  3
   -       -       -       -    
 72
   65
 73
    2
 40
1.75
 49
0.25
 49
-1.5
  0
LTYPE
  2
chain
 70
   64
  3
-------------- -- --------------
 72
   65
 73
    4
 40
18.5
 49
12
 49
-1.5
 49
3.5
 49
-1.5
  0
LTYPE
  2
chain_double_dash
 70
   64
  3
------------ -- -- -------------
 72
   65
 73
    6
 40
23.5
 49
12
 49
-1.5
 49
3.5
 49
-1.5
 49
3.5
 49
-1.5
  0
LTYPE
  2
dashed_dotted
 70
   64
  3
-----------     -     ----------
 72
   65
 73
    4
 40
9.25
 49
6
 49
-1.5
 49
0.25
 49
-1.5
  0
LTYPE
  2
double-dashed_dotted
 70
   64
  3
------   -----------   -   -----
 72
   65
 73
    6
 40
16.75
 49
6
 49
-1.5
 49
6
 49
-1.5
 49
0.25
 49
-1.5
  0
LTYPE
  2
dashed_double-dotted
 70
   64
  3
---------    -    -    ---------
 72
   65
 73
    6
 40
11
 49
6
 49
-1.5
 49
0.25
 49
-1.5
 49
0.25
 49
-1.5
  0
LTYPE
  2
double-dashed_double-dotted
 70
   64
  3
-----   ---------   -   -   ----
 72
   65
 73
    8
 40
18.5
 49
6
 49
-1.5
 49
6
 49
-1.5
 49
0.25
 49
-1.5
 49
0.25
 49
-1.5
  0
LTYPE
  2
dashed_triplicate-dotted
 70
   64
  3
-------    -    -    -    ------
 72
   65
 73
    8
 40
12.75
 49
6
 49
-1.5
 49
0.25
 49
-1.5
 49
0.25
 49
-1.5
 49
0.25
 49
-1.5
  0
LTYPE
  2
double-dashed_triplicate-dotted
 70
   64
  3
-----  ---------  -  -  -  -----
 72
   65
 73
   10
 40
20.25
 49
6
 49
-1.5
 49
6
 49
-1.5
 49
0.25
 49
-1.5
 49
0.25
 49
-1.5
 49
0.25
 49
-1.5
  0
LTYPE
  2
undefined
 70
   64
  3
--------------------------------
 72
   65
 73
    0
 40
0
  0
LTYPE
  2
BORDER
 70
   64
  3
----     --------     -     ----
 72
   65
 73
    6
 40
1.76
 49
0.5
 49
-0.25
 49
0.5
 49
-0.25
 49
0.01
 49
-0.25
  0
LTYPE
  2
BORDER2
 70
   64
  3
----     --------     -     ----
 72
   65
 73
    6
 40
0.885
 49
0.25
 49
-0.125
 49
0.25
 49
-0.125
 49
0.01
 49
-0.125
  0
LTYPE
  2
BORDERX2
 70
   64
  3
----     --------     -     ----
 72
   65
 73
    6
 40
3.5099999999999998
 49
1
 49
-0.5
 49
1
 49
-0.5
 49
0.01
 49
-0.5
  0
LTYPE
  2
CENTER
 70
   64
  3
----------    ----    ----------
 72
   65
 73
    4
 40
2
 49
1.25
 49
-0.25
 49
0.25
 49
-0.25
  0
LTYPE
  2
CENTER2_21
 70
   64
  3
----------    ----    ----------
 72
   65
 73
    4
 40
1.125
 49
0.75
 49
-0.125
 49
0.125
 49
-0.125
  0
LTYPE
  2
CENTERX2
 70
   64
  3
----------    ----    ----------
 72
   65
 73
    4
 40
4
 49
2.5
 49
-0.5
 49
0.5
 49
-0.5
  0
LTYPE
  2
DASHDOT
 70
   64
  3
--------        -        -------
 72
   65
 73
    4
 40
1.01
 49
0.5
 49
-0.25
 49
0.01
 49
-0.25
  0
LTYPE
  2
DASHDOT2
 70
   64
  3
--------        -        -------
 72
   65
 73
    4
 40
0.51
 49
0.25
 49
-0.125
 49
0.01
 49
-0.125
  0
LTYPE
  2
DASHDOTX2
 70
   64
  3
--------        -        -------
 72
   65
 73
    4
 40
2.0099999999999998
 49
1
 49
-0.5
 49
0.01
 49
-0.5
  0
LTYPE
  2
DASHED
 70
   64
  3
------     -----------     -----
 72
   65
 73
    2
 40
0.75
 49
0.5
 49
-0.25
  0
LTYPE
  2
DASHED2_27
 70
   64
  3
------     -----------     -----
 72
   65
 73
    2
 40
0.375
 49
0.25
 49
-0.125
  0
LTYPE
  2
DASHEDX2
 70
   64
  3
------     -----------     -----
 72
   65
 73
    2
 40
1.5
 49
1
 49
-0.5
  0
LTYPE
  2
DIVIDE
 70
   64
  3
------      -      -      ------
 72
   65
 73
    6
 40
1.27
 49
0.5
 49
-0.25
 49
0.01
 49
-0.25
 49
0.01
 49
-0.25
  0
LTYPE
  2
DIVIDE2
 70
   64
  3
------      -      -      ------
 72
   65
 73
    6
 40
0.645
 49
0.25
 49
-0.125
 49
0.01
 49
-0.125
 49
0.01
 49
-0.125
  0
LTYPE
  2
DIVIDEX2
 70
   64
  3
------      -      -      ------
 72
   65
 73
    6
 40
2.5199999999999996
 49
1
 49
-0.5
 49
0.01
 49
-0.5
 49
0.01
 49
-0.5
  0
LTYPE
  2
DOT_32
 70
   64
  3
-               -               
 72
   65
 73
    2
 40
0.26
 49
0.01
 49
-0.25
  0
ENDTAB
  0
TABLE
  2
STYLE
  5
3
100
AcDbSymbolTable
 70
     1
  0
STYLE
  5
10
100
AcDbSymbolTableRecord
100
AcDbTextStyleTableRecord
  2
STANDARD
 70
     0
 40
0.0
 41
1.0
 50
0.0
 71
     0
 42
0.2
  3
txt
  4
bigfont.shx
  0
STYLE
  5
26
100
AcDbSymbolTableRecord
100
AcDbTextStyleTableRecord
  2
TATEGAKI
 70
    68
 40
0.0
 41
1.0
 50
0.0
 71
     0
 42
1.0
  3
txt
  4
bigfont.shx
  0
ENDTAB
  0
TABLE
  2
LAYER
 70
    2
  0
LAYER
  2
_0-0_0
 70
   64
 62
    7
  6
CONTINUOUS
  0
LAYER
  2
ADD_LINE
 70
   64
 62
    7
  6
CONTINUOUS
  0
ENDTAB
  0
ENDSEC
  0
SECTION
  2
BLOCKS
  0
ENDSEC
  0
SECTION
  2
ENTITIES
  0
ARC
  8
_0-0_0
  6
CONTINUOUS
 62
    7
 10
148.16711960611687
 20
199.68056068355867
 40
19.674337093914492
 50
94.169539294636635
 51
224.10541881955839
  0
ARC
  8
_0-0_0
  6
CONTINUOUS
 62
    7
 10
271.81845443349027
 20
199.68056068355867
 40
19.674337093914492
 50
315.89458254693238
 51
85.830458884130522
  0
LINE
  8
_0-0_0
  6
CONTINUOUS
 62
    7
 10
194.26457966597633
 20
151.0274547190933
 11
225.68827666934538
 21
151.0274547190933
  0
LINE
  8
_0-0_0
  6
CONTINUOUS
 62
    7
 10
225.68827666934538
 20
145.02745480850029
 11
194.26457966597633
 21
145.02745480850029
  0
ARC
  8
_0-0_0
  6
CONTINUOUS
 62
    7
 10
194.26457966597633
 20
148.02745476379681
 40
2.9999999552965169
 50
90.000002504478161
 51
270.00000068324522
  0
ARC
  8
_0-0_0
  6
CONTINUOUS
 62
    7
 10
225.68827666934538
 20
148.02745476379681
 40
2.9999999552965169
 50
270.00000068324528
 51
90.000002504478189
  0
ARC
  8
_0-0_0
  6
CONTINUOUS
 62
    7
 10
194.76457965852572
 20
154.52745466693926
 40
0.4999999925494195
 50
90.000002504478161
 51
180.00000500895629
  0
LINE
  8
_0-0_0
  6
CONTINUOUS
 62
    7
 10
194.26457966597633
 20
154.52745466693926
 11
194.26457966597633
 21
151.0274547190933
  0
LINE
  8
_0-0_0
  6
CONTINUOUS
 62
    7
 10
225.68827666934538
 20
151.0274547190933
 11
225.68827666934538
 21
154.52745466693926
  0
ARC
  8
_0-0_0
  6
CONTINUOUS
 62
    7
 10
225.18827667679597
 20
154.52745466693926
 40
0.4999999925494195
 50
0
 51
90.000002504478161
  0
LINE
  8
_0-0_0
  6
CONTINUOUS
 62
    7
 10
225.18827667679597
 20
155.02745465948865
 11
194.76457965852572
 21
155.02745465948865
  0
ARC
  8
_0-0_0
  6
CONTINUOUS
 62
    7
 10
225.18827667679597
 20
141.52745486065436
 40
0.4999999925494195
 50
270.00000068324528
 51
0.0000000000000127
  0
LINE
  8
_0-0_0
  6
CONTINUOUS
 62
    7
 10
225.68827666934538
 20
141.52745486065436
 11
225.68827666934538
 21
145.02745480850029
  0
LINE
  8
_0-0_0
  6
CONTINUOUS
 62
    7
 10
194.26457966597633
 20
145.02745480850029
 11
194.26457966597633
 21
141.52745486065436
  0
ARC
  8
_0-0_0
  6
CONTINUOUS
 62
    7
 10
194.76457965852572
 20
141.52745486065436
 40
0.4999999925494195
 50
180.00000500895632
 51
270.00000068324528
  0
LINE
  8
_0-0_0
  6
CONTINUOUS
 62
    7
 10
194.76457965852572
 20
141.02745486810494
 11
225.18827667679597
 21
141.02745486810494
  0
LINE
  8
_0-0_0
  6
CONTINUOUS
 62
    7
 10
194.26457966597633
 20
151.0274547190933
 11
225.68827666934538
 21
151.0274547190933
  0
LINE
  8
_0-0_0
  6
CONTINUOUS
 62
    7
 10
225.89557494506502
 20
191.16141103023045
 11
237.38615628629316
 21
222.64015506799655
  0
LINE
  8
_0-0_0
  6
CONTINUOUS
 62
    7
 10
236.16298888508618
 20
222.64015506799655
 11
225.03865853022174
 21
188.94636513428213
  0
LINE
  8
_0-0_0
  6
CONTINUOUS
 62
    7
 10
224.73503342793458
 20
108.22721197918111
 11
234.53531099186003
 21
74.359983022172202
  0
LINE
  8
_0-0_0
  6
CONTINUOUS
 62
    7
 10
235.75847839306698
 20
74.359983022172202
 11
225.45297279406753
 21
106.02148538851382
  0
ARC
  8
_0-0_0
  6
CONTINUOUS
 62
    7
 10
271.81845443349027
 20
199.68056068355867
 40
25.67433509715892
 50
313.2091707313366
 51
86.099984978968422
  0
ARC
  8
_0-0_0
  6
CONTINUOUS
 62
    7
 10
276.48788795766029
 20
193.96882981163881
 40
18.321317399720591
 50
183.91098498808404
 51
314.79568707174724
  0
ARC
  8
_0-0_0
  6
CONTINUOUS
 62
    7
 10
271.2094838004748
 20
193.43928880390459
 40
13.02016906410204
 50
49.25938918092907
 51
183.1704148971362
  0
ARC
  8
_0-0_0
  6
CONTINUOUS
 62
    7
 10
338.96317541781923
 20
146.14665645197914
 40
115.69885081501521
 50
152.72334403018689
 51
174.3098836944454
  0
ARC
  8
_0-0_0
  6
CONTINUOUS
 62
    7
 10
271.83985488483154
 20
177.6154059830582
 40
41.711207721960427
 50
88.064074176697261
 51
148.88498262231491
  0
ARC
  8
_0-0_0
  6
CONTINUOUS
 62
    7
 10
273.06741681722303
 20
199.25123940089355
 40
7.7788232597884051
 50
290.53900789487733
 51
31.401914237444124
  0
ARC
  8
_0-0_0
  6
CONTINUOUS
 62
    7
 10
277.55079229973194
 20
187.28471736241175
 40
4.999999925494194
 50
110.53889360289421
 51
261.28069047183379
  0
ARC
  8
_0-0_0
  6
CONTINUOUS
 62
    7
 10
278.26703984765277
 20
191.95497486117884
 40
9.7248753052223424
 50
261.28077243410382
 51
322.14833107175258
  0
LINE
  8
_0-0_0
  6
CONTINUOUS
 62
    7
 10
277.27120551190592
 20
193.92894333762379
 11
279.70691256789621
 21
199.89116248706105
  0
LINE
  8
_0-0_0
  6
CONTINUOUS
 62
    7
 10
275.57680856449815
 20
192.71919604119731
 11
276.63581428602242
 21
198.16298258117234
  0
LINE
  8
_0-0_0
  6
CONTINUOUS
 62
    7
 10
277.80069311387922
 20
199.37269936002116
 11
277.80069311387922
 21
202.78584628181753
  0
LINE
  8
_0-0_0
  6
CONTINUOUS
 62
    7
 10
274.41189921906368
 20
192.71919604119731
 11
274.20010723003213
 21
202.61305575704856
  0
LINE
  8
_0-0_0
  6
CONTINUOUS
 62
    7
 10
275.9474598040922
 20
200.23680457175436
 11
276.10629616647145
 21
203.30430940885748
  0
LINE
  8
_0-0_0
  6
CONTINUOUS
 62
    7
 10
273.72357525471114
 20
191.33665822000188
 11
271.18196838950786
 21
195.78673139587812
  0
LINE
  8
_0-0_0
  6
CONTINUOUS
 62
    7
 10
273.56470837475422
 20
194.74983565937595
 11
272.18801085498541
 21
203.95238068826296
  0
LINE
  8
_0-0_0
  6
CONTINUOUS
 62
    7
 10
271.81735580069414
 20
197.47169841178578
 11
268.7462765923064
 21
202.95869784174187
  0
LINE
  8
_0-0_0
  6
CONTINUOUS
 62
    7
 10
271.81735580069414
 20
192.02794238938844
 11
264.82798365142594
 21
199.89116248706105
  0
LINE
  8
_0-0_0
  6
CONTINUOUS
 62
    7
 10
270.12295885328638
 20
196.99644817472691
 11
266.57532859609159
 21
202.2674136723553
  0
LINE
  8
_0-0_0
  6
CONTINUOUS
 62
    7
 10
269.96412249090713
 20
190.68858694059639
 11
266.36353660706004
 21
190.81819509296193
  0
LINE
  8
_0-0_0
  6
CONTINUOUS
 62
    7
 10
263.98078517772205
 20
190.51576589824975
 11
260.90968689584827
 21
192.20076343173508
  0
LINE
  8
_0-0_0
  6
CONTINUOUS
 62
    7
 10
269.96412249090713
 20
191.50947926234852
 11
266.36353660706004
 21
193.06483812589059
  0
LINE
  8
_0-0_0
  6
CONTINUOUS
 62
    7
 10
269.43463107423662
 20
192.89201708354395
 11
264.66913203025786
 21
196.65080609003365
  0
LINE
  8
_0-0_0
  6
CONTINUOUS
 62
    7
 10
265.19863489101999
 20
197.47169841178578
 11
262.12752897975179
 21
199.89116248706105
  0
LINE
  8
_0-0_0
  6
CONTINUOUS
 62
    7
 10
264.82798365142594
 20
193.75612229527715
 11
260.06248842214438
 21
196.1323734805714
  0
ARC
  8
_0-0_0
  6
CONTINUOUS
 62
    7
 10
271.81845443349027
 20
96.374352658732136
 40
25.67433509715892
 50
273.90001137856592
 51
46.790829041292263
  0
ARC
  8
_0-0_0
  6
CONTINUOUS
 62
    7
 10
276.48788795766029
 20
102.08608353065198
 40
18.321317399720591
 50
45.204299040503336
 51
176.0890113694503
  0
ARC
  8
_0-0_0
  6
CONTINUOUS
 62
    7
 10
271.2094838004748
 20
102.61562453838621
 40
13.02016906410204
 50
176.82958146039809
 51
310.74060376151073
  0
ARC
  8
_0-0_0
  6
CONTINUOUS
 62
    7
 10
338.96317541781923
 20
149.90825307561445
 40
115.69885081501521
 50
185.69011266308891
 51
207.27665232734736
  0
ARC
  8
_0-0_0
  6
CONTINUOUS
 62
    7
 10
271.83985488483154
 20
118.43950354453538
 40
41.711207721960427
 50
211.11501373521938
 51
271.93592218083711
  0
ARC
  8
_0-0_0
  6
CONTINUOUS
 62
    7
 10
271.81845443349027
 20
96.374352658732136
 40
19.674337093914492
 50
274.16953064321456
 51
44.105400150223687
  0
ARC
  8
_0-0_0
  6
CONTINUOUS
 62
    7
 10
273.06741681722303
 20
96.80367394139725
 40
7.7788232597884051
 50
328.59805138423894
 51
69.461002123035399
  0
ARC
  8
_0-0_0
  6
CONTINUOUS
 62
    7
 10
277.55079229973194
 20
108.77019216518184
 40
4.999999925494194
 50
98.719312715889728
 51
249.46110275464008
  0
ARC
  8
_0-0_0
  6
CONTINUOUS
 62
    7
 10
278.26703984765277
 20
104.09993848111196
 40
9.7248753052223424
 50
37.851651625403399
 51
98.719237583808848
  0
LINE
  8
_0-0_0
  6
CONTINUOUS
 62
    7
 10
277.27120551190592
 20
102.1259661899698
 11
279.70691256789621
 21
96.163747040532513
  0
LINE
  8
_0-0_0
  6
CONTINUOUS
 62
    7
 10
275.57680856449815
 20
103.3357173010935
 11
276.63581428602242
 21
97.891930761118459
  0
LINE
  8
_0-0_0
  6
CONTINUOUS
 62
    7
 10
277.80069311387922
 20
96.682213982269644
 11
277.80069311387922
 21
93.269067060473247
  0
LINE
  8
_0-0_0
  6
CONTINUOUS
 62
    7
 10
274.41189921906368
 20
103.3357173010935
 11
274.20010723003213
 21
93.441857585242218
  0
LINE
  8
_0-0_0
  6
CONTINUOUS
 62
    7
 10
275.9474598040922
 20
95.818104955839232
 11
276.10629616647145
 21
92.750600118736116
  0
LINE
  8
_0-0_0
  6
CONTINUOUS
 62
    7
 10
273.72356762531672
 20
104.71825130759173
 11
271.18196838950786
 21
100.26817813171549
  0
LINE
  8
_0-0_0
  6
CONTINUOUS
 62
    7
 10
273.56470837475422
 20
101.30507768291488
 11
272.18801085498541
 21
92.102528839330631
  0
LINE
  8
_0-0_0
  6
CONTINUOUS
 62
    7
 10
271.81735580069414
 20
98.583214930505022
 11
268.7462765923064
 21
93.096215500548936
  0
LINE
  8
_0-0_0
  6
CONTINUOUS
 62
    7
 10
271.81735580069414
 20
104.02696713820517
 11
264.82798365142594
 21
96.163747040532513
  0
LINE
  8
_0-0_0
  6
CONTINUOUS
 62
    7
 10
270.12295885328638
 20
99.058461352866658
 11
266.57532859609159
 21
93.787499669935499
  0
LINE
  8
_0-0_0
  6
CONTINUOUS
 62
    7
 10
269.96412249090713
 20
105.36632258699721
 11
266.36353660706004
 21
105.23671824932887
  0
LINE
  8
_0-0_0
  6
CONTINUOUS
 62
    7
 10
263.98078517772205
 20
105.53914744404108
 11
260.90968689584827
 21
103.85414991055573
  0
LINE
  8
_0-0_0
  6
CONTINUOUS
 62
    7
 10
269.96412249090713
 20
104.54543407994231
 11
266.36353660706004
 21
102.99007521640021
  0
LINE
  8
_0-0_0
  6
CONTINUOUS
 62
    7
 10
269.43463107423662
 20
103.16289244404965
 11
264.66913203025786
 21
99.404103437559939
  0
LINE
  8
_0-0_0
  6
CONTINUOUS
 62
    7
 10
265.19863489101999
 20
98.583214930505022
 11
262.12752897975179
 21
96.163747040532513
  0
LINE
  8
_0-0_0
  6
CONTINUOUS
 62
    7
 10
264.82798365142594
 20
102.29879104701365
 11
260.06248842214438
 21
99.922536047022191
  0
ARC
  8
_0-0_0
  6
CONTINUOUS
 62
    7
 10
307.99637900426046
 20
147.93138542929086
 40
84.717581440246377
 50
173.43445834852488
 51
175.19518549390577
  0
ARC
  8
_0-0_0
  6
CONTINUOUS
 62
    7
 10
271.83985488483154
 20
177.6154059830582
 40
47.711207632553453
 50
87.92819439334906
 51
126.77863824146172
  0
ARC
  8
_0-0_0
  6
CONTINUOUS
 62
    7
 10
338.96317541781923
 20
146.14665645197914
 40
121.6988507256083
 50
158.29138254347299
 51
175.81520274600294
  0
ARC
  8
_0-0_0
  6
CONTINUOUS
 62
    7
 10
271.83985488483154
 20
118.43950354453538
 40
47.711207632553453
 50
230.02836762249666
 51
272.07181562456356
  0
ARC
  8
_0-0_0
  6
CONTINUOUS
 62
    7
 10
338.96317541781923
 20
149.90825307561445
 40
121.6988507256083
 50
184.18479361153143
 51
201.13812909382514
  0
ARC
  8
_0-0_0
  6
CONTINUOUS
 62
    7
 10
232.67654064907447
 20
222.18970799218917
 40
12.35930042923539
 50
304.24943786114068
 51
354.16123646630558
  0
ARC
  8
_0-0_0
  6
CONTINUOUS
 62
    7
 10
252.26897428656778
 20
218.38434916217471
 40
7.729326609830161
 50
112.3203298818386
 51
160.75179426743
  0
ARC
  8
_0-0_0
  6
CONTINUOUS
 62
    7
 10
232.47437314110067
 20
256.71540327849749
 40
35.44681114782675
 50
298.39957208232153
 51
43.803376015314917
  0
ARC
  8
_0-0_0
  6
CONTINUOUS
 62
    7
 10
275.58269082759409
 20
298.1139088261624
 40
24.320775623309981
 50
201.42930005814281
 51
223.89559540825559
  0
ARC
  8
_0-0_0
  6
CONTINUOUS
 62
    7
 10
256.7219351882311
 20
290.94101159417971
 40
4.1487469054945274
 50
52.933952407220481
 51
204.383343213795
  0
ARC
  8
_0-0_0
  6
CONTINUOUS
 62
    7
 10
259.88225923781829
 20
295.28184710078528
 40
1.2234968956783869
 50
237.36942762166967
 51
357.0139332750532
  0
ARC
  8
_0-0_0
  6
CONTINUOUS
 62
    7
 10
253.58527752012716
 20
295.89494523618072
 40
7.5492204494890496
 50
354.85616723321948
 51
89.880569816651359
  0
ARC
  8
_0-0_0
  6
CONTINUOUS
 62
    7
 10
252.9519424160392
 20
292.29812827317591
 40
11.164909196422849
 50
86.66723901972712
 51
232.27954333141946
  0
ARC
  8
_0-0_0
  6
CONTINUOUS
 62
    7
 10
245.1357727937397
 20
282.98329381725119
 40
1.0975395277509159
 50
263.21732230909919
 51
26.128840858559588
  0
ARC
  8
_0-0_0
  6
CONTINUOUS
 62
    7
 10
244.91195687910607
 20
280.64699014112728
 40
1.2500061802565119
 50
85.678432533584385
 51
198.78650862296811
  0
ARC
  8
_0-0_0
  6
CONTINUOUS
 62
    7
 10
242.12136472708562
 20
280.69906838742162
 40
1.6702337016130431
 50
289.65673869940844
 51
344.20489703393474
  0
ARC
  8
_0-0_0
  6
CONTINUOUS
 62
    7
 10
243.57320796717022
 20
274.57072680393628
 40
4.6415490412481271
 50
101.05467050633291
 51
161.3425100079877
  0
ARC
  8
_0-0_0
  6
CONTINUOUS
 62
    7
 10
236.82905409122549
 20
277.43350447123851
 40
2.7211792063537348
 50
283.33356813186407
 51
329.57821085089245
  0
ARC
  8
_0-0_0
  6
CONTINUOUS
 62
    7
 10
238.22285862062708
 20
270.67936944004708
 40
4.177199778300527
 50
100.56997296207221
 51
199.9937718795245
  0
ARC
  8
_0-0_0
  6
CONTINUOUS
 62
    7
 10
226.93014562361844
 20
250.3152340013088
 40
20.318570787927939
 50
25.630761266167461
 51
68.74077233543585
  0
ARC
  8
_0-0_0
  6
CONTINUOUS
 62
    7
 10
243.58648692815399
 20
257.72403973807701
 40
2.1611771261516641
 50
232.76631725318799
 51
39.696697456088074
  0
ARC
  8
_0-0_0
  6
CONTINUOUS
 62
    7
 10
236.70121977306201
 20
249.8234737547304
 40
8.3247097682251052
 50
47.932433689357332
 51
92.201679832485937
  0
ARC
  8
_0-0_0
  6
CONTINUOUS
 62
    7
 10
237.37379857468534
 20
254.91948197957521
 40
3.371896455110662
 50
107.11630630036841
 51
237.28476059671831
  0
ARC
  8
_0-0_0
  6
CONTINUOUS
 62
    7
 10
231.45741682690877
 20
244.18564882653351
 40
8.8949802980574901
 50
354.60667408321717
 51
62.596204384498137
  0
ARC
  8
_0-0_0
  6
CONTINUOUS
 62
    7
 10
192.50479594738715
 20
242.15949529227242
 40
47.823031666531683
 50
335.91083440024812
 51
1.4259740246299291
  0
LINE
  8
_0-0_0
  6
CONTINUOUS
 62
    7
 10
238.52195376997881
 20
211.94680729643164
 11
239.63231485267633
 21
211.97356739735122
  0
ARC
  8
_0-0_0
  6
CONTINUOUS
 62
    7
 10
206.63610095455721
 20
239.09271524763898
 40
34.87481256015878
 50
331.85135244818611
 51
11.641209643055987
  0
ARC
  8
_0-0_0
  6
CONTINUOUS
 62
    7
 10
234.2806971193113
 20
245.75035369823712
 40
6.523900411666923
 50
3.3346962148427428
 51
74.826778244429875
  0
ARC
  8
_0-0_0
  6
CONTINUOUS
 62
    7
 10
244.90440377863268
 20
257.74779004289888
 40
2.2334651614209231
 50
283.45550066892707
 51
42.163836916377598
  0
ARC
  8
_0-0_0
  6
CONTINUOUS
 62
    7
 10
229.27631792142142
 20
251.44146994644069
 40
18.964416221314419
 50
24.304678331262188
 51
69.69534591345851
  0
ARC
  8
_0-0_0
  6
CONTINUOUS
 62
    7
 10
225.90102042533053
 20
244.00969210308125
 40
21.053184195560451
 50
342.61089480619381
 51
30.579525310428714
  0
ARC
  8
_0-0_0
  6
CONTINUOUS
 62
    7
 10
220.87369200903265
 20
249.23939783569938
 40
27.84463840954545
 50
340.54080107254646
 51
15.576237864477648
  0
ARC
  8
_0-0_0
  6
CONTINUOUS
 62
    7
 10
199.83659057690443
 20
240.58704658523499
 40
44.139216718983391
 50
336.21114415767528
 51
7.5872405074277749
  0
ARC
  8
_0-0_0
  6
CONTINUOUS
 62
    7
 10
233.96474482299396
 20
246.31567656578974
 40
9.6251305099557261
 50
0.5912321135311463
 51
62.622295707127599
  0
ARC
  8
_0-0_0
  6
CONTINUOUS
 62
    7
 10
252.56473920525627
 20
294.23863422570543
 40
7.4882363157237117
 50
14.977368585598191
 51
114.3214865161932
  0
ARC
  8
_0-0_0
  6
CONTINUOUS
 62
    7
 10
253.71400829213474
 20
292.3704091558879
 40
9.6679705132846454
 50
115.96823829489412
 51
198.66827804843524
  0
ARC
  8
_0-0_0
  6
CONTINUOUS
 62
    7
 10
254.18762583878822
 20
291.71324363833662
 40
7.7413162031573624
 50
58.194953426746991
 51
234.3921208417045
  0
ARC
  8
_0-0_0
  6
CONTINUOUS
 62
    7
 10
255.4195250819061
 20
290.38693445399861
 40
6.5853818865808558
 50
57.753784678066701
 51
209.3666355718579
  0
ARC
  8
_0-0_0
  6
CONTINUOUS
 62
    7
 10
223.77579538986018
 20
256.67525740507233
 40
40.002662062605289
 50
315.43624953286769
 51
49.641271887613669
  0
ARC
  8
_0-0_0
  6
CONTINUOUS
 62
    7
 10
221.62641187696664
 20
251.93529012951188
 40
35.684096758304591
 50
328.5759488920848
 51
50.436077095665958
  0
ARC
  8
_0-0_0
  6
CONTINUOUS
 62
    7
 10
217.48013737210056
 20
248.32802089615501
 40
34.492946110770909
 50
330.66557696675852
 51
50.481344174390166
  0
ARC
  8
_0-0_0
  6
CONTINUOUS
 62
    7
 10
231.04886275584829
 20
74.810452986162801
 40
12.35930042923539
 50
5.8386821978269108
 51
55.750517515258629
  0
ARC
  8
_0-0_0
  6
CONTINUOUS
 62
    7
 10
250.64129639334163
 20
78.615811816177285
 40
7.729326609830161
 50
199.248311373131
 51
247.67968013607401
  0
ARC
  8
_0-0_0
  6
CONTINUOUS
 62
    7
 10
230.84669524787449
 20
40.284719552882393
 40
35.44681114782675
 50
316.1966408327869
 51
61.60045159596951
  0
ARC
  8
_0-0_0
  6
CONTINUOUS
 62
    7
 10
273.95501293436791
 20
-1.1137783653881002
 40
24.320775623309981
 50
136.10437362852201
 51
158.57065531825651
  0
ARC
  8
_0-0_0
  6
CONTINUOUS
 62
    7
 10
255.09425729500489
 20
6.059134125383423
 40
4.1487469054945274
 50
155.6166668041177
 51
307.06628983712397
  0
ARC
  8
_0-0_0
  6
CONTINUOUS
 62
    7
 10
258.25458134459211
 20
1.7183291363555213
 40
1.2234968956783869
 50
2.9853619208742099
 51
122.63058239624291
  0
ARC
  8
_0-0_0
  6
CONTINUOUS
 62
    7
 10
251.95759962690101
 20
1.1052157421713105
 40
7.5492204494890496
 50
270.11941971069382
 51
5.1438265629940041
  0
ARC
  8
_0-0_0
  6
CONTINUOUS
 62
    7
 10
251.32426452281302
 20
4.7020174463872877
 40
11.164909196422849
 50
127.7204803468714
 51
273.33275050761802
  0
ARC
  8
_0-0_0
  6
CONTINUOUS
 62
    7
 10
243.50809490051353
 20
14.016836643523106
 40
1.0975395277509159
 50
333.87169508391918
 51
96.78257159559756
  0
ARC
  8
_0-0_0
  6
CONTINUOUS
 62
    7
 10
243.28427898587989
 20
16.353140319647025
 40
1.2500061802565119
 50
161.21223097975894
 51
274.32162529565255
  0
ARC
  8
_0-0_0
  6
CONTINUOUS
 62
    7
 10
240.49368301916223
 20
16.301077332141574
 40
1.6702337016130431
 50
15.795592804767161
 51
70.343325960017594
  0
ARC
  8
_0-0_0
  6
CONTINUOUS
 62
    7
 10
241.94553007394404
 20
22.429434174415704
 40
4.6415490412481271
 50
198.65756831181662
 51
258.94533951157968
  0
ARC
  8
_0-0_0
  6
CONTINUOUS
 62
    7
 10
235.20137619799934
 20
19.566641248324572
 40
2.7211792063537348
 50
30.421928940614428
 51
76.666476036994453
  0
ARC
  8
_0-0_0
  6
CONTINUOUS
 62
    7
 10
236.59518072740093
 20
26.320791538304903
 40
4.177199778300527
 50
160.00671625163
 51
259.4300370558405
  0
ARC
  8
_0-0_0
  6
CONTINUOUS
 62
    7
 10
225.30246582304366
 20
46.68492697704319
 40
20.318570787927939
 50
291.25921036172008
 51
334.36923338381962
  0
ARC
  8
_0-0_0
  6
CONTINUOUS
 62
    7
 10
241.95880903492781
 20
39.2761136108806
 40
2.1611771261516641
 50
320.30330573163542
 51
127.23369276472459
  0
ARC
  8
_0-0_0
  6
CONTINUOUS
 62
    7
 10
235.07354187983586
 20
47.176687223621599
 40
8.3247097682251052
 50
267.79833018542672
 51
312.06751827194739
  0
ARC
  8
_0-0_0
  6
CONTINUOUS
 62
    7
 10
235.74612068145916
 20
42.08067899877679
 40
3.371896455110662
 50
122.71557727027459
 51
252.88373786849013
  0
ARC
  8
_0-0_0
  6
CONTINUOUS
 62
    7
 10
229.82973893368262
 20
52.814504522424073
 40
8.8949802980574901
 50
297.403703180577
 51
5.3933222743171685
  0
ARC
  8
_0-0_0
  6
CONTINUOUS
 62
    7
 10
190.87711805416097
 20
54.840665686079575
 40
47.823031666531683
 50
358.57403044375411
 51
24.089132928982202
  0
ARC
  8
_0-0_0
  6
CONTINUOUS
 62
    7
 10
205.00842306133103
 20
57.907438101318604
 40
34.87481256015878
 50
348.35877220032631
 51
28.14861488104432
  0
ARC
  8
_0-0_0
  6
CONTINUOUS
 62
    7
 10
232.65301922608512
 20
51.24979202132603
 40
6.523900411666923
 50
285.17318396215865
 51
356.66523845754568
  0
ARC
  8
_0-0_0
  6
CONTINUOUS
 62
    7
 10
243.27672588540651
 20
39.252370935453101
 40
2.2334651614209231
 50
317.83602283737343
 51
76.544359084823796
  0
ARC
  8
_0-0_0
  6
CONTINUOUS
 62
    7
 10
227.64864002819522
 20
45.558683402516891
 40
18.964416221314419
 50
290.30465044407578
 51
335.69532827155592
  0
ARC
  8
_0-0_0
  6
CONTINUOUS
 62
    7
 10
224.27334157843006
 20
52.990453616481915
 40
21.053184195560451
 50
329.42048812257849
 51
17.389120334360772
  0
ARC
  8
_0-0_0
  6
CONTINUOUS
 62
    7
 10
219.24601316213216
 20
47.760732625074894
 40
27.84463840954545
 50
344.42381825721191
 51
19.459249926501339
  0
ARC
  8
_0-0_0
  6
CONTINUOUS
 62
    7
 10
198.20891268367825
 20
56.413114393117013
 40
44.139216718983391
 50
352.412735359539
 51
23.788824879102403
  0
ARC
  8
_0-0_0
  6
CONTINUOUS
 62
    7
 10
232.33706692976776
 20
50.684476783167852
 40
9.6251305099557261
 50
297.37769382021759
 51
359.40867956032957
  0
ARC
  8
_0-0_0
  6
CONTINUOUS
 62
    7
 10
250.9370613120301
 20
2.761542011435381
 40
7.4882363157237117
 50
245.67865327531368
 51
345.02252531909858
  0
ARC
  8
_0-0_0
  6
CONTINUOUS
 62
    7
 10
252.08633039890853
 20
4.6297518224640726
 40
9.6679705132846454
 50
161.33173196947749
 51
244.03184002491028
  0
ARC
  8
_0-0_0
  6
CONTINUOUS
 62
    7
 10
252.55994794556204
 20
5.2869325988041851
 40
7.7413162031573624
 50
125.60798479885651
 51
301.8049404779498
  0
ARC
  8
_0-0_0
  6
CONTINUOUS
 62
    7
 10
253.79184718867992
 20
6.6132112655644733
 40
6.5853818865808558
 50
150.63345640832469
 51
302.24622533984598
  0
ARC
  8
_0-0_0
  6
CONTINUOUS
 62
    7
 10
222.14811654295971
 20
40.324880685096502
 40
40.002662062605289
 50
310.35871422463691
 51
44.563774145423295
  0
ARC
  8
_0-0_0
  6
CONTINUOUS
 62
    7
 10
219.99873303006615
 20
45.064870848840101
 40
35.684096758304591
 50
309.5638987713009
 51
31.424037220165783
  0
ARC
  8
_0-0_0
  6
CONTINUOUS
 62
    7
 10
215.85245852520006
 20
48.672117194013722
 40
34.492946110770909
 50
309.51865559823869
 51
29.334436466248761
  0
ARC
  8
_0-0_0
  6
CONTINUOUS
 62
    7
 10
225.1409858754987
 20
82.165616450781073
 40
13.17796019944608
 50
11.268416210609409
 51
12.538862132083052
  0
LINE
  8
_0-0_0
  6
CONTINUOUS
 62
    7
 10
237.77664395137288
 20
85.032067671495355
 11
238.00463695945012
 21
85.026574507514709
  0
LINE
  8
_0-0_0
  6
CONTINUOUS
 62
    7
 10
225.89557494506502
 20
191.16141103023045
 11
236.16298888508618
 21
222.64015506799655
  0
ARC
  8
_0-0_0
  6
CONTINUOUS
 62
    7
 10
363.76357482853797
 20
148.90933342468611
 40
140.32050877331929
 50
183.22002939126713
 51
184.28007475045314
  0
LINE
  8
_0-0_0
  6
CONTINUOUS
 62
    7
 10
194.08999909454215
 20
191.16141103023045
 11
182.59941775331396
 21
222.64015506799655
  0
LINE
  8
_0-0_0
  6
CONTINUOUS
 62
    7
 10
183.82258515452094
 20
222.64015506799655
 11
194.94691646305967
 21
188.94636513428213
  0
LINE
  8
_0-0_0
  6
CONTINUOUS
 62
    7
 10
195.25053965799825
 20
108.22721197918111
 11
185.45026304774711
 21
74.359983022172202
  0
LINE
  8
_0-0_0
  6
CONTINUOUS
 62
    7
 10
184.22709564654014
 20
74.359983022172202
 11
194.53260124553964
 21
106.02148538851382
  0
ARC
  8
_0-0_0
  6
CONTINUOUS
 62
    7
 10
148.16711960611687
 20
199.68056068355867
 40
25.67433509715892
 50
93.900013199798764
 51
226.79084429553231
  0
ARC
  8
_0-0_0
  6
CONTINUOUS
 62
    7
 10
143.49768608194688
 20
193.96882981163881
 40
18.321317399720591
 50
225.2043142947434
 51
356.08901637840671
  0
ARC
  8
_0-0_0
  6
CONTINUOUS
 62
    7
 10
148.77609023913237
 20
193.43928880390459
 40
13.02016906410204
 50
356.82957280897608
 51
130.74059875255432
  0
ARC
  8
_0-0_0
  6
CONTINUOUS
 62
    7
 10
81.022398621787943
 20
146.14665645197914
 40
115.69885081501521
 50
5.6901123498876158
 51
27.276659271222108
  0
ARC
  8
_0-0_0
  6
CONTINUOUS
 62
    7
 10
148.14571915477563
 20
177.6154059830582
 40
41.711207721960427
 50
31.115015556452295
 51
91.935924002069882
  0
ARC
  8
_0-0_0
  6
CONTINUOUS
 62
    7
 10
146.91815722238414
 20
199.25123940089355
 40
7.7788232597884051
 50
148.59807369603931
 51
249.46099347161331
  0
ARC
  8
_0-0_0
  6
CONTINUOUS
 62
    7
 10
142.43478173987523
 20
187.28471736241175
 40
4.999999925494194
 50
278.71931089465693
 51
69.461104575872923
  0
ARC
  8
_0-0_0
  6
CONTINUOUS
 62
    7
 10
141.7185341919544
 20
191.95497486117884
 40
9.7248753052223424
 50
217.85168395511639
 51
278.71922893238678
  0
LINE
  8
_0-0_0
  6
CONTINUOUS
 62
    7
 10
142.71436852770125
 20
193.92894333762379
 11
140.27866147171096
 21
199.89116248706105
  0
LINE
  8
_0-0_0
  6
CONTINUOUS
 62
    7
 10
144.40876547510902
 20
192.71919604119731
 11
143.34975975358475
 21
198.16298258117234
  0
LINE
  8
_0-0_0
  6
CONTINUOUS
 62
    7
 10
142.18488092572795
 20
199.37269936002116
 11
142.18488092572795
 21
202.78584628181753
  0
LINE
  8
_0-0_0
  6
CONTINUOUS
 62
    7
 10
145.57367482054349
 20
192.71919604119731
 11
145.78546680957504
 21
202.61305575704856
  0
LINE
  8
_0-0_0
  6
CONTINUOUS
 62
    7
 10
144.03811423551497
 20
200.23680457175436
 11
143.87927787313572
 21
203.30430940885748
  0
LINE
  8
_0-0_0
  6
CONTINUOUS
 62
    7
 10
146.26200259959325
 20
191.33665822000188
 11
148.80360565009931
 21
195.78673139587812
  0
LINE
  8
_0-0_0
  6
CONTINUOUS
 62
    7
 10
146.42086566485295
 20
194.74983565937595
 11
147.79756318462177
 21
203.95238068826296
  0
LINE
  8
_0-0_0
  6
CONTINUOUS
 62
    7
 10
148.16821823891303
 20
197.47169841178578
 11
151.23929744730077
 21
202.95869784174187
  0
LINE
  8
_0-0_0
  6
CONTINUOUS
 62
    7
 10
148.16821823891303
 20
192.02794238938844
 11
155.15759038818123
 21
199.89116248706105
  0
LINE
  8
_0-0_0
  6
CONTINUOUS
 62
    7
 10
149.8626151863208
 20
196.99644817472691
 11
153.41024544351558
 21
202.2674136723553
  0
LINE
  8
_0-0_0
  6
CONTINUOUS
 62
    7
 10
150.02145154870004
 20
190.68858694059639
 11
153.62203743254713
 21
190.81819509296193
  0
LINE
  8
_0-0_0
  6
CONTINUOUS
 62
    7
 10
156.00478886188512
 20
190.51576589824975
 11
159.07588714375891
 21
192.20076343173508
  0
LINE
  8
_0-0_0
  6
CONTINUOUS
 62
    7
 10
150.02145154870004
 20
191.50947926234852
 11
153.62203743254713
 21
193.06483812589059
  0
LINE
  8
_0-0_0
  6
CONTINUOUS
 62
    7
 10
150.55094296537055
 20
192.89201708354395
 11
155.31644200934932
 21
196.65080609003365
  0
LINE
  8
_0-0_0
  6
CONTINUOUS
 62
    7
 10
154.78693914858715
 20
197.47169841178578
 11
157.85804505985539
 21
199.89116248706105
  0
LINE
  8
_0-0_0
  6
CONTINUOUS
 62
    7
 10
155.15759038818123
 20
193.75612229527715
 11
159.92308561746276
 21
196.1323734805714
  0
ARC
  8
_0-0_0
  6
CONTINUOUS
 62
    7
 10
148.16711960611687
 20
96.374352658732136
 40
25.67433509715892
 50
133.20916572238031
 51
266.09998998792474
  0
ARC
  8
_0-0_0
  6
CONTINUOUS
 62
    7
 10
143.49768608194688
 20
102.08608353065198
 40
18.321317399720591
 50
3.9109842479958719
 51
134.79569572316916
  0
ARC
  8
_0-0_0
  6
CONTINUOUS
 62
    7
 10
148.77609023913237
 20
102.61562453838621
 40
13.02016906410204
 50
229.25942492573674
 51
3.1704141570480955
  0
ARC
  8
_0-0_0
  6
CONTINUOUS
 62
    7
 10
81.022398621787943
 20
149.90825307561445
 40
115.69885081501521
 50
332.72334903914327
 51
354.30988870340178
  0
ARC
  8
_0-0_0
  6
CONTINUOUS
 62
    7
 10
148.14571915477563
 20
118.43950354453538
 40
41.711207721960427
 50
268.06407918565361
 51
328.88500129164947
  0
ARC
  8
_0-0_0
  6
CONTINUOUS
 62
    7
 10
148.16711960611687
 20
96.374352658732136
 40
19.674337093914492
 50
135.89459119835419
 51
265.83047072327611
  0
ARC
  8
_0-0_0
  6
CONTINUOUS
 62
    7
 10
146.91815722238414
 20
96.80367394139725
 40
7.7788232597884051
 50
110.5389960557318
 51
211.40194998225169
  0
ARC
  8
_0-0_0
  6
CONTINUOUS
 62
    7
 10
142.43478173987523
 20
108.77019216518184
 40
4.999999925494194
 50
290.53889861185058
 51
81.280685462877472
  0
ARC
  8
_0-0_0
  6
CONTINUOUS
 62
    7
 10
141.7185341919544
 20
104.09993848111196
 40
9.7248753052223424
 50
81.280760594958295
 51
142.14833972317459
  0
LINE
  8
_0-0_0
  6
CONTINUOUS
 62
    7
 10
142.71436852770125
 20
102.1259661899698
 11
140.27866147171096
 21
96.163747040532513
  0
LINE
  8
_0-0_0
  6
CONTINUOUS
 62
    7
 10
144.40876547510902
 20
103.3357173010935
 11
143.34975975358475
 21
97.891930761118459
  0
LINE
  8
_0-0_0
  6
CONTINUOUS
 62
    7
 10
142.18488092572795
 20
96.682213982269644
 11
142.18488092572795
 21
93.269067060473247
  0
LINE
  8
_0-0_0
  6
CONTINUOUS
 62
    7
 10
145.57367482054349
 20
103.3357173010935
 11
145.78546680957504
 21
93.441857585242218
  0
LINE
  8
_0-0_0
  6
CONTINUOUS
 62
    7
 10
144.03811423551497
 20
95.818104955839232
 11
143.87927787313572
 21
92.750600118736116
  0
LINE
  8
_0-0_0
  6
CONTINUOUS
 62
    7
 10
146.26200259959325
 20
104.71825130759173
 11
148.80360565009931
 21
100.26817813171549
  0
LINE
  8
_0-0_0
  6
CONTINUOUS
 62
    7
 10
146.42086566485295
 20
101.30507768291488
 11
147.79756318462177
 21
92.102528839330631
  0
LINE
  8
_0-0_0
  6
CONTINUOUS
 62
    7
 10
148.16821823891303
 20
98.583214930505022
 11
151.23929744730077
 21
93.096215500548936
  0
LINE
  8
_0-0_0
  6
CONTINUOUS
 62
    7
 10
148.16821823891303
 20
104.02696713820517
 11
155.15759038818123
 21
96.163747040532513
  0
LINE
  8
_0-0_0
  6
CONTINUOUS
 62
    7
 10
149.8626151863208
 20
99.058461352866658
 11
153.41024544351558
 21
93.787499669935499
  0
LINE
  8
_0-0_0
  6
CONTINUOUS
 62
    7
 10
150.02145154870004
 20
105.36632258699721
 11
153.62203743254713
 21
105.23671824932887
  0
LINE
  8
_0-0_0
  6
CONTINUOUS
 62
    7
 10
156.00478886188512
 20
105.53914744404108
 11
159.07588714375891
 21
103.85414991055573
  0
LINE
  8
_0-0_0
  6
CONTINUOUS
 62
    7
 10
150.02145154870004
 20
104.54543407994231
 11
153.62203743254713
 21
102.99007521640021
  0
LINE
  8
_0-0_0
  6
CONTINUOUS
 62
    7
 10
150.55094296537055
 20
103.16289244404965
 11
155.31644200934932
 21
99.404103437559939
  0
LINE
  8
_0-0_0
  6
CONTINUOUS
 62
    7
 10
154.78693914858715
 20
98.583214930505022
 11
157.85804505985539
 21
96.163747040532513
  0
LINE
  8
_0-0_0
  6
CONTINUOUS
 62
    7
 10
155.15759038818123
 20
102.29879104701365
 11
159.92308561746276
 21
99.922536047022191
  0
ARC
  8
_0-0_0
  6
CONTINUOUS
 62
    7
 10
111.98919503534665
 20
147.93138542929086
 40
84.717581440246377
 50
4.8048084159931284
 51
6.5655428184500284
  0
ARC
  8
_0-0_0
  6
CONTINUOUS
 62
    7
 10
148.14571915477563
 20
177.6154059830582
 40
47.711207632553453
 50
53.221356522210861
 51
92.07180378541814
  0
ARC
  8
_0-0_0
  6
CONTINUOUS
 62
    7
 10
81.022398621787943
 20
146.14665645197914
 40
121.6988507256083
 50
4.1847967134247508
 51
21.708613927746839
  0
ARC
  8
_0-0_0
  6
CONTINUOUS
 62
    7
 10
148.14571915477563
 20
118.43950354453538
 40
47.711207632553453
 50
267.928185741927
 51
309.97163374399389
  0
ARC
  8
_0-0_0
  6
CONTINUOUS
 62
    7
 10
81.022398621787943
 20
149.90825307561445
 40
121.6988507256083
 50
338.86188593304382
 51
355.8152077549592
  0
ARC
  8
_0-0_0
  6
CONTINUOUS
 62
    7
 10
187.3090333905327
 20
222.18970799218917
 40
12.35930042923539
 50
185.83875123980673
 51
235.75056350534999
  0
ARC
  8
_0-0_0
  6
CONTINUOUS
 62
    7
 10
167.71659975303936
 20
218.38434916217471
 40
7.729326609830161
 50
19.248200496242539
 51
67.679654636550183
  0
ARC
  8
_0-0_0
  6
CONTINUOUS
 62
    7
 10
187.5112008985065
 20
256.71540327849749
 40
35.44681114782675
 50
136.19662216345219
 51
241.60042928416919
  0
ARC
  8
_0-0_0
  6
CONTINUOUS
 62
    7
 10
144.40288321201308
 20
298.1139088261624
 40
24.320775623309981
 50
316.10440595823502
 51
338.57070130834791
  0
ARC
  8
_0-0_0
  6
CONTINUOUS
 62
    7
 10
163.26363885137607
 20
290.94101159417971
 40
4.1487469054945274
 50
335.61667181307411
 51
127.06605260173585
  0
ARC
  8
_0-0_0
  6
CONTINUOUS
 62
    7
 10
160.10331480178888
 20
295.28184710078528
 40
1.2234968956783869
 50
182.98608175181579
 51
302.63057374482088
  0
ARC
  8
_0-0_0
  6
CONTINUOUS
 62
    7
 10
166.40029651947998
 20
295.89494523618072
 40
7.5492204494890496
 50
90.119428362115841
 51
185.14382047289294
  0
ARC
  8
_0-0_0
  6
CONTINUOUS
 62
    7
 10
167.03363162356794
 20
292.29812827317591
 40
11.164909196422849
 50
307.72045803507109
 51
93.332765989229202
  0
ARC
  8
_0-0_0
  6
CONTINUOUS
 62
    7
 10
174.84980124586744
 20
282.98329381725119
 40
1.0975395277509159
 50
153.87115732020749
 51
276.78267905739148
  0
ARC
  8
_0-0_0
  6
CONTINUOUS
 62
    7
 10
175.0736171605011
 20
280.64699014112728
 40
1.2500061802565119
 50
341.21349274352258
 51
94.321565645182758
  0
ARC
  8
_0-0_0
  6
CONTINUOUS
 62
    7
 10
177.86421121987013
 20
280.69906838742162
 40
1.6702337016130431
 50
195.79507701179929
 51
250.34320802556891
  0
ARC
  8
_0-0_0
  6
CONTINUOUS
 62
    7
 10
176.41236607243695
 20
274.57072680393628
 40
4.6415490412481271
 50
18.657477925495641
 51
78.945307181866696
  0
ARC
  8
_0-0_0
  6
CONTINUOUS
 62
    7
 10
183.15651994838163
 20
277.43350447123851
 40
2.7211792063537348
 50
210.42179051559819
 51
256.6664332346266
  0
ARC
  8
_0-0_0
  6
CONTINUOUS
 62
    7
 10
181.76271541898006
 20
270.67936944004708
 40
4.177199778300527
 50
340.00621582658778
 51
79.430032046884151
  0
ARC
  8
_0-0_0
  6
CONTINUOUS
 62
    7
 10
193.05542841598873
 20
250.3152340013088
 40
20.318570787927939
 50
111.25923267352051
 51
154.3692420352416
  0
ARC
  8
_0-0_0
  6
CONTINUOUS
 62
    7
 10
176.39908711145318
 20
257.72403973807701
 40
2.1611771261516641
 50
140.30330072267901
 51
307.23368411330262
  0
ARC
  8
_0-0_0
  6
CONTINUOUS
 62
    7
 10
183.28435426654511
 20
249.8234737547304
 40
8.3247097682251052
 50
87.798318346281235
 51
132.06756790450439
  0
ARC
  8
_0-0_0
  6
CONTINUOUS
 62
    7
 10
182.61177546492183
 20
254.91948197957521
 40
3.371896455110662
 50
302.71524076977244
 51
72.883691878398835
  0
ARC
  8
_0-0_0
  6
CONTINUOUS
 62
    7
 10
188.52815721269837
 20
244.18564882653351
 40
8.8949802980574901
 50
117.40379379426899
 51
185.39332728327346
  0
ARC
  8
_0-0_0
  6
CONTINUOUS
 62
    7
 10
227.48077809222002
 20
242.15949529227242
 40
47.823031666531683
 50
178.57402543479773
 51
204.08915330586422
  0
LINE
  8
_0-0_0
  6
CONTINUOUS
 62
    7
 10
181.46362026962831
 20
211.94680729643164
 11
180.35325918693084
 21
211.97356739735122
  0
ARC
  8
_0-0_0
  6
CONTINUOUS
 62
    7
 10
213.34947308504996
 20
239.09271524763898
 40
34.87481256015878
 50
168.35879451212659
 51
208.14863525792623
  0
ARC
  8
_0-0_0
  6
CONTINUOUS
 62
    7
 10
185.70487692029587
 20
245.75035369823712
 40
6.523900411666923
 50
105.1732267645264
 51
176.66530175048101
  0
ARC
  8
_0-0_0
  6
CONTINUOUS
 62
    7
 10
175.08117026097449
 20
257.74779004289888
 40
2.2334651614209231
 50
137.8361680925787
 51
256.54444605605022
  0
ARC
  8
_0-0_0
  6
CONTINUOUS
 62
    7
 10
190.70925611818575
 20
251.44146994644069
 40
18.964416221314419
 50
110.3046522653087
 51
155.6953232625996
  0
ARC
  8
_0-0_0
  6
CONTINUOUS
 62
    7
 10
194.08455361427659
 20
244.00969210308125
 40
21.053184195560451
 50
149.4204831136222
 51
197.38910656029691
  0
ARC
  8
_0-0_0
  6
CONTINUOUS
 62
    7
 10
199.11188203057452
 20
249.23939783569938
 40
27.84463840954545
 50
164.42375860674224
 51
199.45920029394432
  0
ARC
  8
_0-0_0
  6
CONTINUOUS
 62
    7
 10
220.14898346270272
 20
240.58704658523499
 40
44.139216718983391
 50
172.41275767133931
 51
203.78885720881539
  0
ARC
  8
_0-0_0
  6
CONTINUOUS
 62
    7
 10
186.02082921661318
 20
246.31567656578974
 40
9.6251305099557261
 50
117.37770247163949
 51
179.4087701740217
  0
ARC
  8
_0-0_0
  6
CONTINUOUS
 62
    7
 10
167.4208348343509
 20
294.23863422570543
 40
7.4882363157237117
 50
65.678511662573996
 51
165.022629593169
  0
ARC
  8
_0-0_0
  6
CONTINUOUS
 62
    7
 10
166.27156574747244
 20
292.3704091558879
 40
9.6679705132846454
 50
341.33173697843381
 51
64.031766714062272
  0
ARC
  8
_0-0_0
  6
CONTINUOUS
 62
    7
 10
165.79794820081895
 20
291.71324363833662
 40
7.7413162031573624
 50
305.6078805247862
 51
121.80504475202009
  0
ARC
  8
_0-0_0
  6
CONTINUOUS
 62
    7
 10
164.56604895770107
 20
290.38693445399861
 40
6.5853818865808558
 50
330.63336579463271
 51
122.24622033088961
  0
ARC
  8
_0-0_0
  6
CONTINUOUS
 62
    7
 10
196.20977864974694
 20
256.67525740507233
 40
40.002662062605289
 50
130.35873653643719
 51
224.56375183362286
  0
ARC
  8
_0-0_0
  6
CONTINUOUS
 62
    7
 10
198.35916216264053
 20
251.93529012951188
 40
35.684096758304591
 50
129.56392108310118
 51
211.42405247440581
  0
ARC
  8
_0-0_0
  6
CONTINUOUS
 62
    7
 10
202.50543666750661
 20
248.32802089615501
 40
34.492946110770909
 50
129.51865058928243
 51
209.33443806011053
  0
ARC
  8
_0-0_0
  6
CONTINUOUS
 62
    7
 10
188.93671128375888
 20
74.810452986162801
 40
12.35930042923539
 50
124.2494874936977
 51
174.16131341961929
  0
ARC
  8
_0-0_0
  6
CONTINUOUS
 62
    7
 10
169.34427764626551
 20
78.615811816177285
 40
7.729326609830161
 50
292.32034855117331
 51
340.75168999335972
  0
ARC
  8
_0-0_0
  6
CONTINUOUS
 62
    7
 10
189.13887879173268
 20
40.284719552882393
 40
35.44681114782675
 50
118.39953975260852
 51
223.80334687332544
  0
ARC
  8
_0-0_0
  6
CONTINUOUS
 62
    7
 10
146.03055729054205
 20
-1.1137783653881002
 40
24.320775623309981
 50
21.42933603032149
 51
43.895617720055959
  0
ARC
  8
_0-0_0
  6
CONTINUOUS
 62
    7
 10
164.89131674460225
 20
6.059134125383423
 40
4.1487469054945274
 50
232.93371152936669
 51
24.383336497291349
  0
ARC
  8
_0-0_0
  6
CONTINUOUS
 62
    7
 10
161.73099269501506
 20
1.7183291363555213
 40
1.2234968956783869
 50
57.3694226127134
 51
177.01463860577039
  0
ARC
  8
_0-0_0
  6
CONTINUOUS
 62
    7
 10
168.02797441270616
 20
1.1052157421713105
 40
7.5492204494890496
 50
174.8561758846414
 51
269.88058165579679
  0
ARC
  8
_0-0_0
  6
CONTINUOUS
 62
    7
 10
168.66130951679412
 20
4.7020174463872877
 40
11.164909196422849
 50
266.66725085887259
 51
52.279524662084903
  0
ARC
  8
_0-0_0
  6
CONTINUOUS
 62
    7
 10
176.47747913909365
 20
14.016836643523106
 40
1.0975395277509159
 50
83.217426583169555
 51
206.12825164105814
  0
ARC
  8
_0-0_0
  6
CONTINUOUS
 62
    7
 10
176.70129505372725
 20
16.353140319647025
 40
1.2500061802565119
 50
265.67837607083823
 51
18.787770614102822
  0
ARC
  8
_0-0_0
  6
CONTINUOUS
 62
    7
 10
179.49189102044491
 20
16.301077332141574
 40
1.6702337016130431
 50
109.6566790489387
 51
164.20440025135807
  0
ARC
  8
_0-0_0
  6
CONTINUOUS
 62
    7
 10
178.04004396566313
 20
22.429434174415704
 40
4.6415490412481271
 50
281.05466185491105
 51
341.34241939429575
  0
ARC
  8
_0-0_0
  6
CONTINUOUS
 62
    7
 10
184.78419784160781
 20
19.566641248324572
 40
2.7211792063537348
 50
103.3335221417727
 51
149.57806923815269
  0
ARC
  8
_0-0_0
  6
CONTINUOUS
 62
    7
 10
183.39039331220624
 20
26.320791538304903
 40
4.177199778300527
 50
280.56996431065011
 51
19.993285342231758
  0
ARC
  8
_0-0_0
  6
CONTINUOUS
 62
    7
 10
194.68310726288917
 20
46.68492697704319
 40
20.318570787927939
 50
205.6307816430494
 51
248.7407910047705
  0
ARC
  8
_0-0_0
  6
CONTINUOUS
 62
    7
 10
178.02676500467936
 20
39.2761136108806
 40
2.1611771261516641
 50
52.76630541404252
 51
219.6966956348553
  0
ARC
  8
_0-0_0
  6
CONTINUOUS
 62
    7
 10
184.91203215977129
 20
47.176687223621599
 40
8.3247097682251052
 50
227.93246943416491
 51
272.20167118106394
  0
ARC
  8
_0-0_0
  6
CONTINUOUS
 62
    7
 10
184.23945335814801
 20
42.08067899877679
 40
3.371896455110662
 50
287.11626349800054
 51
57.284417493398031
  0
ARC
  8
_0-0_0
  6
CONTINUOUS
 62
    7
 10
190.15583510592455
 20
52.814504522424073
 40
8.8949802980574901
 50
174.60668273463909
 51
242.5962981859137
  0
ARC
  8
_0-0_0
  6
CONTINUOUS
 62
    7
 10
229.1084559854462
 20
54.840665686079575
 40
47.823031666531683
 50
155.91087037242681
 51
181.42598458311491
  0
ARC
  8
_0-0_0
  6
CONTINUOUS
 62
    7
 10
214.97715097827614
 20
57.907438101318604
 40
34.87481256015878
 50
151.85138842036471
 51
191.64122916616429
  0
ARC
  8
_0-0_0
  6
CONTINUOUS
 62
    7
 10
187.33255481352205
 20
51.24979202132603
 40
6.523900411666923
 50
183.33476290894501
 51
254.82681740433202
  0
ARC
  8
_0-0_0
  6
CONTINUOUS
 62
    7
 10
176.70884815420067
 20
39.252370935453101
 40
2.2334651614209231
 50
103.45563909394332
 51
222.16397852911732
  0
ARC
  8
_0-0_0
  6
CONTINUOUS
 62
    7
 10
192.33693401141193
 20
45.558683402516891
 40
18.964416221314419
 50
204.30467309493483
 51
249.69535092241483
  0
ARC
  8
_0-0_0
  6
CONTINUOUS
 62
    7
 10
195.71223246117708
 20
52.990453616481915
 40
21.053184195560451
 50
162.61087613685913
 51
210.57949958353385
  0
ARC
  8
_0-0_0
  6
CONTINUOUS
 62
    7
 10
200.73956087747496
 20
47.760732625074894
 40
27.84463840954545
 50
160.54075508245501
 51
195.576196769657
  0
ARC
  8
_0-0_0
  6
CONTINUOUS
 62
    7
 10
221.77666135592892
 20
56.413114393117013
 40
44.139216718983391
 50
156.21118012985389
 51
187.58726600695161
  0
ARC
  8
_0-0_0
  6
CONTINUOUS
 62
    7
 10
187.64850710983936
 20
50.684476783167852
 40
9.6251305099557261
 50
180.59132180616101
 51
242.62230754627313
  0
ARC
  8
_0-0_0
  6
CONTINUOUS
 62
    7
 10
169.04851272757708
 20
2.761542011435381
 40
7.4882363157237117
 50
194.977476047392
 51
294.32134809117701
  0
ARC
  8
_0-0_0
  6
CONTINUOUS
 62
    7
 10
167.89924364069861
 20
4.6297518224640726
 40
9.6679705132846454
 50
295.96816134158041
 51
18.66826962438428
  0
ARC
  8
_0-0_0
  6
CONTINUOUS
 62
    7
 10
167.42562609404513
 20
5.2869325988041851
 40
7.7413162031573624
 50
238.19506088854081
 51
54.391996304437711
  0
ARC
  8
_0-0_0
  6
CONTINUOUS
 62
    7
 10
166.19372685092725
 20
6.6132112655644733
 40
6.5853818865808558
 50
237.75377602664469
 51
29.366531525158663
  0
ARC
  8
_0-0_0
  6
CONTINUOUS
 62
    7
 10
197.83745749664743
 20
40.324880685096502
 40
40.002662062605289
 50
135.43623086353301
 51
229.64125982109712
  0
ARC
  8
_0-0_0
  6
CONTINUOUS
 62
    7
 10
199.98684100954097
 20
45.064870848840101
 40
35.684096758304591
 50
148.5759575435068
 51
230.43610259518979
  0
ARC
  8
_0-0_0
  6
CONTINUOUS
 62
    7
 10
204.13311551440708
 20
48.672117194013722
 40
34.492946110770909
 50
150.66555829742379
 51
230.481345768252
  0
ARC
  8
_0-0_0
  6
CONTINUOUS
 62
    7
 10
194.84458721043413
 20
82.165616450781073
 40
13.17796019944608
 50
167.46113007026864
 51
168.73158623702594
  0
LINE
  8
_0-0_0
  6
CONTINUOUS
 62
    7
 10
182.20893008823424
 20
85.032067671495355
 11
181.98093708015702
 21
85.026574507514709
  0
LINE
  8
_0-0_0
  6
CONTINUOUS
 62
    7
 10
194.08999909454215
 20
191.16141103023045
 11
183.82258515452094
 21
222.64015506799655
  0
ARC
  8
_0-0_0
  6
CONTINUOUS
 62
    7
 10
56.22199921106926
 20
148.90933342468611
 40
140.32050877331929
 50
355.7199129556592
 51
356.7799583148452
  0
ARC
  8
_0-0_0
  6
CONTINUOUS
 62
    7
 10
99.198828099473147
 20
148.02735100402981
 40
103.43509519941961
 50
356.11958830513169
 51
356.12062649388548
  0
ENDSEC
  0
EOF
