  0
SECTION
  2
HEADER
  9
$ACADVER
  1
AC1009
  9
$INSBASE
 10
0
 20
0
 30
0
  9
$EXTMIN
 10
0
 20
0
  9
$EXTMAX
 10
4200
 20
2970
  9
$LIMMIN
 10
0
 20
0
  9
$LIMMAX
 10
4200
 20
2970
  9
$LTSCALE
 40
10
  0
ENDSEC
  0
SECTION
  2
TABLES
  0
TABLE
  2
LTYPE
 70
     9
  0
LTYPE
  2
CONTINUOUS
 70
    64
  3
実線
 72
    65
 73
     0
 40
0.0
  0
LTYPE
  2
DASHED1
 70
    64
  3
--  --  --  --  --  --  --  --  
 72
    65
 73
     2
 40
2.5
 49
1.25
 49
-1.25
  0
LTYPE
  2
DASHED2
 70
    64
  3
----    ----    ----    ----    
 72
    65
 73
     2
 40
5.0
 49
2.5
 49
-2.5
  0
LTYPE
  2
DASHED3
 70
    64
  3
------  ------  ------  ------  
 72
    65
 73
     2
 40
5.0
 49
3.75
 49
-1.25
  0
LTYPE
  2
CENTER1
 70
    64
  3
----- - ----- - ----- - ----- - 
 72
    65
 73
     4
 40
10.0
 49
6.25
 49
-1.25
 49
1.25
 49
-1.25
  0
LTYPE
  2
CENTER2
 70
    64
  3
----------  --  ----------  --  
 72
    65
 73
     4
 40
20.0
 49
12.5
 49
-2.5
 49
2.5
 49
-2.5
  0
LTYPE
  2
PHANTOM1
 70
    64
  3
--- - - --- - - --- - - --- - - 
 72
    65
 73
     6
 40
10.0
 49
3.25
 49
-1.25
 49
1.25
 49
-1.25
 49
1.25
 49
-1.25
  0
LTYPE
  2
PHANTOM2
 70
    64
  3
--------  -  -  --------  -  -  
 72
    65
 73
     6
 40
20.0
 49
10.0
 49
-2.5
 49
1.25
 49
-2.5
 49
1.25
 49
-2.5
  0
LTYPE
  2
DOT
 70
    64
  3
-   -   -   -   -   -   -   -   
 72
    65
 73
     2
 40
2.5
 49
0.625
 49
-1.875
  0
LTYPE
  2
DUMMY
 70
    64
  3
ダミー
 72
    65
 73
     0
 40
0.0
  0
LTYPE
  2
RAND1
 70
    64
  3
ランダム線1
 72
    65
 73
     4
 40
10.0
 49
1.0
 49
-2.0
 49
3.0
 49
-4.0
  0
LTYPE
  2
RAND2
 70
    64
  3
ランダム線2
 72
    65
 73
     4
 40
14.0
 49
2.0
 49
-3.0
 49
4.0
 49
-5.0
  0
LTYPE
  2
RAND3
 70
    64
  3
ランダム線3
 72
    65
 73
     4
 40
18.0
 49
3.0
 49
-4.0
 49
5.0
 49
-6.0
  0
LTYPE
  2
RAND4
 70
    64
  3
ランダム線4
 72
    65
 73
     4
 40
22.0
 49
4.0
 49
-5.0
 49
6.0
 49
-7.0
  0
LTYPE
  2
RAND5
 70
    64
  3
ランダム線5
 72
    65
 73
     4
 40
26.0
 49
5.0
 49
-6.0
 49
7.0
 49
-8.0
  0
LTYPE
  2
LONG1
 70
    64
  3
----------  --  ----------  --  
 72
    65
 73
     4
 40
40.0
 49
32.5
 49
-2.5
 49
2.5
 49
-2.5
  0
LTYPE
  2
LONG2
 70
    64
  3
--------  -  -  --------  -  -  
 72
    65
 73
     6
 40
40.0
 49
30.0
 49
-2.5
 49
1.25
 49
-2.5
 49
1.25
 49
-2.5
  0
LTYPE
  2
LONG3
 70
    64
  3
+++++++++++++++..+++++++++++++++
 72
    65
 73
     2
 40
40.0
 49
37.5
 49
-2.5
  0
LTYPE
  2
LONG4
 70
    64
  3
+++++++++++++++..+++++++++++++++
 72
    65
 73
     2
 40
80.0
 49
75.0
 49
-5.0
  0
LTYPE
  2
LONG5
 70
    64
  3
----------  --  ----------  --  
 72
    65
 73
     4
 40
60.0
 49
37.5
 49
-7.5
 49
7.5
 49
-7.5
  0
LTYPE
  2
dashed
 70
   64
  3
-------   -------------   ------
 72
   65
 73
    2
 40
7.5
 49
6
 49
-1.5
  0
LTYPE
  2
dashed_spaced
 70
   64
  3
----        --------        ----
 72
   65
 73
    2
 40
12
 49
6
 49
-6
  0
LTYPE
  2
long_dashed_dotted
 70
   64
  3
------------- --- --------------
 72
   65
 73
    4
 40
15.25
 49
12
 49
-1.5
 49
0.25
 49
-1.5
  0
LTYPE
  2
long_dashed_double-dotted
 70
   64
  3
----------- --- --- ------------
 72
   65
 73
    6
 40
17
 49
12
 49
-1.5
 49
0.25
 49
-1.5
 49
0.25
 49
-1.5
  0
LTYPE
  2
long_dashed_triplicate-dotted
 70
   64
  3
--------- --- --- --- ----------
 72
   65
 73
    8
 40
18.75
 49
12
 49
-1.5
 49
0.25
 49
-1.5
 49
0.25
 49
-1.5
 49
0.25
 49
-1.5
  0
LTYPE
  2
dotted
 70
   64
  3
   -       -       -       -    
 72
   65
 73
    2
 40
1.75
 49
0.25
 49
-1.5
  0
LTYPE
  2
chain
 70
   64
  3
-------------- -- --------------
 72
   65
 73
    4
 40
18.5
 49
12
 49
-1.5
 49
3.5
 49
-1.5
  0
LTYPE
  2
chain_double_dash
 70
   64
  3
------------ -- -- -------------
 72
   65
 73
    6
 40
23.5
 49
12
 49
-1.5
 49
3.5
 49
-1.5
 49
3.5
 49
-1.5
  0
LTYPE
  2
dashed_dotted
 70
   64
  3
-----------     -     ----------
 72
   65
 73
    4
 40
9.25
 49
6
 49
-1.5
 49
0.25
 49
-1.5
  0
LTYPE
  2
double-dashed_dotted
 70
   64
  3
------   -----------   -   -----
 72
   65
 73
    6
 40
16.75
 49
6
 49
-1.5
 49
6
 49
-1.5
 49
0.25
 49
-1.5
  0
LTYPE
  2
dashed_double-dotted
 70
   64
  3
---------    -    -    ---------
 72
   65
 73
    6
 40
11
 49
6
 49
-1.5
 49
0.25
 49
-1.5
 49
0.25
 49
-1.5
  0
LTYPE
  2
double-dashed_double-dotted
 70
   64
  3
-----   ---------   -   -   ----
 72
   65
 73
    8
 40
18.5
 49
6
 49
-1.5
 49
6
 49
-1.5
 49
0.25
 49
-1.5
 49
0.25
 49
-1.5
  0
LTYPE
  2
dashed_triplicate-dotted
 70
   64
  3
-------    -    -    -    ------
 72
   65
 73
    8
 40
12.75
 49
6
 49
-1.5
 49
0.25
 49
-1.5
 49
0.25
 49
-1.5
 49
0.25
 49
-1.5
  0
LTYPE
  2
double-dashed_triplicate-dotted
 70
   64
  3
-----  ---------  -  -  -  -----
 72
   65
 73
   10
 40
20.25
 49
6
 49
-1.5
 49
6
 49
-1.5
 49
0.25
 49
-1.5
 49
0.25
 49
-1.5
 49
0.25
 49
-1.5
  0
LTYPE
  2
undefined
 70
   64
  3
--------------------------------
 72
   65
 73
    0
 40
0
  0
ENDTAB
  0
TABLE
  2
STYLE
  5
3
100
AcDbSymbolTable
 70
     1
  0
STYLE
  5
10
100
AcDbSymbolTableRecord
100
AcDbTextStyleTableRecord
  2
STANDARD
 70
     0
 40
0.0
 41
1.0
 50
0.0
 71
     0
 42
0.2
  3
txt
  4
bigfont.shx
  0
STYLE
  5
26
100
AcDbSymbolTableRecord
100
AcDbTextStyleTableRecord
  2
TATEGAKI
 70
    68
 40
0.0
 41
1.0
 50
0.0
 71
     0
 42
1.0
  3
txt
  4
bigfont.shx
  0
ENDTAB
  0
TABLE
  2
LAYER
 70
    2
  0
LAYER
  2
_0-0_
 70
   64
 62
    7
  6
CONTINUOUS
  0
LAYER
  2
ADD_LINE
 70
   64
 62
    7
  6
CONTINUOUS
  0
ENDTAB
  0
ENDSEC
  0
SECTION
  2
BLOCKS
  0
ENDSEC
  0
SECTION
  2
ENTITIES
  0
LINE
  8
_0-0_
  6
CONTINUOUS
 62
    7
 10
1641.285672164048
 20
1634.9368108023102
 11
1631.652949309434
 21
1622.1614201773104
  0
LINE
  8
_0-0_
  6
CONTINUOUS
 62
    7
 10
1638.8902711630715
 20
1636.7429631460604
 11
1629.2575635672463
 21
1623.9675725210602
  0
LINE
  8
_0-0_
  6
CONTINUOUS
 62
    7
 10
1629.2575635672463
 20
1623.9675725210602
 11
1622.8698682547463
 21
1628.7839787710604
  0
LINE
  8
_0-0_
  6
CONTINUOUS
 62
    7
 10
1620.474486327256
 20
1630.5900090444979
 11
1630.1071729422463
 21
1643.3655217398104
  0
LINE
  8
_0-0_
  6
CONTINUOUS
 62
    7
 10
1632.5025739432228
 20
1641.5593693960604
 11
1638.8902711630715
 21
1636.7429631460604
  0
LINE
  8
_0-0_
  6
CONTINUOUS
 62
    7
 10
1632.5025739432228
 20
1641.5593693960604
 11
1622.8698682547463
 21
1628.7839787710604
  0
LINE
  8
_0-0_
  6
CONTINUOUS
 62
    7
 10
1699.8274850607766
 20
2008.8413823355136
 11
1709.460207915391
 21
2021.6167729605136
  0
LINE
  8
_0-0_
  6
CONTINUOUS
 62
    7
 10
1702.2228860617531
 20
2007.0352299917636
 11
1711.8555936575785
 21
2019.8106206167636
  0
LINE
  8
_0-0_
  6
CONTINUOUS
 62
    7
 10
1711.8555936575785
 20
2019.8106206167636
 11
1718.2432889700783
 21
2014.9942143667636
  0
LINE
  8
_0-0_
  6
CONTINUOUS
 62
    7
 10
1720.6386708975685
 20
2013.1881840933261
 11
1711.0059842825785
 21
2000.4126713980133
  0
LINE
  8
_0-0_
  6
CONTINUOUS
 62
    7
 10
1708.610583281602
 20
2002.2188237417636
 11
1702.2228860617531
 21
2007.0352299917636
  0
LINE
  8
_0-0_
  6
CONTINUOUS
 62
    7
 10
1708.610583281602
 20
2002.2188237417636
 11
1718.2432889700783
 21
2014.9942143667636
  0
LINE
  8
_0-0_
  6
CONTINUOUS
 62
    7
 10
1671.999768233384
 20
1833.5044577825961
 11
1679.1236619711772
 21
1829.8643773306308
  0
LINE
  8
_0-0_
  6
CONTINUOUS
 62
    7
 10
1679.1236619711772
 20
1829.8643773306308
 11
1669.1133788586512
 21
1810.2737277258334
  0
LINE
  8
_0-0_
  6
CONTINUOUS
 62
    7
 10
1681.7951087714091
 20
1828.4993561018405
 11
1671.7848417521373
 21
1808.9086440313754
  0
LINE
  8
_0-0_
  6
CONTINUOUS
 62
    7
 10
1661.9895009756938
 20
1813.9138077009613
 11
1671.999783492173
 21
1833.5044577825961
  0
LINE
  8
_0-0_
  6
CONTINUOUS
 62
    7
 10
1669.1133788586512
 20
1810.2737277258334
 11
1661.9895009756938
 21
1813.9138077009613
  0
LINE
  8
_0-0_
  6
CONTINUOUS
 62
    7
 10
1659.3180541754618
 20
1815.2788303602631
 11
1669.3283205390824
 21
1834.8695414770541
  0
LINE
  8
_0-0_
  6
CONTINUOUS
 62
    7
 10
1716.6718587637797
 20
1803.1689751852448
 11
1678.2397703886882
 21
1821.5413395125563
  0
LINE
  8
_0-0_
  6
CONTINUOUS
 62
    7
 10
1665.6044201613322
 20
1827.5816376913485
 11
1627.1957273245707
 21
1845.9428189505036
  0
LINE
  8
_0-0_
  6
CONTINUOUS
 62
    7
 10
1662.8733958960427
 20
1822.2368540275988
 11
1624.4412984610451
 21
1840.6092217672763
  0
LINE
  8
_0-0_
  6
CONTINUOUS
 62
    7
 10
1714.0840635062114
 20
1797.7557214010653
 11
1675.6519775153056
 21
1816.1280849684176
  0
ARC
  8
_0-0_
  6
CONTINUOUS
 62
    7
 10
1644.2246751547709
 20
1579.3726323355133
 40
186.66014099121097
 50
275.51914978027344
 51
305.99618530273443
  0
ARC
  8
_0-0_
  6
CONTINUOUS
 62
    7
 10
1649.2833242178813
 20
1566.0631535757477
 40
178.96174621582031
 50
274.370849609375
 51
307.25119018554687
  0
ARC
  8
_0-0_
  6
CONTINUOUS
 62
    7
 10
1641.393786406602
 20
1528.6480229605136
 40
136.659912109375
 50
183.96337890625
 51
278.74760437011719
  0
ARC
  8
_0-0_
  6
CONTINUOUS
 62
    7
 10
1641.393786406602
 20
1528.6480229605136
 40
142.65989685058594
 50
183.82119750976562
 51
278.6795654296875
  0
ARC
  8
_0-0_
  6
CONTINUOUS
 62
    7
 10
1581.0449361563576
 20
1538.0821965444977
 40
10.891336441040041
 50
236.51057434082034
 51
326.98822021484375
  0
ARC
  8
_0-0_
  6
CONTINUOUS
 62
    7
 10
1579.5032949210063
 20
1540.1346867788729
 40
12.110335350036623
 50
139.22787475585937
 51
311.83467102050781
  0
ARC
  8
_0-0_
  6
CONTINUOUS
 62
    7
 10
1598.2732228995219
 20
1529.4521916616852
 40
2.6729691028594971
 50
162.53712463378906
 51
318.53985595703125
  0
ARC
  8
_0-0_
  6
CONTINUOUS
 62
    7
 10
1599.1994008780375
 20
1529.0207951773104
 40
3.3117210865020752
 50
205.12725830078125
 51
318.31857299804687
  0
ARC
  8
_0-0_
  6
CONTINUOUS
 62
    7
 10
1600.2922963858498
 20
1540.3317082632477
 40
1.8192160129547119
 50
295.11460876464844
 51
101.60972595214838
  0
ARC
  8
_0-0_
  6
CONTINUOUS
 62
    7
 10
1617.4721822501078
 20
1580.3848088491852
 40
37.811023712158203
 50
246.21726989746094
 51
275.89262390136724
  0
ARC
  8
_0-0_
  6
CONTINUOUS
 62
    7
 10
1695.5021333456887
 20
1817.9195981729922
 40
284.51690673828125
 50
250.39103698730472
 51
253.89151000976563
  0
ARC
  8
_0-0_
  6
CONTINUOUS
 62
    7
 10
1609.0529012442482
 20
1527.7163518179352
 40
13.568878173828125
 50
126.06716918945314
 51
169.21975708007815
  0
ARC
  8
_0-0_
  6
CONTINUOUS
 62
    7
 10
1631.2262983084574
 20
1497.4800542105136
 40
45.496852874755859
 50
98.02513122558598
 51
134.49510192871097
  0
ARC
  8
_0-0_
  6
CONTINUOUS
 62
    7
 10
1610.2502431631935
 20
1518.1015141714511
 40
26.137607574462894
 50
113.26528930664064
 51
150.14833068847656
  0
ARC
  8
_0-0_
  6
CONTINUOUS
 62
    7
 10
1606.7986745596781
 20
1520.6027043569977
 40
20.237432479858398
 50
103.0640411376953
 51
145.21376037597656
  0
ARC
  8
_0-0_
  6
CONTINUOUS
 62
    7
 10
1597.2338094473732
 20
1531.7383244741854
 40
14.90653705596924
 50
70.44097900390625
 51
173.75526428222659
  0
ARC
  8
_0-0_
  6
CONTINUOUS
 62
    7
 10
1594.3470906973732
 20
1532.4984563101227
 40
18.305446624755859
 50
71.951354980468793
 51
160.69168090820318
  0
ARC
  8
_0-0_
  6
CONTINUOUS
 62
    7
 10
1649.0436372519389
 20
1455.1815922964511
 40
87.376251220703125
 50
102.22312927246095
 51
123.92649841308597
  0
ARC
  8
_0-0_
  6
CONTINUOUS
 62
    7
 10
6590.058135008896
 20
-8610.7616144906588
 40
11298.4306640625
 50
116.04582214355469
 51
116.20034790039062
  0
ARC
  8
_0-0_
  6
CONTINUOUS
 62
    7
 10
1614.2316884756938
 20
1565.8755315054352
 40
14.616852760314941
 50
131.85244750976562
 51
184.43434143066406
  0
ARC
  8
_0-0_
  6
CONTINUOUS
 62
    7
 10
1607.8883962393656
 20
1571.4873479116852
 40
5.1678009033203134
 50
318.65126037597656
 51
28.11212158203125
  0
ARC
  8
_0-0_
  6
CONTINUOUS
 62
    7
 10
1614.431197142686
 20
1590.2360051382479
 40
2.234450101852417
 50
282.06922912597656
 51
114.70050048828131
  0
ARC
  8
_0-0_
  6
CONTINUOUS
 62
    7
 10
1613.9468068838969
 20
1589.3655217398102
 40
3.3275671005249023
 50
305.56683349609375
 51
44.837615966796875
  0
ARC
  8
_0-0_
  6
CONTINUOUS
 62
    7
 10
1607.7076864004982
 20
1572.9878361929354
 40
4.9675168991088867
 50
315.01206970214844
 51
130.53662109375
  0
ARC
  8
_0-0_
  6
CONTINUOUS
 62
    7
 10
1626.563639617051
 20
1570.5876897085602
 40
21.001031875610355
 50
123.74241638183594
 51
159.66909790039062
  0
ARC
  8
_0-0_
  6
CONTINUOUS
 62
    7
 10
1625.3987684012307
 20
1571.5516789663729
 40
17.854568481445313
 50
122.20826721191408
 51
159.32215881347656
  0
ARC
  8
_0-0_
  6
CONTINUOUS
 62
    7
 10
1625.5992994070903
 20
1562.6746037710604
 40
31.970449447631836
 50
112.2427978515625
 51
184.07469177246097
  0
ARC
  8
_0-0_
  6
CONTINUOUS
 62
    7
 10
1621.6721753836528
 20
1629.6869328726229
 40
1.4999680519104006
 50
142.98251342773437
 51
322.98693847656244
  0
ARC
  8
_0-0_
  6
CONTINUOUS
 62
    7
 10
1595.2186574698342
 20
1586.5112736929354
 40
51.795074462890625
 50
60.049636840820305
 51
82.15863037109375
  0
ARC
  8
_0-0_
  6
CONTINUOUS
 62
    7
 10
1640.0879640341655
 20
1635.8398869741854
 40
1.5000050067901614
 50
322.98321533203125
 51
142.98356628417974
  0
ARC
  8
_0-0_
  6
CONTINUOUS
 62
    7
 10
1630.4552564383403
 20
1623.0644963491852
 40
1.5000050067901614
 50
142.98251342773437
 51
322.98321533203125
  0
ARC
  8
_0-0_
  6
CONTINUOUS
 62
    7
 10
1663.356213069047
 20
1691.6666692007479
 40
61.46272277832032
 50
248.58627319335935
 51
294.89042663574219
  0
ARC
  8
_0-0_
  6
CONTINUOUS
 62
    7
 10
1595.2186574698342
 20
1586.5112736929354
 40
57.795074462890632
 50
344.14036560058594
 51
45.398834228515625
  0
ARC
  8
_0-0_
  6
CONTINUOUS
 62
    7
 10
1595.2186574698342
 20
1586.5112736929354
 40
51.795074462890625
 50
311.08564758300781
 51
44.51409912109375
  0
ARC
  8
_0-0_
  6
CONTINUOUS
 62
    7
 10
1622.9602308035746
 20
1560.7042668569977
 40
14.654475212097168
 50
143.23236083984375
 51
295.45039367675781
  0
ARC
  8
_0-0_
  6
CONTINUOUS
 62
    7
 10
1595.7657460928813
 20
1528.2247746694977
 40
32.243656158447266
 50
93.656112670898438
 51
142.07341003417969
  0
ARC
  8
_0-0_
  6
CONTINUOUS
 62
    7
 10
1625.9060468436135
 20
1561.0869572866852
 40
15.770129203796388
 50
153.703857421875
 51
250.24345397949216
  0
ARC
  8
_0-0_
  6
CONTINUOUS
 62
    7
 10
1593.2539052725688
 20
1534.1775334585602
 40
22.149341583251957
 50
57.771362304687528
 51
150.0636901855469
  0
ARC
  8
_0-0_
  6
CONTINUOUS
 62
    7
 10
1625.0333966971291
 20
1562.8009465444979
 40
22.280925750732422
 50
145.85566711425787
 51
206.34211730957037
  0
ARC
  8
_0-0_
  6
CONTINUOUS
 62
    7
 10
1619.3824910879982
 20
1568.7118352163727
 40
21.401081085205078
 50
118.08351135253903
 51
217.26889038085935
  0
ARC
  8
_0-0_
  6
CONTINUOUS
 62
    7
 10
1606.7273549796
 20
1578.4797795523104
 40
44.764617919921875
 50
302.14410400390625
 51
350.01361083984375
  0
ARC
  8
_0-0_
  6
CONTINUOUS
 62
    7
 10
1555.57981011876
 20
1718.74077350983
 40
5.8435368537902832
 50
217.76055908203125
 51
318.91563415527344
  0
ARC
  8
_0-0_
  6
CONTINUOUS
 62
    7
 10
1554.297842955674
 20
1719.4530537832675
 40
7.7437319755554199
 50
211.32879638671875
 51
312.31858825683594
  0
ARC
  8
_0-0_
  6
CONTINUOUS
 62
    7
 10
1536.0390462637795
 20
1732.9835637319979
 40
6.1920528411865234
 50
165.98207092285159
 51
222.16474914550784
  0
ARC
  8
_0-0_
  6
CONTINUOUS
 62
    7
 10
1543.6024389029399
 20
1747.8647282827792
 40
22.586067199707035
 50
237.44709777832034
 51
279.30245971679687
  0
ARC
  8
_0-0_
  6
CONTINUOUS
 62
    7
 10
1542.8564061880959
 20
1745.3262837637362
 40
21.745920181274414
 50
231.75372314453125
 51
277.48358154296875
  0
ARC
  8
_0-0_
  6
CONTINUOUS
 62
    7
 10
1546.0724248648537
 20
1730.6710713613925
 40
16.487859725952148
 50
105.92802429199222
 51
166.63088989257815
  0
ARC
  8
_0-0_
  6
CONTINUOUS
 62
    7
 10
1536.7846212149516
 20
1732.8706486929354
 40
8.7165975570678711
 50
144.16725158691406
 51
212.02781677246091
  0
ARC
  8
_0-0_
  6
CONTINUOUS
 62
    7
 10
1547.408194518174
 20
1726.99223835358
 40
20.821613311767578
 50
90.899261474609389
 51
148.17005920410159
  0
ARC
  8
_0-0_
  6
CONTINUOUS
 62
    7
 10
1555.2493505240336
 20
1747.2781804312167
 40
59.604286193847656
 50
147.44712829589849
 51
248.55900573730472
  0
ARC
  8
_0-0_
  6
CONTINUOUS
 62
    7
 10
1555.2493505240336
 20
1747.2781804312167
 40
53.604290008544922
 50
147.2362060546875
 51
248.37899780273435
  0
ARC
  8
_0-0_
  6
CONTINUOUS
 62
    7
 10
1559.1956319571389
 20
1723.960255931705
 40
12.051016807556154
 50
172.2966613769531
 51
226.89060974121091
  0
ARC
  8
_0-0_
  6
CONTINUOUS
 62
    7
 10
1563.9634999991313
 20
1723.72856647858
 40
18.274885177612305
 50
179.88401794433599
 51
207.01847839355474
  0
ARC
  8
_0-0_
  6
CONTINUOUS
 62
    7
 10
1552.7213506461039
 20
1713.1783955801425
 40
12.917245864868166
 50
311.3980712890625
 51
0.4797210693359375
  0
ARC
  8
_0-0_
  6
CONTINUOUS
 62
    7
 10
1562.3784780264748
 20
1708.5801289785798
 40
5.7250761985778809
 50
319.79505920410156
 51
55.29345703125
  0
ARC
  8
_0-0_
  6
CONTINUOUS
 62
    7
 10
1631.3048810721293
 20
1642.4624455679352
 40
1.5000050067901614
 50
322.98321533203125
 51
145.45959472656256
  0
ARC
  8
_0-0_
  6
CONTINUOUS
 62
    7
 10
1641.0216951132668
 20
1671.6901067007479
 40
5.8435368537902832
 50
173.42657470703128
 51
274.58213806152349
  0
ARC
  8
_0-0_
  6
CONTINUOUS
 62
    7
 10
1627.4989881277932
 20
1668.1345647085604
 40
7.8043107986450195
 50
23.281005859374993
 51
69.630538940429673
  0
ARC
  8
_0-0_
  6
CONTINUOUS
 62
    7
 10
1639.0614289999858
 20
1681.2463811148104
 40
18.274885177612305
 50
285.32398986816406
 51
312.45837402343744
  0
ARC
  8
_0-0_
  6
CONTINUOUS
 62
    7
 10
1642.4440889120951
 20
1677.8783391226227
 40
12.051016807556154
 50
265.45204162597656
 51
320.04618835449219
  0
ARC
  8
_0-0_
  6
CONTINUOUS
 62
    7
 10
1642.4116487265483
 20
1671.2223332632479
 40
7.7437319755554199
 50
180.02346801757812
 51
281.01380920410156
  0
ARC
  8
_0-0_
  6
CONTINUOUS
 62
    7
 10
1656.2435884238139
 20
1672.6986516226227
 40
16.487859725952148
 50
325.71119689941406
 51
26.41412353515625
  0
ARC
  8
_0-0_
  6
CONTINUOUS
 62
    7
 10
1664.7109341383828
 20
1666.8402531851229
 40
6.1920528411865234
 50
270.17704772949219
 51
326.35942077636719
  0
ARC
  8
_0-0_
  6
CONTINUOUS
 62
    7
 10
1664.125301814164
 20
1667.3153508413727
 40
8.7165975570678711
 50
280.31390380859375
 51
348.1748046875
  0
ARC
  8
_0-0_
  6
CONTINUOUS
 62
    7
 10
1670.6156287551776
 20
1682.4539006460602
 40
22.586067199707035
 50
213.03962707519531
 51
254.89524841308594
  0
ARC
  8
_0-0_
  6
CONTINUOUS
 62
    7
 10
1669.2419104338542
 20
1680.1926701773104
 40
21.745920181274414
 50
214.85867309570312
 51
260.58848571777344
  0
ARC
  8
_0-0_
  6
CONTINUOUS
 62
    7
 10
1631.07976815709
 20
1713.7153828848298
 40
6.1074662208557129
 50
355.32479858398437
 51
63.946060180664062
  0
ARC
  8
_0-0_
  6
CONTINUOUS
 62
    7
 10
1654.7885102988139
 20
1710.1901143301425
 40
17.879751205444336
 50
170.25149536132812
 51
198.77864074707034
  0
ARC
  8
_0-0_
  6
CONTINUOUS
 62
    7
 10
1628.4897107840434
 20
1693.8694356192048
 40
14.121945381164551
 50
48.428024291992209
 51
93.404220581054702
  0
ARC
  8
_0-0_
  6
CONTINUOUS
 62
    7
 10
1624.0624952078713
 20
1712.9658711660798
 40
28.74923133850098
 50
315.22602844238287
 51
16.101150512695369
  0
ARC
  8
_0-0_
  6
CONTINUOUS
 62
    7
 10
1612.571837401475
 20
1697.5609639395175
 40
16.196290969848633
 50
5.0828704833984499
 51
21.881790161132827
  0
ARC
  8
_0-0_
  6
CONTINUOUS
 62
    7
 10
1651.2564058066264
 20
1672.8082707632479
 40
21.033605575561523
 50
20.090423583984382
 51
108.81921386718751
  0
ARC
  8
_0-0_
  6
CONTINUOUS
 62
    7
 10
1652.624722457017
 20
1671.2080510366854
 40
20.821613311767578
 50
344.17239379882812
 51
41.443252563476506
  0
ARC
  8
_0-0_
  6
CONTINUOUS
 62
    7
 10
1635.5191297293559
 20
1668.9935734976229
 40
14.313859939575195
 50
5.5452575683593812
 51
122.41853332519533
  0
ARC
  8
_0-0_
  6
CONTINUOUS
 62
    7
 10
1613.2759084463967
 20
1697.0820821035798
 40
21.732639312744141
 50
314.08547973632812
 51
18.273818969726619
  0
ARC
  8
_0-0_
  6
CONTINUOUS
 62
    7
 10
1639.9175996542826
 20
1659.2765324819979
 40
25.58049201965332
 50
9.5391845703125089
 51
102.99029541015626
  0
ARC
  8
_0-0_
  6
CONTINUOUS
 62
    7
 10
1647.7398652792826
 20
1663.5810979116854
 40
24.994100570678714
 50
24.388946533203111
 51
113.83863830566405
  0
ARC
  8
_0-0_
  6
CONTINUOUS
 62
    7
 10
1627.418879485215
 20
1669.0237248648102
 40
8.4810886383056641
 50
23.157943725585962
 51
131.68669128417974
  0
ARC
  8
_0-0_
  6
CONTINUOUS
 62
    7
 10
1628.2006482840434
 20
1705.7753194082673
 40
2.2590498924255371
 50
104.07829284667969
 51
254.61425781250003
  0
ARC
  8
_0-0_
  6
CONTINUOUS
 62
    7
 10
1602.6746511221779
 20
1693.9191182363925
 40
26.520238876342773
 50
314.23193359375
 51
11.036270141601563
  0
ARC
  8
_0-0_
  6
CONTINUOUS
 62
    7
 10
1638.835659957017
 20
1665.8307317007479
 40
12.917245864868166
 50
131.86224365234375
 51
180.9443359375
  0
ARC
  8
_0-0_
  6
CONTINUOUS
 62
    7
 10
1628.9323072195903
 20
1669.8713811148104
 40
5.7250761985778809
 50
77.048568725585966
 51
172.54638671875006
  0
ARC
  8
_0-0_
  6
CONTINUOUS
 62
    7
 10
1632.7909192801371
 20
1669.1313908804352
 40
11.605480194091797
 50
359.81254577636719
 51
135.18205261230474
  0
ARC
  8
_0-0_
  6
CONTINUOUS
 62
    7
 10
1648.0761384726418
 20
1665.5994084585604
 40
28.46975135803223
 50
160.89665222167974
 51
229.42909240722662
  0
ARC
  8
_0-0_
  6
CONTINUOUS
 62
    7
 10
1655.0984468222512
 20
1659.5072453726229
 40
29.811265945434574
 50
168.17187499999997
 51
212.90061950683591
  0
ARC
  8
_0-0_
  6
CONTINUOUS
 62
    7
 10
1580.4143514395607
 20
1724.41704304108
 40
14.121945381164551
 50
38.938140869140632
 51
83.914459228515639
  0
ARC
  8
_0-0_
  6
CONTINUOUS
 62
    7
 10
1589.4090261221779
 20
1732.2227071035798
 40
2.2590498924255371
 50
237.7284240722656
 51
28.263153076171875
  0
ARC
  8
_0-0_
  6
CONTINUOUS
 62
    7
 10
1593.8644704581156
 20
1715.1381123770173
 40
16.196290969848633
 50
110.46040344238283
 51
127.25949096679689
  0
ARC
  8
_0-0_
  6
CONTINUOUS
 62
    7
 10
1582.7328176260844
 20
1728.3872578848298
 40
9.5324487686157227
 50
105.72666931152345
 51
176.63102722167969
  0
ARC
  8
_0-0_
  6
CONTINUOUS
 62
    7
 10
1597.5111379385842
 20
1734.0073750723298
 40
28.74923133850098
 50
116.24119567871094
 51
177.11637878417972
  0
ARC
  8
_0-0_
  6
CONTINUOUS
 62
    7
 10
1574.7636708975688
 20
1754.8483098257477
 40
17.879751205444336
 50
293.56381225585937
 51
322.09107971191406
  0
ARC
  8
_0-0_
  6
CONTINUOUS
 62
    7
 10
1602.1877126456156
 20
1731.916798900455
 40
30.549377441406254
 50
149.85023498535162
 51
192.28216552734381
  0
ARC
  8
_0-0_
  6
CONTINUOUS
 62
    7
 10
1598.1967153311623
 20
1749.0696233023104
 40
4.5213818550109863
 50
234.74989318847659
 51
358.82426452636719
  0
ARC
  8
_0-0_
  6
CONTINUOUS
 62
    7
 10
1593.3385915518656
 20
1739.6988957632479
 40
6.1074662208557129
 50
68.396682739257827
 51
137.01731872558594
  0
ARC
  8
_0-0_
  6
CONTINUOUS
 62
    7
 10
1589.6137990713967
 20
1740.554066966861
 40
15.836068153381348
 50
51.135040283203161
 51
147.85453796386722
  0
ARC
  8
_0-0_
  6
CONTINUOUS
 62
    7
 10
1589.5328359366313
 20
1733.9047139395175
 40
15.431556701660156
 50
59.144500732421868
 51
172.62776184082031
  0
ARC
  8
_0-0_
  6
CONTINUOUS
 62
    7
 10
1589.9274892569438
 20
1748.0396550405917
 40
12.823924064636232
 50
4.190994262695324
 51
113.56982421875001
  0
ARC
  8
_0-0_
  6
CONTINUOUS
 62
    7
 10
1593.5917043448342
 20
1734.1121037710604
 40
27.306579589843754
 50
100.17120361328125
 51
169.44145202636719
  0
ARC
  8
_0-0_
  6
CONTINUOUS
 62
    7
 10
1597.8390035391703
 20
1705.3696797598298
 40
26.520238876342773
 50
121.30596923828125
 51
178.11030578613281
  0
ARC
  8
_0-0_
  6
CONTINUOUS
 62
    7
 10
1585.6828603506938
 20
1721.157521556705
 40
12.191327095031738
 50
79.720199584960923
 51
182.51588439941406
  0
ARC
  8
_0-0_
  6
CONTINUOUS
 62
    7
 10
1639.542263960923
 20
1716.8121846426425
 40
12.823924064636232
 50
18.772247314453153
 51
128.15135192871097
  0
ARC
  8
_0-0_
  6
CONTINUOUS
 62
    7
 10
1634.733759856309
 20
1723.6179707754548
 40
4.5213818550109863
 50
133.51824951171875
 51
257.59223937988281
  0
ARC
  8
_0-0_
  6
CONTINUOUS
 62
    7
 10
1626.7799329520119
 20
1710.139455150455
 40
27.306579589843754
 50
322.90086364746094
 51
32.171188354492188
  0
ARC
  8
_0-0_
  6
CONTINUOUS
 62
    7
 10
1611.5883779288185
 20
1712.106252025455
 40
35.164619445800781
 50
304.83172607421875
 51
20.3956298828125
  0
ARC
  8
_0-0_
  6
CONTINUOUS
 62
    7
 10
1613.6395559073344
 20
1705.7710469473298
 40
28.561708450317383
 50
319.9735107421875
 51
35.352020263671875
  0
ARC
  8
_0-0_
  6
CONTINUOUS
 62
    7
 10
1543.3817662955178
 20
1721.7799580801423
 40
31.579696655273438
 50
251.69134521484375
 51
315.48539733886713
  0
ARC
  8
_0-0_
  6
CONTINUOUS
 62
    7
 10
1543.3817662955178
 20
1721.7799580801423
 40
25.579694747924808
 50
252.0491027832031
 51
314.35118103027338
  0
ARC
  8
_0-0_
  6
CONTINUOUS
 62
    7
 10
1562.7713002920998
 20
1706.8905537832675
 40
8.4810886383056641
 50
0.6555938720703226
 51
109.18443298339845
  0
ARC
  8
_0-0_
  6
CONTINUOUS
 62
    7
 10
1549.5125951529396
 20
1727.0587666738925
 40
21.033605575561523
 50
23.523025512695302
 51
112.25177001953125
  0
ARC
  8
_0-0_
  6
CONTINUOUS
 62
    7
 10
1552.7798070670021
 20
1715.0044453848298
 40
20.136709213256836
 50
248.42848205566406
 51
336.53921508789057
  0
ARC
  8
_0-0_
  6
CONTINUOUS
 62
    7
 10
1562.060118651475
 20
1706.3507588613925
 40
7.8043107986450195
 50
62.711700439453139
 51
109.06141662597658
  0
ARC
  8
_0-0_
  6
CONTINUOUS
 62
    7
 10
1562.165160155381
 20
1710.2262471426423
 40
8.980250358581543
 50
358.99447631835937
 51
123.684814453125
  0
ARC
  8
_0-0_
  6
CONTINUOUS
 62
    7
 10
1547.2109288931742
 20
1718.2688496817048
 40
25.253614425659183
 50
345.21403503417969
 51
120.57934570312506
  0
ARC
  8
_0-0_
  6
CONTINUOUS
 62
    7
 10
1551.7337102652446
 20
1713.6266377676425
 40
19.811017990112305
 50
4.5484161376953143
 51
122.71263122558592
  0
ARC
  8
_0-0_
  6
CONTINUOUS
 62
    7
 10
1555.4454259634867
 20
1711.5944112051423
 40
15.878214836120605
 50
7.205474853515641
 51
117.68373107910159
  0
ARC
  8
_0-0_
  6
CONTINUOUS
 62
    7
 10
1595.2186574698342
 20
1586.5112736929354
 40
57.795074462890632
 50
59.312942504882834
 51
82.587631225585952
  0
ARC
  8
_0-0_
  6
CONTINUOUS
 62
    7
 10
1650.6675081015483
 20
1659.2975285757479
 40
33.373863220214844
 50
152.09487915039065
 51
221.18353271484378
  0
ARC
  8
_0-0_
  6
CONTINUOUS
 62
    7
 10
1658.962613082017
 20
1710.201466869205
 40
86.215873718261719
 50
291.91360473632812
 51
2.6686859130859375
  0
ARC
  8
_0-0_
  6
CONTINUOUS
 62
    7
 10
1658.962613082017
 20
1710.201466869205
 40
80.215866088867202
 50
292.16409301757818
 51
2.6479644775391193
  0
ARC
  8
_0-0_
  6
CONTINUOUS
 62
    7
 10
1663.2887844801799
 20
1685.2661565054354
 40
61.695068359375007
 50
244.89303588867187
 51
296.834716796875
  0
ARC
  8
_0-0_
  6
CONTINUOUS
 62
    7
 10
1604.812964415635
 20
1536.6441777456698
 40
107.20053863525392
 50
91.142868041992188
 51
189.39718627929687
  0
ARC
  8
_0-0_
  6
CONTINUOUS
 62
    7
 10
1604.812964415635
 20
1536.6441777456698
 40
101.20053863525392
 50
91.142868041992188
 51
189.39718627929687
  0
ARC
  8
_0-0_
  6
CONTINUOUS
 62
    7
 10
1696.8884820700541
 20
2064.4055608023104
 40
186.66014099121097
 50
95.519149780273438
 51
125.99618530273439
  0
ARC
  8
_0-0_
  6
CONTINUOUS
 62
    7
 10
1691.8298330069435
 20
2077.7150395620761
 40
178.96174621582031
 50
94.370849609375
 51
127.2511901855469
  0
ARC
  8
_0-0_
  6
CONTINUOUS
 62
    7
 10
1699.7193708182228
 20
2115.1301701773104
 40
136.659912109375
 50
3.9633789062499996
 51
98.747604370117188
  0
ARC
  8
_0-0_
  6
CONTINUOUS
 62
    7
 10
1699.7193708182228
 20
2115.1301701773104
 40
142.65989685058594
 50
3.821197509765625
 51
98.6795654296875
  0
ARC
  8
_0-0_
  6
CONTINUOUS
 62
    7
 10
1760.068221068467
 20
2105.6959965933261
 40
10.891336441040041
 50
56.510574340820305
 51
146.98822021484375
  0
ARC
  8
_0-0_
  6
CONTINUOUS
 62
    7
 10
1761.6098623038188
 20
2103.6435063589511
 40
12.110335350036623
 50
319.22787475585938
 51
131.83467102050781
  0
ARC
  8
_0-0_
  6
CONTINUOUS
 62
    7
 10
1742.8399343253031
 20
2114.3260014761386
 40
2.6729691028594971
 50
342.53712463378906
 51
138.53985595703128
  0
ARC
  8
_0-0_
  6
CONTINUOUS
 62
    7
 10
1741.9137563467873
 20
2114.7573979605136
 40
3.3117210865020752
 50
25.12725830078125
 51
138.31857299804687
  0
ARC
  8
_0-0_
  6
CONTINUOUS
 62
    7
 10
1740.8208608389748
 20
2103.4464848745761
 40
1.8192160129547119
 50
115.11460876464844
 51
281.60972595214844
  0
ARC
  8
_0-0_
  6
CONTINUOUS
 62
    7
 10
1723.640974974717
 20
2063.3933842886386
 40
37.811023712158203
 50
66.217269897460938
 51
95.892623901367188
  0
ARC
  8
_0-0_
  6
CONTINUOUS
 62
    7
 10
1645.6110238791359
 20
1825.8585994947848
 40
284.51690673828125
 50
70.391036987304688
 51
73.891510009765625
  0
ARC
  8
_0-0_
  6
CONTINUOUS
 62
    7
 10
1732.0602559805764
 20
2116.0618413198886
 40
13.568878173828125
 50
306.06716918945312
 51
349.21975708007812
  0
ARC
  8
_0-0_
  6
CONTINUOUS
 62
    7
 10
1709.8868589163676
 20
2146.2981389273104
 40
45.496852874755859
 50
278.02513122558599
 51
314.49510192871099
  0
ARC
  8
_0-0_
  6
CONTINUOUS
 62
    7
 10
1730.8629140616313
 20
2125.6766789663729
 40
26.137607574462894
 50
293.26528930664062
 51
330.14833068847656
  0
ARC
  8
_0-0_
  6
CONTINUOUS
 62
    7
 10
1734.3144826651469
 20
2123.1754887808261
 40
20.237432479858398
 50
283.06404113769531
 51
325.21376037597656
  0
ARC
  8
_0-0_
  6
CONTINUOUS
 62
    7
 10
1743.8793477774516
 20
2112.0398686636381
 40
14.90653705596924
 50
250.44097900390625
 51
353.75526428222656
  0
ARC
  8
_0-0_
  6
CONTINUOUS
 62
    7
 10
1746.7660665274514
 20
2111.2797368277011
 40
18.305446624755859
 50
251.95135498046881
 51
340.69168090820318
  0
ARC
  8
_0-0_
  6
CONTINUOUS
 62
    7
 10
1692.0695199728859
 20
2188.5966008413729
 40
87.376251220703125
 50
282.22312927246094
 51
303.92649841308594
  0
ARC
  8
_0-0_
  6
CONTINUOUS
 62
    7
 10
-3248.9452829598531
 20
12254.539166759341
 40
11298.4306640625
 50
296.04582214355469
 51
296.20034790039062
  0
ARC
  8
_0-0_
  6
CONTINUOUS
 62
    7
 10
1726.8814687491313
 20
2077.9026616323886
 40
14.616852760314941
 50
311.85244750976562
 51
4.434341430664082
  0
ARC
  8
_0-0_
  6
CONTINUOUS
 62
    7
 10
1733.2247609854594
 20
2072.2908452261386
 40
5.1678009033203134
 50
138.65126037597656
 51
208.11212158203128
  0
ARC
  8
_0-0_
  6
CONTINUOUS
 62
    7
 10
1726.6819600821391
 20
2053.5421879995761
 40
2.234450101852417
 50
102.06922912597658
 51
294.70050048828131
  0
ARC
  8
_0-0_
  6
CONTINUOUS
 62
    7
 10
1727.1663503409281
 20
2054.4126713980136
 40
3.3275671005249023
 50
125.56683349609375
 51
224.83761596679687
  0
ARC
  8
_0-0_
  6
CONTINUOUS
 62
    7
 10
1733.4054708243264
 20
2070.7903569448886
 40
4.9675168991088867
 50
135.01206970214844
 51
310.53662109375
  0
ARC
  8
_0-0_
  6
CONTINUOUS
 62
    7
 10
1714.5495176077736
 20
2073.1905034292636
 40
21.001031875610355
 50
303.74241638183594
 51
339.66909790039062
  0
ARC
  8
_0-0_
  6
CONTINUOUS
 62
    7
 10
1715.7143888235942
 20
2072.2265141714511
 40
17.854568481445313
 50
302.20826721191406
 51
339.32215881347656
  0
ARC
  8
_0-0_
  6
CONTINUOUS
 62
    7
 10
1715.5138578177346
 20
2081.1035893667631
 40
31.970449447631836
 50
292.2427978515625
 51
4.0746917724609473
  0
ARC
  8
_0-0_
  6
CONTINUOUS
 62
    7
 10
1719.4409818411723
 20
2014.0912602652008
 40
1.4999680519104006
 50
322.98251342773437
 51
142.9869384765625
  0
ARC
  8
_0-0_
  6
CONTINUOUS
 62
    7
 10
1745.8944997549906
 20
2057.2669194448881
 40
51.795074462890625
 50
240.04963684082031
 51
262.15863037109375
  0
ARC
  8
_0-0_
  6
CONTINUOUS
 62
    7
 10
1701.0251931906596
 20
2007.9383061636383
 40
1.5000050067901614
 50
142.98321533203125
 51
322.98356628417974
  0
ARC
  8
_0-0_
  6
CONTINUOUS
 62
    7
 10
1710.6579007864846
 20
2020.7136967886386
 40
1.5000050067901614
 50
322.98251342773437
 51
142.98321533203125
  0
ARC
  8
_0-0_
  6
CONTINUOUS
 62
    7
 10
1677.7569446326152
 20
1952.1115239370761
 40
61.46272277832032
 50
68.586273193359389
 51
114.8904266357422
  0
ARC
  8
_0-0_
  6
CONTINUOUS
 62
    7
 10
1745.8944997549906
 20
2057.2669194448881
 40
57.795074462890632
 50
164.14036560058594
 51
225.39883422851562
  0
ARC
  8
_0-0_
  6
CONTINUOUS
 62
    7
 10
1745.8944997549906
 20
2057.2669194448881
 40
51.795074462890625
 50
131.08564758300781
 51
224.51409912109378
  0
ARC
  8
_0-0_
  6
CONTINUOUS
 62
    7
 10
1718.1529264212504
 20
2083.0739262808261
 40
14.654475212097168
 50
323.23236083984375
 51
115.45039367675781
  0
ARC
  8
_0-0_
  6
CONTINUOUS
 62
    7
 10
1745.3474111319438
 20
2115.5534184683261
 40
32.243656158447266
 50
273.65611267089844
 51
322.07341003417969
  0
ARC
  8
_0-0_
  6
CONTINUOUS
 62
    7
 10
1715.2071103812114
 20
2082.6912358511386
 40
15.770129203796388
 50
333.703857421875
 51
70.243453979492173
  0
ARC
  8
_0-0_
  6
CONTINUOUS
 62
    7
 10
1747.8592519522563
 20
2109.6006596792636
 40
22.149341583251957
 50
237.77136230468753
 51
330.06369018554693
  0
ARC
  8
_0-0_
  6
CONTINUOUS
 62
    7
 10
1716.0797605276957
 20
2080.9772465933256
 40
22.280925750732422
 50
325.85566711425787
 51
26.342117309570373
  0
ARC
  8
_0-0_
  6
CONTINUOUS
 62
    7
 10
1721.7306661368264
 20
2075.0663579214511
 40
21.401081085205078
 50
298.08351135253906
 51
37.268890380859347
  0
ARC
  8
_0-0_
  6
CONTINUOUS
 62
    7
 10
1734.385802245225
 20
2065.2984135855136
 40
44.764617919921875
 50
122.14410400390626
 51
170.01361083984378
  0
ARC
  8
_0-0_
  6
CONTINUOUS
 62
    7
 10
1785.5333471060646
 20
1925.0374272573886
 40
5.8435368537902832
 50
37.76055908203125
 51
138.91563415527347
  0
ARC
  8
_0-0_
  6
CONTINUOUS
 62
    7
 10
1786.8153142691506
 20
1924.3251469839511
 40
7.7437319755554199
 50
31.328796386718746
 51
132.31858825683594
  0
ARC
  8
_0-0_
  6
CONTINUOUS
 62
    7
 10
1805.0741109610453
 20
1910.7946370352204
 40
6.1920528411865234
 50
345.98207092285156
 51
42.164749145507827
  0
ARC
  8
_0-0_
  6
CONTINUOUS
 62
    7
 10
1797.510718321885
 20
1895.9134648550446
 40
22.586067199707035
 50
57.447097778320313
 51
99.302459716796889
  0
ARC
  8
_0-0_
  6
CONTINUOUS
 62
    7
 10
1798.2567510367289
 20
1898.4519170034821
 40
21.745920181274414
 50
51.75372314453125
 51
97.48358154296875
  0
ARC
  8
_0-0_
  6
CONTINUOUS
 62
    7
 10
1795.0407323599711
 20
1913.1071294058261
 40
16.487859725952148
 50
285.92802429199219
 51
346.63088989257818
  0
ARC
  8
_0-0_
  6
CONTINUOUS
 62
    7
 10
1804.3285360098732
 20
1910.9075520742829
 40
8.7165975570678711
 50
324.16725158691406
 51
32.02781677246093
  0
ARC
  8
_0-0_
  6
CONTINUOUS
 62
    7
 10
1793.7049627066506
 20
1916.7859624136383
 40
20.821613311767578
 50
270.89926147460938
 51
328.17005920410156
  0
ARC
  8
_0-0_
  6
CONTINUOUS
 62
    7
 10
1785.8638067007914
 20
1896.5000127066071
 40
59.604286193847656
 50
327.44712829589849
 51
68.55900573730473
  0
ARC
  8
_0-0_
  6
CONTINUOUS
 62
    7
 10
1785.8638067007914
 20
1896.5000127066071
 40
53.604290008544922
 50
327.2362060546875
 51
68.378997802734361
  0
ARC
  8
_0-0_
  6
CONTINUOUS
 62
    7
 10
1781.917525267686
 20
1919.8179448355136
 40
12.051016807556154
 50
352.29666137695312
 51
46.890609741210916
  0
ARC
  8
_0-0_
  6
CONTINUOUS
 62
    7
 10
1777.1496572256935
 20
1920.0496342886386
 40
18.274885177612305
 50
359.88401794433599
 51
27.018478393554737
  0
ARC
  8
_0-0_
  6
CONTINUOUS
 62
    7
 10
1788.3918065787211
 20
1930.5998051870761
 40
12.917245864868166
 50
131.3980712890625
 51
180.47972106933594
  0
ARC
  8
_0-0_
  6
CONTINUOUS
 62
    7
 10
1778.7346791983498
 20
1935.1980717886386
 40
5.7250761985778809
 50
139.79505920410156
 51
235.29345703125003
  0
ARC
  8
_0-0_
  6
CONTINUOUS
 62
    7
 10
1709.8082761526957
 20
2001.3157475698886
 40
1.5000050067901614
 50
142.98321533203125
 51
325.45959472656256
  0
ARC
  8
_0-0_
  6
CONTINUOUS
 62
    7
 10
1700.0914621115578
 20
1972.0880864370758
 40
5.8435368537902832
 50
353.42657470703131
 51
94.58213806152348
  0
ARC
  8
_0-0_
  6
CONTINUOUS
 62
    7
 10
1713.6141690970317
 20
1975.6436284292636
 40
7.8043107986450195
 50
203.281005859375
 51
249.63053894042969
  0
ARC
  8
_0-0_
  6
CONTINUOUS
 62
    7
 10
1702.0517282248393
 20
1962.5318120230133
 40
18.274885177612305
 50
105.32398986816406
 51
132.4583740234375
  0
ARC
  8
_0-0_
  6
CONTINUOUS
 62
    7
 10
1698.6690683127299
 20
1965.8998540152011
 40
12.051016807556154
 50
85.452041625976563
 51
140.04618835449219
  0
ARC
  8
_0-0_
  6
CONTINUOUS
 62
    7
 10
1698.7015084982768
 20
1972.5558598745761
 40
7.7437319755554199
 50
0.023468017578125
 51
101.01380920410156
  0
ARC
  8
_0-0_
  6
CONTINUOUS
 62
    7
 10
1684.8695697546852
 20
1971.0795415152011
 40
16.487859725952148
 50
145.71119689941406
 51
206.41412353515625
  0
ARC
  8
_0-0_
  6
CONTINUOUS
 62
    7
 10
1676.4022235632792
 20
1976.9379399527008
 40
6.1920528411865234
 50
90.177047729492188
 51
146.35942077636719
  0
ARC
  8
_0-0_
  6
CONTINUOUS
 62
    7
 10
1676.987855887498
 20
1976.4628422964511
 40
8.7165975570678711
 50
100.31390380859376
 51
168.17480468750003
  0
ARC
  8
_0-0_
  6
CONTINUOUS
 62
    7
 10
1670.4975288719788
 20
1961.3242924917636
 40
22.586067199707035
 50
33.03962707519532
 51
74.895248413085938
  0
ARC
  8
_0-0_
  6
CONTINUOUS
 62
    7
 10
1671.8712471485987
 20
1963.5855229605136
 40
21.745920181274414
 50
34.858673095703125
 51
80.588485717773452
  0
ARC
  8
_0-0_
  6
CONTINUOUS
 62
    7
 10
1710.0333890677348
 20
1930.0628178823886
 40
6.1074662208557129
 50
175.32479858398438
 51
243.94606018066403
  0
ARC
  8
_0-0_
  6
CONTINUOUS
 62
    7
 10
1686.3246469260112
 20
1933.5880864370761
 40
17.879751205444336
 50
350.25149536132812
 51
18.77864074707033
  0
ARC
  8
_0-0_
  6
CONTINUOUS
 62
    7
 10
1712.6234464407817
 20
1949.9087651480136
 40
14.121945381164551
 50
228.42802429199222
 51
273.40422058105469
  0
ARC
  8
_0-0_
  6
CONTINUOUS
 62
    7
 10
1717.0506620169533
 20
1930.8123296011386
 40
28.74923133850098
 50
135.22602844238281
 51
196.10115051269531
  0
ARC
  8
_0-0_
  6
CONTINUOUS
 62
    7
 10
1728.54131982335
 20
1946.2172368277011
 40
16.196290969848633
 50
185.08287048339844
 51
201.88179016113281
  0
ARC
  8
_0-0_
  6
CONTINUOUS
 62
    7
 10
1689.8567514181987
 20
1970.9699223745758
 40
21.033605575561523
 50
200.09042358398437
 51
288.8192138671875
  0
ARC
  8
_0-0_
  6
CONTINUOUS
 62
    7
 10
1688.4884347678078
 20
1972.5701421011386
 40
20.821613311767578
 50
164.17239379882812
 51
221.44325256347659
  0
ARC
  8
_0-0_
  6
CONTINUOUS
 62
    7
 10
1705.5940274954692
 20
1974.7846196402008
 40
14.313859939575195
 50
185.54525756835937
 51
302.41853332519531
  0
ARC
  8
_0-0_
  6
CONTINUOUS
 62
    7
 10
1727.8372487784281
 20
1946.6961186636386
 40
21.732639312744141
 50
134.08547973632812
 51
198.27381896972656
  0
ARC
  8
_0-0_
  6
CONTINUOUS
 62
    7
 10
1701.1955575705424
 20
1984.5016606558261
 40
25.58049201965332
 50
189.5391845703125
 51
282.99029541015625
  0
ARC
  8
_0-0_
  6
CONTINUOUS
 62
    7
 10
1693.3732919455424
 20
1980.1970952261386
 40
24.994100570678714
 50
204.38894653320312
 51
293.83863830566406
  0
ARC
  8
_0-0_
  6
CONTINUOUS
 62
    7
 10
1713.6942777396098
 20
1974.7544682730136
 40
8.4810886383056641
 50
203.15794372558597
 51
311.68669128417974
  0
ARC
  8
_0-0_
  6
CONTINUOUS
 62
    7
 10
1712.9125089407817
 20
1938.0028813589511
 40
2.2590498924255371
 50
284.07829284667969
 51
74.614257812500028
  0
ARC
  8
_0-0_
  6
CONTINUOUS
 62
    7
 10
1738.4385061026467
 20
1949.8590825308258
 40
26.520238876342773
 50
134.23193359375
 51
191.03627014160156
  0
ARC
  8
_0-0_
  6
CONTINUOUS
 62
    7
 10
1702.2774972678078
 20
1977.9474614370758
 40
12.917245864868166
 50
311.86224365234375
 51
0.9443359375000014
  0
ARC
  8
_0-0_
  6
CONTINUOUS
 62
    7
 10
1712.1808500052348
 20
1973.9068120230136
 40
5.7250761985778809
 50
257.04856872558599
 51
352.54638671875006
  0
ARC
  8
_0-0_
  6
CONTINUOUS
 62
    7
 10
1708.3222379446877
 20
1974.6468022573886
 40
11.605480194091797
 50
179.81254577636719
 51
315.18205261230469
  0
ARC
  8
_0-0_
  6
CONTINUOUS
 62
    7
 10
1693.0370187521828
 20
1978.1787846792633
 40
28.46975135803223
 50
340.89665222167974
 51
49.429092407226605
  0
ARC
  8
_0-0_
  6
CONTINUOUS
 62
    7
 10
1686.014711356248
 20
1984.2709477652011
 40
29.811265945434574
 50
348.171875
 51
32.900619506835923
  0
ARC
  8
_0-0_
  6
CONTINUOUS
 62
    7
 10
1760.6988057852641
 20
1919.3611577261386
 40
14.121945381164551
 50
218.93814086914062
 51
263.91445922851562
  0
ARC
  8
_0-0_
  6
CONTINUOUS
 62
    7
 10
1751.7041311026469
 20
1911.5554936636386
 40
2.2590498924255371
 50
57.728424072265625
 51
208.26315307617187
  0
ARC
  8
_0-0_
  6
CONTINUOUS
 62
    7
 10
1747.2486867667092
 20
1928.6400883902011
 40
16.196290969848633
 50
290.46040344238281
 51
307.25949096679687
  0
ARC
  8
_0-0_
  6
CONTINUOUS
 62
    7
 10
1758.3803395987406
 20
1915.3909428823886
 40
9.5324487686157227
 50
285.72666931152344
 51
356.63102722167969
  0
ARC
  8
_0-0_
  6
CONTINUOUS
 62
    7
 10
1743.6020192862406
 20
1909.7708256948886
 40
28.74923133850098
 50
296.24119567871094
 51
357.11637878417969
  0
ARC
  8
_0-0_
  6
CONTINUOUS
 62
    7
 10
1766.349486327256
 20
1888.9298833120761
 40
17.879751205444336
 50
113.56381225585939
 51
142.09107971191406
  0
ARC
  8
_0-0_
  6
CONTINUOUS
 62
    7
 10
1738.9254445792094
 20
1911.8614018667636
 40
30.549377441406254
 50
329.85023498535162
 51
12.282165527343807
  0
ARC
  8
_0-0_
  6
CONTINUOUS
 62
    7
 10
1742.9164418936625
 20
1894.7085698355136
 40
4.5213818550109863
 50
54.749893188476562
 51
178.82426452636719
  0
ARC
  8
_0-0_
  6
CONTINUOUS
 62
    7
 10
1747.7745656729594
 20
1904.0793050039706
 40
6.1074662208557129
 50
248.39668273925781
 51
317.01731872558594
  0
ARC
  8
_0-0_
  6
CONTINUOUS
 62
    7
 10
1751.4993581534281
 20
1903.2241338003573
 40
15.836068153381348
 50
231.13504028320315
 51
327.85453796386724
  0
ARC
  8
_0-0_
  6
CONTINUOUS
 62
    7
 10
1751.5803212881938
 20
1909.8734868277011
 40
15.431556701660156
 50
239.14450073242187
 51
352.62776184082031
  0
ARC
  8
_0-0_
  6
CONTINUOUS
 62
    7
 10
1751.1856679678813
 20
1895.7385380972323
 40
12.823924064636232
 50
184.19099426269531
 51
293.56982421875
  0
ARC
  8
_0-0_
  6
CONTINUOUS
 62
    7
 10
1747.5214528799904
 20
1909.6660969961579
 40
27.306579589843754
 50
280.17120361328125
 51
349.44145202636719
  0
ARC
  8
_0-0_
  6
CONTINUOUS
 62
    7
 10
1743.2741536856545
 20
1938.4085210073886
 40
26.520238876342773
 50
301.30596923828125
 51
358.11030578613281
  0
ARC
  8
_0-0_
  6
CONTINUOUS
 62
    7
 10
1755.430296874131
 20
1922.6206792105136
 40
12.191327095031738
 50
259.72019958496094
 51
2.5158843994140501
  0
ARC
  8
_0-0_
  6
CONTINUOUS
 62
    7
 10
1701.5708932639018
 20
1926.9660161245758
 40
12.823924064636232
 50
198.77224731445315
 51
308.15135192871099
  0
ARC
  8
_0-0_
  6
CONTINUOUS
 62
    7
 10
1706.379397368516
 20
1920.1602299917636
 40
4.5213818550109863
 50
313.51824951171875
 51
77.592239379882813
  0
ARC
  8
_0-0_
  6
CONTINUOUS
 62
    7
 10
1714.3332242728127
 20
1933.6387456167636
 40
27.306579589843754
 50
142.90086364746094
 51
212.17118835449219
  0
ARC
  8
_0-0_
  6
CONTINUOUS
 62
    7
 10
1729.524779296006
 20
1931.6719487417636
 40
35.164619445800781
 50
124.83172607421875
 51
200.3956298828125
  0
ARC
  8
_0-0_
  6
CONTINUOUS
 62
    7
 10
1727.4736013174904
 20
1938.0071538198886
 40
28.561708450317383
 50
139.9735107421875
 51
215.35202026367188
  0
ARC
  8
_0-0_
  6
CONTINUOUS
 62
    7
 10
1797.7313909293071
 20
1921.9982426870761
 40
31.579696655273438
 50
71.69134521484375
 51
135.48539733886719
  0
ARC
  8
_0-0_
  6
CONTINUOUS
 62
    7
 10
1797.7313909293071
 20
1921.9982426870761
 40
25.579694747924808
 50
72.049102783203125
 51
134.35118103027344
  0
ARC
  8
_0-0_
  6
CONTINUOUS
 62
    7
 10
1778.341856932725
 20
1936.8876469839511
 40
8.4810886383056641
 50
180.65559387207031
 51
289.18443298339844
  0
ARC
  8
_0-0_
  6
CONTINUOUS
 62
    7
 10
1791.6005620718852
 20
1916.7194340933258
 40
21.033605575561523
 50
203.52302551269531
 51
292.25177001953125
  0
ARC
  8
_0-0_
  6
CONTINUOUS
 62
    7
 10
1788.3333501578227
 20
1928.7737553823886
 40
20.136709213256836
 50
68.428482055664063
 51
156.53921508789065
  0
ARC
  8
_0-0_
  6
CONTINUOUS
 62
    7
 10
1779.0530385733498
 20
1937.4274419058258
 40
7.8043107986450195
 50
242.71170043945312
 51
289.06141662597656
  0
ARC
  8
_0-0_
  6
CONTINUOUS
 62
    7
 10
1778.9479970694435
 20
1933.5519536245761
 40
8.980250358581543
 50
178.99447631835937
 51
303.684814453125
  0
ARC
  8
_0-0_
  6
CONTINUOUS
 62
    7
 10
1793.9022283316508
 20
1925.5093510855136
 40
25.253614425659183
 50
165.21403503417969
 51
300.57934570312506
  0
ARC
  8
_0-0_
  6
CONTINUOUS
 62
    7
 10
1789.3794469595805
 20
1930.1515629995761
 40
19.811017990112305
 50
184.54841613769531
 51
302.71263122558594
  0
ARC
  8
_0-0_
  6
CONTINUOUS
 62
    7
 10
1785.6677312613383
 20
1932.1837895620761
 40
15.878214836120605
 50
187.20547485351565
 51
297.68373107910156
  0
ARC
  8
_0-0_
  6
CONTINUOUS
 62
    7
 10
1745.8944997549906
 20
2057.2669194448881
 40
57.795074462890632
 50
239.31294250488281
 51
262.58763122558594
  0
ARC
  8
_0-0_
  6
CONTINUOUS
 62
    7
 10
1690.4456491232768
 20
1984.4806645620758
 40
33.373863220214844
 50
332.09487915039068
 51
41.183532714843778
  0
ARC
  8
_0-0_
  6
CONTINUOUS
 62
    7
 10
1707.7925443411721
 20
1931.5972417105136
 40
105.78631591796876
 50
180.93508911132812
 51
230.48905944824219
  0
ARC
  8
_0-0_
  6
CONTINUOUS
 62
    7
 10
1682.1505450964821
 20
1933.5767338980133
 40
86.215873718261719
 50
111.91360473632812
 51
182.66868591308597
  0
ARC
  8
_0-0_
  6
CONTINUOUS
 62
    7
 10
1682.1505450964821
 20
1933.5767338980133
 40
80.215866088867202
 50
112.16409301757814
 51
182.64796447753906
  0
ARC
  8
_0-0_
  6
CONTINUOUS
 62
    7
 10
1677.8243732214821
 20
1958.5120366323883
 40
61.695068359375007
 50
64.893035888671875
 51
116.834716796875
  0
ARC
  8
_0-0_
  6
CONTINUOUS
 62
    7
 10
1736.3001928091899
 20
2107.1340459097323
 40
107.20053863525392
 50
271.14286804199219
 51
9.3971862792968786
  0
ARC
  8
_0-0_
  6
CONTINUOUS
 62
    7
 10
1736.3001928091899
 20
2107.1340459097323
 40
101.20053863525392
 50
271.14286804199219
 51
9.3971862792968786
  0
ARC
  8
_0-0_
  6
CONTINUOUS
 62
    7
 10
1612.8343839407817
 20
1598.7669194448883
 40
221.24357604980472
 50
309.6236572265625
 51
31.532302856445313
  0
ARC
  8
_0-0_
  6
CONTINUOUS
 62
    7
 10
1612.8343839407817
 20
1598.7669194448883
 40
227.24353027343753
 50
309.57575988769526
 51
31.532302856445256
  0
ARC
  8
_0-0_
  6
CONTINUOUS
 62
    7
 10
1596.6925649405375
 20
1587.2077611196933
 40
247.05116271972656
 50
31.859436035156236
 51
60.945220947265611
  0
ARC
  8
_0-0_
  6
CONTINUOUS
 62
    7
 10
1596.6925649405375
 20
1587.2077611196933
 40
241.05116271972659
 50
31.859436035156236
 51
60.945220947265611
  0
ARC
  8
_0-0_
  6
CONTINUOUS
 62
    7
 10
1744.4205922842875
 20
2056.5704472769198
 40
241.05116271972659
 50
211.85943603515622
 51
240.94522094726562
  0
ARC
  8
_0-0_
  6
CONTINUOUS
 62
    7
 10
1744.4205922842875
 20
2056.5704472769198
 40
247.05116271972656
 50
211.85943603515622
 51
240.94522094726562
  0
ARC
  8
_0-0_
  6
CONTINUOUS
 62
    7
 10
1728.2787732840434
 20
2045.0112736929354
 40
227.24353027343753
 50
129.57575988769531
 51
211.53230285644531
  0
ARC
  8
_0-0_
  6
CONTINUOUS
 62
    7
 10
1728.2787732840434
 20
2045.0112736929354
 40
221.24357604980472
 50
129.6236572265625
 51
211.52342224121094
  0
ARC
  8
_0-0_
  6
CONTINUOUS
 62
    7
 10
1600.3891896963967
 20
1727.0457051504548
 40
102.77992248535156
 50
83.806930541992216
 51
151.37336730957034
  0
ARC
  8
_0-0_
  6
CONTINUOUS
 62
    7
 10
1633.3206128836525
 20
1712.1809590567048
 40
105.78631591796876
 50
0.9350891113281296
 51
46.641387939453125
  0
ARC
  8
_0-0_
  6
CONTINUOUS
 62
    7
 10
1600.3891896963967
 20
1727.0457051504548
 40
108.77993011474609
 50
83.77940368652348
 51
151.26063537597659
  0
ARC
  8
_0-0_
  6
CONTINUOUS
 62
    7
 10
1632.7958173514262
 20
1710.571584056705
 40
112.34831237792969
 50
1.8587646484375038
 51
52.253082275390632
  0
ARC
  8
_0-0_
  6
CONTINUOUS
 62
    7
 10
1740.7239675284279
 20
1916.7324956167636
 40
102.77992248535156
 50
261.52310180664062
 51
331.37336730957031
  0
ARC
  8
_0-0_
  6
CONTINUOUS
 62
    7
 10
1740.7239675284279
 20
1916.7324956167636
 40
108.77993011474609
 50
263.77940368652349
 51
331.26063537597662
  0
ARC
  8
_0-0_
  6
CONTINUOUS
 62
    7
 10
1708.3173398733989
 20
1933.2066167105136
 40
112.34831237792969
 50
181.8587646484375
 51
232.79171752929687
  0
ARC
  8
_0-0_
  6
CONTINUOUS
 62
    7
 10
1660.6537761450661
 20
1814.5963495481906
 40
1.4999929666519165
 50
152.93547058105469
 51
332.93312072753906
  0
ARC
  8
_0-0_
  6
CONTINUOUS
 62
    7
 10
1670.4491027505055
 20
1809.5911839712558
 40
1.5000059604644778
 50
152.93339538574216
 51
332.93367004394531
  0
ARC
  8
_0-0_
  6
CONTINUOUS
 62
    7
 10
1670.6640443266288
 20
1834.1870005834994
 40
1.5000070333480835
 50
332.93367004394531
 51
152.93574523925781
  0
ARC
  8
_0-0_
  6
CONTINUOUS
 62
    7
 10
1680.4593848944558
 20
1829.1818974722321
 40
1.5000070333480835
 50
332.93339538574219
 51
152.93574523925784
  0
ARC
  8
_0-0_
  6
CONTINUOUS
 62
    7
 10
1590.1966542960063
 20
1647.8640721548495
 40
182.60594177246094
 50
67.527786254882798
 51
83.307708740234361
  0
ARC
  8
_0-0_
  6
CONTINUOUS
 62
    7
 10
1590.1966542960063
 20
1647.8640721548495
 40
182.60594177246094
 50
50.661972045898423
 51
63.130126953124986
  0
ARC
  8
_0-0_
  6
CONTINUOUS
 62
    7
 10
1750.9165029288188
 20
1995.9141362417636
 40
188.60594177246097
 50
247.38331604003906
 51
263.30770874023437
  0
ARC
  8
_0-0_
  6
CONTINUOUS
 62
    7
 10
1750.9165029288188
 20
1995.9141362417636
 40
182.60594177246094
 50
247.52778625488281
 51
263.30770874023437
  0
ARC
  8
_0-0_
  6
CONTINUOUS
 62
    7
 10
1750.9165029288188
 20
1995.9141362417636
 40
182.60594177246094
 50
232.88479614257818
 51
243.13012695312506
  0
ARC
  8
_0-0_
  6
CONTINUOUS
 62
    7
 10
1750.9165029288188
 20
1995.9141362417636
 40
188.60594177246097
 50
233.68626403808594
 51
243.12388610839844
  0
ARC
  8
_0-0_
  6
CONTINUOUS
 62
    7
 10
1590.1966542960063
 20
1647.8640721548495
 40
188.60594177246097
 50
65.236068725585938
 51
65.366729736328125
  0
ARC
  8
_0-0_
  6
CONTINUOUS
 62
    7
 10
1590.1966542960063
 20
1647.8640721548495
 40
188.60594177246097
 50
67.38134765625
 51
83.307708740234361
  0
ARC
  8
_0-0_
  6
CONTINUOUS
 62
    7
 10
1590.1966542960063
 20
1647.8640721548495
 40
188.60594177246097
 50
53.686264038085952
 51
63.123886108398459
  0
ENDSEC
  0
EOF
