  0
SECTION
  2
HEADER
  9
$ACADVER
  1
AC1009
  9
$INSBASE
 10
0
 20
0
 30
0
  9
$EXTMIN
 10
0
 20
0
  9
$EXTMAX
 10
2100
 20
1485
  9
$LIMMIN
 10
0
 20
0
  9
$LIMMAX
 10
2100
 20
1485
  9
$LTSCALE
 40
5
  0
ENDSEC
  0
SECTION
  2
TABLES
  0
TABLE
  2
LTYPE
 70
     9
  0
LTYPE
  2
CONTINUOUS
 70
    64
  3
実線
 72
    65
 73
     0
 40
0.0
  0
LTYPE
  2
DASHED1
 70
    64
  3
--  --  --  --  --  --  --  --  
 72
    65
 73
     2
 40
2.5
 49
1.25
 49
-1.25
  0
LTYPE
  2
DASHED2
 70
    64
  3
----    ----    ----    ----    
 72
    65
 73
     2
 40
5.0
 49
2.5
 49
-2.5
  0
LTYPE
  2
DASHED3
 70
    64
  3
------  ------  ------  ------  
 72
    65
 73
     2
 40
5.0
 49
3.75
 49
-1.25
  0
LTYPE
  2
CENTER1
 70
    64
  3
----- - ----- - ----- - ----- - 
 72
    65
 73
     4
 40
10.0
 49
6.25
 49
-1.25
 49
1.25
 49
-1.25
  0
LTYPE
  2
CENTER2
 70
    64
  3
----------  --  ----------  --  
 72
    65
 73
     4
 40
20.0
 49
12.5
 49
-2.5
 49
2.5
 49
-2.5
  0
LTYPE
  2
PHANTOM1
 70
    64
  3
--- - - --- - - --- - - --- - - 
 72
    65
 73
     6
 40
10.0
 49
3.25
 49
-1.25
 49
1.25
 49
-1.25
 49
1.25
 49
-1.25
  0
LTYPE
  2
PHANTOM2
 70
    64
  3
--------  -  -  --------  -  -  
 72
    65
 73
     6
 40
20.0
 49
10.0
 49
-2.5
 49
1.25
 49
-2.5
 49
1.25
 49
-2.5
  0
LTYPE
  2
DOT
 70
    64
  3
-   -   -   -   -   -   -   -   
 72
    65
 73
     2
 40
2.5
 49
0.625
 49
-1.875
  0
LTYPE
  2
DUMMY
 70
    64
  3
ダミー
 72
    65
 73
     0
 40
0.0
  0
LTYPE
  2
RAND1
 70
    64
  3
ランダム線1
 72
    65
 73
     4
 40
10.0
 49
1.0
 49
-2.0
 49
3.0
 49
-4.0
  0
LTYPE
  2
RAND2
 70
    64
  3
ランダム線2
 72
    65
 73
     4
 40
14.0
 49
2.0
 49
-3.0
 49
4.0
 49
-5.0
  0
LTYPE
  2
RAND3
 70
    64
  3
ランダム線3
 72
    65
 73
     4
 40
18.0
 49
3.0
 49
-4.0
 49
5.0
 49
-6.0
  0
LTYPE
  2
RAND4
 70
    64
  3
ランダム線4
 72
    65
 73
     4
 40
22.0
 49
4.0
 49
-5.0
 49
6.0
 49
-7.0
  0
LTYPE
  2
RAND5
 70
    64
  3
ランダム線5
 72
    65
 73
     4
 40
26.0
 49
5.0
 49
-6.0
 49
7.0
 49
-8.0
  0
LTYPE
  2
LONG1
 70
    64
  3
----------  --  ----------  --  
 72
    65
 73
     4
 40
40.0
 49
32.5
 49
-2.5
 49
2.5
 49
-2.5
  0
LTYPE
  2
LONG2
 70
    64
  3
--------  -  -  --------  -  -  
 72
    65
 73
     6
 40
40.0
 49
30.0
 49
-2.5
 49
1.25
 49
-2.5
 49
1.25
 49
-2.5
  0
LTYPE
  2
LONG3
 70
    64
  3
+++++++++++++++..+++++++++++++++
 72
    65
 73
     2
 40
40.0
 49
37.5
 49
-2.5
  0
LTYPE
  2
LONG4
 70
    64
  3
+++++++++++++++..+++++++++++++++
 72
    65
 73
     2
 40
80.0
 49
75.0
 49
-5.0
  0
LTYPE
  2
LONG5
 70
    64
  3
----------  --  ----------  --  
 72
    65
 73
     4
 40
60.0
 49
37.5
 49
-7.5
 49
7.5
 49
-7.5
  0
LTYPE
  2
dashed
 70
   64
  3
-------   -------------   ------
 72
   65
 73
    2
 40
7.5
 49
6
 49
-1.5
  0
LTYPE
  2
dashed_spaced
 70
   64
  3
----        --------        ----
 72
   65
 73
    2
 40
12
 49
6
 49
-6
  0
LTYPE
  2
long_dashed_dotted
 70
   64
  3
------------- --- --------------
 72
   65
 73
    4
 40
15.25
 49
12
 49
-1.5
 49
0.25
 49
-1.5
  0
LTYPE
  2
long_dashed_double-dotted
 70
   64
  3
----------- --- --- ------------
 72
   65
 73
    6
 40
17
 49
12
 49
-1.5
 49
0.25
 49
-1.5
 49
0.25
 49
-1.5
  0
LTYPE
  2
long_dashed_triplicate-dotted
 70
   64
  3
--------- --- --- --- ----------
 72
   65
 73
    8
 40
18.75
 49
12
 49
-1.5
 49
0.25
 49
-1.5
 49
0.25
 49
-1.5
 49
0.25
 49
-1.5
  0
LTYPE
  2
dotted
 70
   64
  3
   -       -       -       -    
 72
   65
 73
    2
 40
1.75
 49
0.25
 49
-1.5
  0
LTYPE
  2
chain
 70
   64
  3
-------------- -- --------------
 72
   65
 73
    4
 40
18.5
 49
12
 49
-1.5
 49
3.5
 49
-1.5
  0
LTYPE
  2
chain_double_dash
 70
   64
  3
------------ -- -- -------------
 72
   65
 73
    6
 40
23.5
 49
12
 49
-1.5
 49
3.5
 49
-1.5
 49
3.5
 49
-1.5
  0
LTYPE
  2
dashed_dotted
 70
   64
  3
-----------     -     ----------
 72
   65
 73
    4
 40
9.25
 49
6
 49
-1.5
 49
0.25
 49
-1.5
  0
LTYPE
  2
double-dashed_dotted
 70
   64
  3
------   -----------   -   -----
 72
   65
 73
    6
 40
16.75
 49
6
 49
-1.5
 49
6
 49
-1.5
 49
0.25
 49
-1.5
  0
LTYPE
  2
dashed_double-dotted
 70
   64
  3
---------    -    -    ---------
 72
   65
 73
    6
 40
11
 49
6
 49
-1.5
 49
0.25
 49
-1.5
 49
0.25
 49
-1.5
  0
LTYPE
  2
double-dashed_double-dotted
 70
   64
  3
-----   ---------   -   -   ----
 72
   65
 73
    8
 40
18.5
 49
6
 49
-1.5
 49
6
 49
-1.5
 49
0.25
 49
-1.5
 49
0.25
 49
-1.5
  0
LTYPE
  2
dashed_triplicate-dotted
 70
   64
  3
-------    -    -    -    ------
 72
   65
 73
    8
 40
12.75
 49
6
 49
-1.5
 49
0.25
 49
-1.5
 49
0.25
 49
-1.5
 49
0.25
 49
-1.5
  0
LTYPE
  2
double-dashed_triplicate-dotted
 70
   64
  3
-----  ---------  -  -  -  -----
 72
   65
 73
   10
 40
20.25
 49
6
 49
-1.5
 49
6
 49
-1.5
 49
0.25
 49
-1.5
 49
0.25
 49
-1.5
 49
0.25
 49
-1.5
  0
LTYPE
  2
undefined
 70
   64
  3
--------------------------------
 72
   65
 73
    0
 40
0
  0
LTYPE
  2
BORDER
 70
   64
  3
----     --------     -     ----
 72
   65
 73
    6
 40
1.76
 49
0.5
 49
-0.25
 49
0.5
 49
-0.25
 49
0.01
 49
-0.25
  0
LTYPE
  2
BORDER2
 70
   64
  3
----     --------     -     ----
 72
   65
 73
    6
 40
0.885
 49
0.25
 49
-0.125
 49
0.25
 49
-0.125
 49
0.01
 49
-0.125
  0
LTYPE
  2
BORDERX2
 70
   64
  3
----     --------     -     ----
 72
   65
 73
    6
 40
3.5099999999999998
 49
1
 49
-0.5
 49
1
 49
-0.5
 49
0.01
 49
-0.5
  0
LTYPE
  2
CENTER
 70
   64
  3
----------    ----    ----------
 72
   65
 73
    4
 40
2
 49
1.25
 49
-0.25
 49
0.25
 49
-0.25
  0
LTYPE
  2
CENTER2_21
 70
   64
  3
----------    ----    ----------
 72
   65
 73
    4
 40
1.125
 49
0.75
 49
-0.125
 49
0.125
 49
-0.125
  0
LTYPE
  2
CENTERX2
 70
   64
  3
----------    ----    ----------
 72
   65
 73
    4
 40
4
 49
2.5
 49
-0.5
 49
0.5
 49
-0.5
  0
LTYPE
  2
DASHDOT
 70
   64
  3
--------        -        -------
 72
   65
 73
    4
 40
1.01
 49
0.5
 49
-0.25
 49
0.01
 49
-0.25
  0
LTYPE
  2
DASHDOT2
 70
   64
  3
--------        -        -------
 72
   65
 73
    4
 40
0.51
 49
0.25
 49
-0.125
 49
0.01
 49
-0.125
  0
LTYPE
  2
DASHDOTX2
 70
   64
  3
--------        -        -------
 72
   65
 73
    4
 40
2.0099999999999998
 49
1
 49
-0.5
 49
0.01
 49
-0.5
  0
LTYPE
  2
DASHED
 70
   64
  3
------     -----------     -----
 72
   65
 73
    2
 40
0.75
 49
0.5
 49
-0.25
  0
LTYPE
  2
DASHED2_27
 70
   64
  3
------     -----------     -----
 72
   65
 73
    2
 40
0.375
 49
0.25
 49
-0.125
  0
LTYPE
  2
DASHEDX2
 70
   64
  3
------     -----------     -----
 72
   65
 73
    2
 40
1.5
 49
1
 49
-0.5
  0
LTYPE
  2
DIVIDE
 70
   64
  3
------      -      -      ------
 72
   65
 73
    6
 40
1.27
 49
0.5
 49
-0.25
 49
0.01
 49
-0.25
 49
0.01
 49
-0.25
  0
LTYPE
  2
DIVIDE2
 70
   64
  3
------      -      -      ------
 72
   65
 73
    6
 40
0.645
 49
0.25
 49
-0.125
 49
0.01
 49
-0.125
 49
0.01
 49
-0.125
  0
LTYPE
  2
DIVIDEX2
 70
   64
  3
------      -      -      ------
 72
   65
 73
    6
 40
2.5199999999999996
 49
1
 49
-0.5
 49
0.01
 49
-0.5
 49
0.01
 49
-0.5
  0
LTYPE
  2
DOT_32
 70
   64
  3
-               -               
 72
   65
 73
    2
 40
0.26
 49
0.01
 49
-0.25
  0
ENDTAB
  0
TABLE
  2
STYLE
  5
3
100
AcDbSymbolTable
 70
     1
  0
STYLE
  5
10
100
AcDbSymbolTableRecord
100
AcDbTextStyleTableRecord
  2
STANDARD
 70
     0
 40
0.0
 41
1.0
 50
0.0
 71
     0
 42
0.2
  3
txt
  4
bigfont.shx
  0
STYLE
  5
26
100
AcDbSymbolTableRecord
100
AcDbTextStyleTableRecord
  2
TATEGAKI
 70
    68
 40
0.0
 41
1.0
 50
0.0
 71
     0
 42
1.0
  3
txt
  4
bigfont.shx
  0
ENDTAB
  0
TABLE
  2
LAYER
 70
    3
  0
LAYER
  2
_0-0_0
 70
   64
 62
    7
  6
CONTINUOUS
  0
LAYER
  2
_0-4_P-6853
 70
   64
 62
    7
  6
CONTINUOUS
  0
LAYER
  2
ADD_LINE
 70
   64
 62
    7
  6
CONTINUOUS
  0
ENDTAB
  0
ENDSEC
  0
SECTION
  2
BLOCKS
  0
ENDSEC
  0
SECTION
  2
ENTITIES
  0
ARC
  8
_0-4_P-6853
  6
CONTINUOUS
 62
    7
 10
972.8848119915483
 20
1000.4003606909314
 40
94.939857147651793
 50
249.54084964291263
 51
291.03854489951209
  0
ARC
  8
_0-4_P-6853
  6
CONTINUOUS
 62
    7
 10
991.16277364633197
 20
955.20440782013236
 40
46.202526826170455
 50
290.00378089132232
 51
295.71152829943389
  0
ARC
  8
_0-0_0
  6
CONTINUOUS
 62
    7
 10
978.96819671016806
 20
967.38138122947998
 40
20.36130145467256
 50
143.3444956143322
 51
176.41713581117421
  0
ARC
  8
_0-0_0
  6
CONTINUOUS
 62
    7
 10
920.70568706707763
 20
986.45155260740978
 40
44.88445765548547
 50
341.02033661433848
 51
350.81231461433083
  0
ARC
  8
_0-0_0
  6
CONTINUOUS
 62
    7
 10
955.81439249307994
 20
974.94243815031166
 40
7.9593334185887352
 50
299.18305189223992
 51
337.16559661433479
  0
ARC
  8
_0-0_0
  6
CONTINUOUS
 62
    7
 10
960.48660254902893
 20
1022.5097650417608
 40
26.87869514681325
 50
255.0868396143311
 51
281.7283666143303
  0
ARC
  8
_0-0_0
  6
CONTINUOUS
 62
    7
 10
1004.2901157777941
 20
957.9743386850954
 40
46.906536489846793
 50
136.43991161434161
 51
152.63244661434209
  0
ARC
  8
_0-0_0
  6
CONTINUOUS
 62
    7
 10
969.93408324674704
 20
978.35127230458966
 40
5.0075819194307751
 50
91.700422016830132
 51
169.2547909223849
  0
ARC
  8
_0-0_0
  6
CONTINUOUS
 62
    7
 10
979.69530257985059
 20
969.12563853031975
 40
22.611750976532253
 50
120.6074498929574
 51
185.83319661433973
  0
ARC
  8
_0-0_0
  6
CONTINUOUS
 62
    7
 10
984.70780171322588
 20
975.26421812969318
 40
20.823843013700262
 50
92.139359614343135
 51
133.7829406143438
  0
ARC
  8
_0-0_0
  6
CONTINUOUS
 62
    7
 10
973.38720264584606
 20
977.40798275642715
 40
2.173780081831862
 50
180.20863861432309
 51
251.47582034220761
  0
ARC
  8
_0-0_0
  6
CONTINUOUS
 62
    7
 10
987.95399840163191
 20
978.89034575437995
 40
16.80676769385391
 50
103.38288861433141
 51
185.08717561433491
  0
ARC
  8
_0-0_0
  6
CONTINUOUS
 62
    7
 10
992.07954325655862
 20
950.15959828913401
 40
47.242163641156637
 50
104.5995096143287
 51
133.12584961432589
  0
ARC
  8
_0-0_0
  6
CONTINUOUS
 62
    7
 10
978.55324363510761
 20
957.5777673617531
 40
40.619103479807222
 50
80.617914356261423
 51
108.07559724182501
  0
ARC
  8
_0-0_0
  6
CONTINUOUS
 62
    7
 10
975.28121026552628
 20
940.74733823165184
 40
59.3535394220212
 50
78.042463614332178
 51
97.223465614340995
  0
ARC
  8
_0-0_0
  6
CONTINUOUS
 62
    7
 10
988.3433064324422
 20
980.26112826627559
 40
15.29013568637412
 50
122.00609661432432
 51
195.38944179192461
  0
ARC
  8
_0-0_0
  6
CONTINUOUS
 62
    7
 10
971.45002348247976
 20
970.63654340154233
 40
18.22534292091953
 50
129.79654161432941
 51
208.1365851554219
  0
ARC
  8
_0-0_0
  6
CONTINUOUS
 62
    7
 10
950.34838353202997
 20
965.22621890079517
 40
7.0368768655545333
 50
333.23129615130767
 51
13.153590614322736
  0
ARC
  8
_0-0_0
  6
CONTINUOUS
 62
    7
 10
955.55910864731572
 20
1003.4889720909125
 40
7.2317022024743238
 50
173.51072961432649
 51
254.02851761433857
  0
ARC
  8
_0-0_0
  6
CONTINUOUS
 62
    7
 10
967.10687064316994
 20
1008.9237445520218
 40
1.4269123800426911
 50
0.782767445131545
 51
200.05903249092543
  0
ARC
  8
_0-0_0
  6
CONTINUOUS
 62
    7
 10
974.93324145645886
 20
1011.5102625463535
 40
9.6690345432160072
 50
198.54938565434219
 51
271.18714461432671
  0
ARC
  8
_0-0_0
  6
CONTINUOUS
 62
    7
 10
956.60762942744043
 20
1000.2950301306753
 40
9.1589846981933025
 50
114.34618618065871
 51
154.02635761433581
  0
ARC
  8
_0-0_0
  6
CONTINUOUS
 62
    7
 10
966.4235900864162
 20
1011.9308661395327
 40
12.379823996502981
 50
199.38471543212751
 51
276.46786361434602
  0
ARC
  8
_0-0_0
  6
CONTINUOUS
 62
    7
 10
953.41384130300082
 20
1007.3533109663292
 40
1.4117522285450643
 50
19.384715432127539
 51
114.34618618065871
  0
LINE
  8
_0-0_0
  6
CONTINUOUS
 62
    7
 10
997.51354464630037
 20
995.09824319636846
 11
997.28145715332494
 21
995.12044247930362
  0
LINE
  8
_0-0_0
  6
CONTINUOUS
 62
    7
 10
997.28145715332494
 20
995.12044247930362
 11
994.09429786105306
 21
995.09701658146298
  0
LINE
  8
_0-0_0
  6
CONTINUOUS
 62
    7
 10
996.90266400978896
 20
1000.415407893547
 11
998.44013022254728
 21
1000.8302071707807
  0
LINE
  8
_0-0_0
  6
CONTINUOUS
 62
    7
 10
994.09429786105306
 20
995.09701658146298
 11
991.06889906833646
 21
994.71188205508474
  0
LINE
  8
_0-0_0
  6
CONTINUOUS
 62
    7
 10
993.42433121929025
 20
999.9082397776624
 11
996.90266400978896
 21
1000.415407893547
  0
LINE
  8
_0-0_0
  6
CONTINUOUS
 62
    7
 10
991.06889906833646
 20
994.71188205508474
 11
987.64309673717889
 21
993.82760860682856
  0
LINE
  8
_0-0_0
  6
CONTINUOUS
 62
    7
 10
990.68645863007976
 20
1000.016923583381
 11
993.42433121929025
 21
999.9082397776624
  0
LINE
  8
_0-0_0
  6
CONTINUOUS
 62
    7
 10
987.64309673717889
 20
993.82760860682856
 11
984.06151568918358
 21
992.33655417276941
  0
LINE
  8
_0-0_0
  6
CONTINUOUS
 62
    7
 10
987.18511443885177
 20
1000.6450455259682
 11
990.68645863007976
 21
1000.016923583381
  0
LINE
  8
_0-0_0
  6
CONTINUOUS
 62
    7
 10
984.06151568918358
 20
992.33655417276941
 11
981.93063466345188
 21
990.78508164718028
  0
LINE
  8
_0-0_0
  6
CONTINUOUS
 62
    7
 10
983.90839683372747
 20
1001.5264068620002
 11
987.18511443885177
 21
1000.6450455259682
  0
LINE
  8
_0-0_0
  6
CONTINUOUS
 62
    7
 10
981.93063466345188
 20
990.78508164718028
 11
979.98890272854601
 21
987.81937703308859
  0
LINE
  8
_0-0_0
  6
CONTINUOUS
 62
    7
 10
979.40649874517567
 20
1003.3009607371182
 11
983.90839683372747
 21
1001.5264068620002
  0
LINE
  8
_0-0_0
  6
CONTINUOUS
 62
    7
 10
979.98890272854601
 20
987.81937703308859
 11
979.25976717751132
 21
985.02055827314973
  0
LINE
  8
_0-0_0
  6
CONTINUOUS
 62
    7
 10
976.19391039731693
 20
1005.0212812367206
 11
979.40649874517567
 21
1003.3009607371182
  0
LINE
  8
_0-0_0
  6
CONTINUOUS
 62
    7
 10
979.25976717751132
 20
985.02055827314973
 11
979.14997847283814
 21
982.626756254366
  0
LINE
  8
_0-0_0
  6
CONTINUOUS
 62
    7
 10
973.90606976866593
 20
1006.5167399486767
 11
976.19391039731693
 21
1005.0212812367206
  0
LINE
  8
_0-0_0
  6
CONTINUOUS
 62
    7
 10
979.14997847283814
 20
982.626756254366
 11
979.19345611510403
 21
979.44000204276165
  0
LINE
  8
_0-0_0
  6
CONTINUOUS
 62
    7
 10
970.91720320100717
 20
1008.8773772546685
 11
973.90606976866593
 21
1006.5167399486767
  0
LINE
  8
_0-0_0
  6
CONTINUOUS
 62
    7
 10
979.19345611510403
 20
979.44000204276165
 11
978.49725279811662
 21
976.73993740458263
  0
LINE
  8
_0-0_0
  6
CONTINUOUS
 62
    7
 10
970.16430323021336
 20
1010.159181353391
 11
970.91720320100717
 21
1008.8773772546685
  0
LINE
  8
_0-0_0
  6
CONTINUOUS
 62
    7
 10
978.49725279811662
 20
976.73993740458263
 11
976.98080830366985
 21
974.512775552932
  0
LINE
  8
_0-0_0
  6
CONTINUOUS
 62
    7
 10
968.79269491939237
 20
1011.6990794622478
 11
970.16430323021336
 21
1010.159181353391
  0
LINE
  8
_0-0_0
  6
CONTINUOUS
 62
    7
 10
976.98080830366985
 20
974.512775552932
 11
975.21724124355785
 21
973.50737995380905
  0
LINE
  8
_0-0_0
  6
CONTINUOUS
 62
    7
 10
966.26292412806504
 20
1012.4514631614114
 11
968.79269491939237
 21
1011.6990794622478
  0
LINE
  8
_0-0_0
  6
CONTINUOUS
 62
    7
 10
975.21724124355785
 20
973.50737995380905
 11
972.91548815333329
 21
973.22998785032701
  0
LINE
  8
_0-0_0
  6
CONTINUOUS
 62
    7
 10
972.91548815333329
 20
973.22998785032701
 11
970.38032719185128
 21
974.12062920108451
  0
LINE
  8
_0-0_0
  6
CONTINUOUS
 62
    7
 10
970.38032719185128
 20
974.12062920108451
 11
968.81771534908944
 21
975.33929101486115
  0
LINE
  8
_0-0_0
  6
CONTINUOUS
 62
    7
 10
963.56940906321654
 20
1008.77597071921
 11
963.62635116934996
 21
1010.8521619821274
  0
LINE
  8
_0-0_0
  6
CONTINUOUS
 62
    7
 10
968.81771534908944
 20
975.33929101486115
 11
968.13504610110635
 21
976.66595153351204
  0
LINE
  8
_0-0_0
  6
CONTINUOUS
 62
    7
 10
964.12297342411671
 20
1006.8420782435152
 11
963.56940906321654
 21
1008.77597071921
  0
LINE
  8
_0-0_0
  6
CONTINUOUS
 62
    7
 10
964.38701110180307
 20
1005.774253353512
 11
964.12297342411671
 21
1006.8420782435152
  0
LINE
  8
_0-0_0
  6
CONTINUOUS
 62
    7
 10
960.31668243489798
 20
1006.3817991882509
 11
961.95291393230252
 21
1004.5070705378818
  0
LINE
  8
_0-0_0
  6
CONTINUOUS
 62
    7
 10
959.652866940894
 20
1008.7198412239986
 11
960.31668243489798
 21
1006.3817991882509
  0
LINE
  8
_0-0_0
  6
CONTINUOUS
 62
    7
 10
966.82466811411268
 20
976.52227202005292
 11
965.74580442167928
 21
972.41416683850946
  0
LINE
  8
_0-0_0
  6
CONTINUOUS
 62
    7
 10
959.66583157834464
 20
1009.1508263905687
 11
959.652866940894
 21
1008.7198412239986
  0
LINE
  8
_0-0_0
  6
CONTINUOUS
 62
    7
 10
965.74580442167928
 20
972.41416683850946
 11
964.7060070112974
 21
969.66149258662836
  0
LINE
  8
_0-0_0
  6
CONTINUOUS
 62
    7
 10
964.7060070112974
 20
969.66149258662836
 11
963.55007747958382
 21
967.43604445801088
  0
LINE
  8
_0-0_0
  6
CONTINUOUS
 62
    7
 10
955.39544207072584
 20
1011.0472151617373
 11
957.25108159876584
 21
1011.3110432697833
  0
LINE
  8
_0-0_0
  6
CONTINUOUS
 62
    7
 10
963.55007747958382
 20
967.43604445801088
 11
962.21653010187902
 21
966.13839409085256
  0
LINE
  8
_0-0_0
  6
CONTINUOUS
 62
    7
 10
952.66543261278105
 20
1010.2502529797428
 11
955.39544207072584
 21
1011.0472151617373
  0
LINE
  8
_0-0_0
  6
CONTINUOUS
 62
    7
 10
962.21653010187902
 20
966.13839409085256
 11
960.89178529765422
 21
965.47658887732609
  0
LINE
  8
_0-0_0
  6
CONTINUOUS
 62
    7
 10
950.32264131780323
 20
1009.1255868702726
 11
952.66543261278105
 21
1010.2502529797428
  0
LINE
  8
_0-0_0
  6
CONTINUOUS
 62
    7
 10
960.89178529765422
 20
965.47658887732609
 11
960.20974088136666
 21
962.58683524821186
  0
LINE
  8
_0-0_0
  6
CONTINUOUS
 62
    7
 10
948.3678635003206
 20
1007.7979422745741
 11
950.32264131780323
 21
1009.1255868702726
  0
LINE
  8
_0-0_0
  6
CONTINUOUS
 62
    7
 10
960.20974088136666
 20
962.58683524821186
 11
959.2747893257349
 21
960.6349454912073
  0
LINE
  8
_0-0_0
  6
CONTINUOUS
 62
    7
 10
946.28002504065785
 20
1005.838721406835
 11
948.3678635003206
 21
1007.7979422745741
  0
LINE
  8
_0-0_0
  6
CONTINUOUS
 62
    7
 10
959.2747893257349
 20
960.6349454912073
 11
958.18943802455522
 21
959.32829801310368
  0
LINE
  8
_0-0_0
  6
CONTINUOUS
 62
    7
 10
945.11255869115212
 20
1003.502003096743
 11
946.28002504065785
 21
1005.838721406835
  0
LINE
  8
_0-0_0
  6
CONTINUOUS
 62
    7
 10
958.18943802455522
 20
959.32829801310368
 11
956.35689188536389
 21
958.86289115431168
  0
LINE
  8
_0-0_0
  6
CONTINUOUS
 62
    7
 10
945.06692297908614
 20
1001.3689547515539
 11
945.11255869115212
 21
1003.502003096743
  0
LINE
  8
_0-0_0
  6
CONTINUOUS
 62
    7
 10
956.35689188536389
 20
958.86289115431168
 11
953.97370004041045
 21
959.63181281814241
  0
LINE
  8
_0-0_0
  6
CONTINUOUS
 62
    7
 10
945.59215819821338
 20
999.80438167148816
 11
945.06692297908614
 21
1001.3689547515539
  0
LINE
  8
_0-0_0
  6
CONTINUOUS
 62
    7
 10
953.97370004041045
 20
959.63181281814241
 11
953.06612976534677
 21
960.67293164332909
  0
LINE
  8
_0-0_0
  6
CONTINUOUS
 62
    7
 10
947.63120110062118
 20
997.25874117277499
 11
945.59215819821338
 21
999.80438167148816
  0
LINE
  8
_0-0_0
  6
CONTINUOUS
 62
    7
 10
953.06612976534677
 20
960.67293164332909
 11
952.05821387997821
 21
963.31390760961744
  0
LINE
  8
_0-0_0
  6
CONTINUOUS
 62
    7
 10
950.66025286836407
 20
994.96922795771957
 11
947.63120110062118
 21
997.25874117277499
  0
LINE
  8
_0-0_0
  6
CONTINUOUS
 62
    7
 10
952.05821387997821
 20
963.31390760961744
 11
951.56865857399009
 21
965.23427923368081
  0
LINE
  8
_0-0_0
  6
CONTINUOUS
 62
    7
 10
953.80770486970857
 20
993.62490088141431
 11
950.66025286836407
 21
994.96922795771957
  0
LINE
  8
_0-0_0
  6
CONTINUOUS
 62
    7
 10
951.56865857399009
 20
965.23427923368081
 11
951.16110547878918
 21
968.48560384597727
  0
LINE
  8
_0-0_0
  6
CONTINUOUS
 62
    7
 10
957.83329108849955
 20
993.01337423721952
 11
953.80770486970857
 21
993.62490088141431
  0
LINE
  8
_0-0_0
  6
CONTINUOUS
 62
    7
 10
951.16110547878918
 20
968.48560384597727
 11
951.3071670838309
 21
972.13637002300834
  0
LINE
  8
_0-0_0
  6
CONTINUOUS
 62
    7
 10
961.3502379103827
 20
993.05514711078695
 11
957.83329108849955
 21
993.01337423721952
  0
LINE
  8
_0-0_0
  6
CONTINUOUS
 62
    7
 10
951.3071670838309
 20
972.13637002300834
 11
951.98297026312105
 21
975.37842310726546
  0
LINE
  8
_0-0_0
  6
CONTINUOUS
 62
    7
 10
963.14681290033775
 20
992.18884898450506
 11
961.3502379103827
 21
993.05514711078695
  0
LINE
  8
_0-0_0
  6
CONTINUOUS
 62
    7
 10
951.98297026312105
 20
975.37842310726546
 11
953.64150081672517
 21
979.43230486636435
  0
LINE
  8
_0-0_0
  6
CONTINUOUS
 62
    7
 10
964.01863632897948
 20
991.15466467551323
 11
963.14681290033775
 21
992.18884898450506
  0
LINE
  8
_0-0_0
  6
CONTINUOUS
 62
    7
 10
953.64150081672517
 20
979.43230486636435
 11
955.95479683083227
 21
982.87851765367247
  0
LINE
  8
_0-0_0
  6
CONTINUOUS
 62
    7
 10
963.79539543867452
 20
990.16640946007055
 11
964.01863632897948
 21
991.15466467551323
  0
LINE
  8
_0-0_0
  6
CONTINUOUS
 62
    7
 10
955.95479683083227
 20
982.87851765367247
 11
958.11203275391813
 21
985.13038927572336
  0
LINE
  8
_0-0_0
  6
CONTINUOUS
 62
    7
 10
962.47559196484997
 20
988.50354259074595
 11
963.79539543867452
 21
990.16640946007055
  0
LINE
  8
_0-0_0
  6
CONTINUOUS
 62
    7
 10
958.11203275391813
 20
985.13038927572336
 11
960.23212572864259
 21
986.80521377664502
  0
LINE
  8
_0-0_0
  6
CONTINUOUS
 62
    7
 10
960.23212572864259
 20
986.80521377664502
 11
962.47559196484997
 21
988.50354259074595
  0
ARC
  8
_0-0_0
  6
CONTINUOUS
 62
    7
 10
957.54916069683475
 20
1009.2144988153061
 40
2.1176283428175968
 50
358.27698229230509
 51
98.091873894846302
  0
ARC
  8
_0-0_0
  6
CONTINUOUS
 62
    7
 10
963.01653345057628
 20
1005.4353796863604
 40
1.4117522285450643
 50
221.11390635588489
 51
13.88876166261932
  0
ARC
  8
_0-0_0
  6
CONTINUOUS
 62
    7
 10
967.5073935070975
 20
976.34297582245244
 40
0.7058761142725323
 50
27.229317370983459
 51
165.28535391938169
  0
ARC
  8
_0-0_0
  6
CONTINUOUS
 62
    7
 10
959.35118862681452
 20
968.60968867050906
 40
0.7058761142725323
 50
176.41713581117421
 51
299.18305189223992
  0
ARC
  8
_0-0_0
  6
CONTINUOUS
 62
    7
 10
956.00090336696996
 20
962.37479995080776
 40
0.7058761142725323
 50
208.1365851554219
 51
333.23129615130762
  0
ARC
  8
_0-0_0
  6
CONTINUOUS
 62
    7
 10
972.92084245861804
 20
976.0161313872984
 40
0.7058761142725323
 50
251.47582034220761
 51
15.389441791924643
  0
ARC
  8
_0-4_P-6853
  6
CONTINUOUS
 62
    7
 10
965.89081993118441
 20
1010.0919571472205
 40
2.3886670266782222
 50
81.038020640256335
 51
161.44258240008779
  0
ARC
  8
_0-4_P-6853
  6
CONTINUOUS
 62
    7
 10
991.02449186370677
 20
955.29170019775177
 40
40.331980753689621
 50
290.14595238091613
 51
294.45151228759528
  0
ARC
  8
_0-4_P-6853
  6
CONTINUOUS
 62
    7
 10
977.13337762976732
 20
1005.8584171380612
 40
101.5598238340953
 50
185.24311119083029
 51
248.37140060416709
  0
ARC
  8
_0-4_P-6853
  6
CONTINUOUS
 62
    7
 10
919.86600188004491
 20
784.89037110866025
 40
44.936057068061565
 50
42.866696965717459
 51
225.7401803128447
  0
ARC
  8
_0-4_P-6853
  6
CONTINUOUS
 62
    7
 10
919.96133521911759
 20
784.86739352992936
 40
39.001804067287232
 50
44.488905893552442
 51
224.89091929637792
  0
ARC
  8
_0-0_0
  6
CONTINUOUS
 62
    7
 10
943.19684513871255
 20
778.18899104735806
 40
20.36130145467256
 50
319.24459506580735
 51
352.31723526265455
  0
ARC
  8
_0-0_0
  6
CONTINUOUS
 62
    7
 10
998.19572420346412
 20
751.10920582081667
 40
44.884457655485448
 50
144.84941626265709
 51
154.6413942626458
  0
ARC
  8
_0-0_0
  6
CONTINUOUS
 62
    7
 10
965.04142086776835
 20
767.41482088437897
 40
7.9593334185887343
 50
158.49613426265273
 51
196.47867898475499
  0
ARC
  8
_0-0_0
  6
CONTINUOUS
 62
    7
 10
994.94421359727176
 20
804.70158960173057
 40
26.87869514681325
 50
213.93336426264631
 51
240.57489126264929
  0
ARC
  8
_0-0_0
  6
CONTINUOUS
 62
    7
 10
918.51143038927512
 20
789.15814476802109
 40
46.906536489846779
 50
343.02928426264077
 51
359.22181926264119
  0
ARC
  8
_0-0_0
  6
CONTINUOUS
 62
    7
 10
957.32506056269904
 20
779.72106323990363
 40
5.0075819194307734
 50
326.40693995458975
 51
43.961308860147589
  0
ARC
  8
_0-0_0
  6
CONTINUOUS
 62
    7
 10
943.89584954371799
 20
779.94469868789588
 40
22.611750976532253
 50
309.8285342626462
 51
15.054280984013539
  0
ARC
  8
_0-0_0
  6
CONTINUOUS
 62
    7
 10
944.60099067603073
 20
787.83837229677124
 40
20.823843013700262
 50
1.8787902626489452
 51
43.522371262654005
  0
ARC
  8
_0-0_0
  6
CONTINUOUS
 62
    7
 10
954.19604087688742
 20
781.45975946463966
 40
2.173780081831862
 50
244.1859105347699
 51
315.45309226265391
  0
ARC
  8
_0-0_0
  6
CONTINUOUS
 62
    7
 10
944.81350190298394
 20
792.7006180195574
 40
16.80676769385391
 50
310.5745552626426
 51
32.278842262639458
  0
ARC
  8
_0-0_0
  6
CONTINUOUS
 62
    7
 10
921.7830818100515
 20
775.03495299938902
 40
47.24216364115663
 50
2.5358812626472984
 51
31.062221262648734
  0
ARC
  8
_0-0_0
  6
CONTINUOUS
 62
    7
 10
936.64195176008639
 20
770.88718279755972
 40
40.619103479807208
 50
27.586133635170579
 51
55.043816520718757
  0
ARC
  8
_0-0_0
  6
CONTINUOUS
 62
    7
 10
927.21952364075548
 20
756.56281909751806
 40
59.3535394220212
 50
38.438265262644059
 51
57.619267262645558
  0
ARC
  8
_0-0_0
  6
CONTINUOUS
 62
    7
 10
945.49308916030941
 20
793.95312215027047
 40
15.29013568637412
 50
300.27228908505128
 51
13.655634262654853
  0
ARC
  8
_0-0_0
  6
CONTINUOUS
 62
    7
 10
950.84904932382278
 20
775.26276813080904
 40
18.22534292091953
 50
287.52514572154672
 51
5.8651892626483111
  0
ARC
  8
_0-0_0
  6
CONTINUOUS
 62
    7
 10
962.16025392641063
 20
756.64537115270832
 40
7.0368768655545306
 50
122.50814026265381
 51
162.43043472567552
  0
ARC
  8
_0-0_0
  6
CONTINUOUS
 62
    7
 10
985.17498375161927
 20
787.65363051997315
 40
7.2317022024743229
 50
241.63321326264253
 51
322.15100126265139
  0
ARC
  8
_0-0_0
  6
CONTINUOUS
 62
    7
 10
980.71404840658386
 20
799.61137339496213
 40
1.4269123800426899
 50
295.60269838605171
 51
134.87896343185713
  0
ARC
  8
_0-0_0
  6
CONTINUOUS
 62
    7
 10
976.92412356004888
 20
806.9311155420404
 40
9.6690345432160072
 50
224.47458626264489
 51
297.11234522264851
  0
ARC
  8
_0-0_0
  6
CONTINUOUS
 62
    7
 10
982.19283015807366
 20
786.1020439074307
 40
9.1589846981933007
 50
341.63537326265202
 51
21.31554469632384
  0
ARC
  8
_0-0_0
  6
CONTINUOUS
 62
    7
 10
983.30440518431897
 20
801.28460509599847
 40
12.379823996502981
 50
219.19386726264369
 51
296.27701544485649
  0
ARC
  8
_0-0_0
  6
CONTINUOUS
 62
    7
 10
989.41009491499835
 20
788.91819382659708
 40
1.4117522285450643
 50
21.315544696323844
 51
116.27701544485642
  0
LINE
  8
_0-0_0
  6
CONTINUOUS
 62
    7
 10
947.78468214069312
 20
812.19873243940719
 11
949.48536361130004
 21
810.82770368282036
  0
LINE
  8
_0-0_0
  6
CONTINUOUS
 62
    7
 10
949.48536361130004
 20
810.82770368282036
 11
951.74853088094119
 21
808.58346505098348
  0
LINE
  8
_0-0_0
  6
CONTINUOUS
 62
    7
 10
953.45690144196749
 20
814.35006514116117
 11
952.80136555472097
 21
815.46014448761889
  0
LINE
  8
_0-0_0
  6
CONTINUOUS
 62
    7
 10
951.74853088094119
 20
808.58346505098348
 11
953.64320713625693
 21
806.19357627827412
  0
LINE
  8
_0-0_0
  6
CONTINUOUS
 62
    7
 10
955.59023946760612
 20
811.55634229026998
 11
953.45690144196749
 21
814.35006514116117
  0
LINE
  8
_0-0_0
  6
CONTINUOUS
 62
    7
 10
953.64320713625693
 20
806.19357627827412
 11
955.47541767087318
 21
803.16685103466534
  0
LINE
  8
_0-0_0
  6
CONTINUOUS
 62
    7
 10
957.6243957344127
 20
809.72059536692029
 11
955.59023946760612
 21
811.55634229026998
  0
LINE
  8
_0-0_0
  6
CONTINUOUS
 62
    7
 10
955.47541767087318
 20
803.16685103466534
 11
956.99497012899894
 21
799.59726752174845
  0
LINE
  8
_0-0_0
  6
CONTINUOUS
 62
    7
 10
960.56763856685484
 20
807.72277907169132
 11
957.6243957344127
 21
809.72059536692029
  0
LINE
  8
_0-0_0
  6
CONTINUOUS
 62
    7
 10
956.99497012899894
 20
799.59726752174845
 11
957.43471829604732
 21
796.99835573158327
  0
LINE
  8
_0-0_0
  6
CONTINUOUS
 62
    7
 10
963.52720988415456
 20
806.0630761807497
 11
960.56763856685484
 21
807.72277907169132
  0
LINE
  8
_0-0_0
  6
CONTINUOUS
 62
    7
 10
957.43471829604732
 20
796.99835573158327
 11
956.75078497040113
 21
793.52014326378469
  0
LINE
  8
_0-0_0
  6
CONTINUOUS
 62
    7
 10
967.98730839767029
 20
804.18593763894262
 11
963.52720988415456
 21
806.0630761807497
  0
LINE
  8
_0-0_0
  6
CONTINUOUS
 62
    7
 10
956.75078497040113
 20
793.52014326378469
 11
955.31620645939313
 21
791.00876722692306
  0
LINE
  8
_0-0_0
  6
CONTINUOUS
 62
    7
 10
971.48735561537842
 20
803.17109972677918
 11
967.98730839767029
 21
804.18593763894262
  0
LINE
  8
_0-0_0
  6
CONTINUOUS
 62
    7
 10
955.31620645939313
 20
791.00876722692306
 11
953.72171835568247
 21
789.21992700154442
  0
LINE
  8
_0-0_0
  6
CONTINUOUS
 62
    7
 10
974.16884477581152
 20
802.64173465071826
 11
971.48735561537842
 21
803.17109972677918
  0
LINE
  8
_0-0_0
  6
CONTINUOUS
 62
    7
 10
953.72171835568247
 20
789.21992700154442
 11
951.46342130124879
 21
786.97106348312241
  0
LINE
  8
_0-0_0
  6
CONTINUOUS
 62
    7
 10
977.95639337417185
 20
802.24122564362369
 11
974.16884477581152
 21
802.64173465071826
  0
LINE
  8
_0-0_0
  6
CONTINUOUS
 62
    7
 10
951.46342130124879
 20
786.97106348312241
 11
950.07430737723757
 21
784.553335083354
  0
LINE
  8
_0-0_0
  6
CONTINUOUS
 62
    7
 10
979.39073118699275
 20
802.63180873623742
 11
977.95639337417185
 21
802.24122564362369
  0
LINE
  8
_0-0_0
  6
CONTINUOUS
 62
    7
 10
950.07430737723757
 20
784.553335083354
 11
949.60235986227053
 21
781.90057814739043
  0
LINE
  8
_0-0_0
  6
CONTINUOUS
 62
    7
 10
981.44796548232023
 20
802.77457637298335
 11
979.39073118699275
 21
802.63180873623742
  0
LINE
  8
_0-0_0
  6
CONTINUOUS
 62
    7
 10
949.60235986227053
 20
781.90057814739043
 11
950.16104492590341
 21
779.94894803747695
  0
LINE
  8
_0-0_0
  6
CONTINUOUS
 62
    7
 10
983.78315936500303
 20
801.54466132807113
 11
981.44796548232023
 21
802.77457637298335
  0
LINE
  8
_0-0_0
  6
CONTINUOUS
 62
    7
 10
950.16104492590341
 20
779.94894803747695
 11
951.61345133907969
 21
778.14187048562781
  0
LINE
  8
_0-0_0
  6
CONTINUOUS
 62
    7
 10
951.61345133907969
 20
778.14187048562781
 11
954.04912773862657
 21
777.00707376683204
  0
LINE
  8
_0-0_0
  6
CONTINUOUS
 62
    7
 10
954.04912773862657
 20
777.00707376683204
 11
956.01846289440584
 21
776.7865937638644
  0
LINE
  8
_0-0_0
  6
CONTINUOUS
 62
    7
 10
983.14085508992116
 20
797.03337400453916
 11
984.55116447575824
 21
798.55811660573045
  0
LINE
  8
_0-0_0
  6
CONTINUOUS
 62
    7
 10
956.01846289440584
 20
776.7865937638644
 11
957.43391970708274
 21
777.25834310974176
  0
LINE
  8
_0-0_0
  6
CONTINUOUS
 62
    7
 10
981.39334720115835
 20
796.03708600003506
 11
983.14085508992116
 21
797.03337400453916
  0
LINE
  8
_0-0_0
  6
CONTINUOUS
 62
    7
 10
980.45820505797383
 20
795.45788390837038
 11
981.39334720115835
 21
796.03708600003506
  0
LINE
  8
_0-0_0
  6
CONTINUOUS
 62
    7
 10
983.79401992956537
 20
793.04769168773578
 11
981.31350945385452
 21
792.85038784716778
  0
LINE
  8
_0-0_0
  6
CONTINUOUS
 62
    7
 10
985.90283966664072
 20
794.25598423820725
 11
983.79401992956537
 21
793.04769168773578
  0
LINE
  8
_0-0_0
  6
CONTINUOUS
 62
    7
 10
958.27071959853106
 20
776.2397655657827
 11
956.17122445743587
 21
772.54753112008552
  0
LINE
  8
_0-0_0
  6
CONTINUOUS
 62
    7
 10
986.19477960326913
 20
794.57329696885142
 11
985.90283966664072
 21
794.25598423820725
  0
LINE
  8
_0-0_0
  6
CONTINUOUS
 62
    7
 10
956.17122445743587
 20
772.54753112008552
 11
954.99108949337574
 21
769.85203939162284
  0
LINE
  8
_0-0_0
  6
CONTINUOUS
 62
    7
 10
954.99108949337574
 20
769.85203939162284
 11
954.26248998160054
 21
767.45246959541055
  0
LINE
  8
_0-0_0
  6
CONTINUOUS
 62
    7
 10
990.57444671542567
 20
792.94509768593366
 11
989.43163257611116
 21
794.43068819869404
  0
LINE
  8
_0-0_0
  6
CONTINUOUS
 62
    7
 10
954.26248998160054
 20
767.45246959541055
 11
954.30935889305727
 21
765.59234906460961
  0
LINE
  8
_0-0_0
  6
CONTINUOUS
 62
    7
 10
991.97002928244626
 20
790.46710461519615
 11
990.57444671542567
 21
792.94509768593366
  0
LINE
  8
_0-0_0
  6
CONTINUOUS
 62
    7
 10
954.30935889305727
 20
765.59234906460961
 11
954.79431980090453
 21
764.19315363335909
  0
LINE
  8
_0-0_0
  6
CONTINUOUS
 62
    7
 10
992.85963328561616
 20
788.02535327094336
 11
991.97002928244626
 21
790.46710461519615
  0
LINE
  8
_0-0_0
  6
CONTINUOUS
 62
    7
 10
954.79431980090453
 20
764.19315363335909
 11
953.26250672408833
 21
761.64965027765811
  0
LINE
  8
_0-0_0
  6
CONTINUOUS
 62
    7
 10
993.32985965258888
 20
785.70960638235397
 11
992.85963328561616
 21
788.02535327094336
  0
LINE
  8
_0-0_0
  6
CONTINUOUS
 62
    7
 10
953.26250672408833
 20
761.64965027765811
 11
952.56704607303186
 21
759.60017656040509
  0
LINE
  8
_0-0_0
  6
CONTINUOUS
 62
    7
 10
993.45385012755958
 20
782.84914449581368
 11
993.32985965258888
 21
785.70960638235397
  0
LINE
  8
_0-0_0
  6
CONTINUOUS
 62
    7
 10
952.56704607303186
 20
759.60017656040509
 11
952.43011065659198
 21
757.90708360054396
  0
LINE
  8
_0-0_0
  6
CONTINUOUS
 62
    7
 10
992.65573608045656
 20
780.36192836009809
 11
993.45385012755958
 21
782.84914449581368
  0
LINE
  8
_0-0_0
  6
CONTINUOUS
 62
    7
 10
952.43011065659198
 20
757.90708360054396
 11
953.41552579233746
 21
756.29345851809194
  0
LINE
  8
_0-0_0
  6
CONTINUOUS
 62
    7
 10
991.19760304092483
 20
778.80442205187478
 11
992.65573608045656
 21
780.36192836009809
  0
LINE
  8
_0-0_0
  6
CONTINUOUS
 62
    7
 10
953.41552579233746
 20
756.29345851809194
 11
955.65744085909637
 21
755.17781487946854
  0
LINE
  8
_0-0_0
  6
CONTINUOUS
 62
    7
 10
989.72847169161219
 20
778.05248187024836
 11
991.19760304092483
 21
778.80442205187478
  0
LINE
  8
_0-0_0
  6
CONTINUOUS
 62
    7
 10
955.65744085909637
 20
755.17781487946854
 11
957.03418961783325
 21
755.28815556849281
  0
LINE
  8
_0-0_0
  6
CONTINUOUS
 62
    7
 10
986.49096429135523
 20
777.65684650803792
 11
989.72847169161219
 21
778.05248187024836
  0
LINE
  8
_0-0_0
  6
CONTINUOUS
 62
    7
 10
957.03418961783325
 20
755.28815556849281
 11
959.60083738234528
 21
756.47262495999871
  0
LINE
  8
_0-0_0
  6
CONTINUOUS
 62
    7
 10
982.72438233001196
 20
778.13631048172385
 11
986.49096429135523
 21
777.65684650803792
  0
LINE
  8
_0-0_0
  6
CONTINUOUS
 62
    7
 10
959.60083738234528
 20
756.47262495999871
 11
961.29311469455183
 21
757.50397798914059
  0
LINE
  8
_0-0_0
  6
CONTINUOUS
 62
    7
 10
979.5337015570401
 20
779.37454535194934
 11
982.72438233001196
 21
778.13631048172385
  0
LINE
  8
_0-0_0
  6
CONTINUOUS
 62
    7
 10
961.29311469455183
 20
757.50397798914059
 11
963.85693582173667
 21
759.54457410001942
  0
LINE
  8
_0-0_0
  6
CONTINUOUS
 62
    7
 10
976.22710549105034
 20
781.75062020301402
 11
979.5337015570401
 21
779.37454535194934
  0
LINE
  8
_0-0_0
  6
CONTINUOUS
 62
    7
 10
963.85693582173667
 20
759.54457410001942
 11
966.30396424923163
 21
762.25777876366942
  0
LINE
  8
_0-0_0
  6
CONTINUOUS
 62
    7
 10
973.74088815283721
 20
784.23846731810954
 11
976.22710549105034
 21
781.75062020301402
  0
LINE
  8
_0-0_0
  6
CONTINUOUS
 62
    7
 10
966.30396424923163
 20
762.25777876366942
 11
968.08646089986178
 21
765.04889392230621
  0
LINE
  8
_0-0_0
  6
CONTINUOUS
 62
    7
 10
971.85048102063297
 20
784.87448226497918
 11
973.74088815283721
 21
784.23846731810954
  0
LINE
  8
_0-0_0
  6
CONTINUOUS
 62
    7
 10
968.08646089986178
 20
765.04889392230621
 11
969.73346680118755
 21
769.10747156416437
  0
LINE
  8
_0-0_0
  6
CONTINUOUS
 62
    7
 10
970.50414582489964
 20
784.74411809650155
 11
971.85048102063297
 21
784.87448226497918
  0
LINE
  8
_0-0_0
  6
CONTINUOUS
 62
    7
 10
969.73346680118755
 20
769.10747156416437
 11
970.48747167837314
 21
773.18903960469368
  0
LINE
  8
_0-0_0
  6
CONTINUOUS
 62
    7
 10
969.97312872621842
 20
783.88127065525714
 11
970.50414582489964
 21
784.74411809650155
  0
LINE
  8
_0-0_0
  6
CONTINUOUS
 62
    7
 10
970.48747167837314
 20
773.18903960469368
 11
970.51837793667232
 21
776.30731435738141
  0
LINE
  8
_0-0_0
  6
CONTINUOUS
 62
    7
 10
969.75492032501563
 20
781.76954327506314
 11
969.97312872621842
 21
783.88127065525714
  0
LINE
  8
_0-0_0
  6
CONTINUOUS
 62
    7
 10
970.51837793667232
 20
776.30731435738141
 11
970.17255551655444
 21
778.98691100316705
  0
LINE
  8
_0-0_0
  6
CONTINUOUS
 62
    7
 10
970.17255551655444
 20
778.98691100316705
 11
969.75492032501563
 21
781.76954327506314
  0
ARC
  8
_0-0_0
  6
CONTINUOUS
 62
    7
 10
987.75317805728514
 20
793.13951035403545
 40
2.1176283428175959
 50
37.569856982126957
 51
137.38474858467049
  0
ARC
  8
_0-0_0
  6
CONTINUOUS
 62
    7
 10
981.20156993886553
 20
794.25769516960543
 40
1.4117522285450643
 50
121.77296921436623
 51
274.54782452109794
  0
ARC
  8
_0-0_0
  6
CONTINUOUS
 62
    7
 10
957.65710770167459
 20
776.58868035299724
 40
0.7058761142725322
 50
330.37637695760458
 51
108.43241350600661
  0
ARC
  8
_0-0_0
  6
CONTINUOUS
 62
    7
 10
958.08589673409301
 20
765.35731586825
 40
0.7058761142725322
 50
196.47867898475499
 51
319.24459506580729
  0
ARC
  8
_0-0_0
  6
CONTINUOUS
 62
    7
 10
956.12458709209795
 20
758.55646936523249
 40
0.7058761142725322
 50
162.43043472567552
 51
287.52514572156065
  0
ARC
  8
_0-0_0
  6
CONTINUOUS
 62
    7
 10
953.55683845175486
 20
780.13833511278278
 40
0.7058761142725322
 50
120.2722890850511
 51
244.1859105347699
  0
ARC
  8
_0-4_P-6853
  6
CONTINUOUS
 62
    7
 10
982.40025538726036
 20
799.59701999746528
 40
2.3886670266782208
 50
334.21914847688834
 51
54.623710236713556
  0
ARC
  8
_0-4_P-6853
  6
CONTINUOUS
 62
    7
 10
973.10703601045589
 20
844.72652733004406
 40
125
 50
227.40435505033292
 51
27.776766939961782
  0
ARC
  8
_0-4_P-6853
  6
CONTINUOUS
 62
    7
 10
973.10703601045589
 20
844.72652733004406
 40
119
 50
227.25045470170153
 51
27.930667288590463
  0
ARC
  8
_0-4_P-6853
  6
CONTINUOUS
 62
    7
 10
1044.5701477018995
 20
880.89276813554875
 40
44.936057068061565
 50
29.440941677435539
 51
116.79271742520218
  0
ARC
  8
_0-4_P-6853
  6
CONTINUOUS
 62
    7
 10
1044.5679781629265
 20
880.79472881811046
 40
39.001804067287232
 50
30.290202693907045
 51
115.4626846672609
  0
ARC
  8
_0-0_0
  6
CONTINUOUS
 62
    7
 10
1045.0814375975842
 20
856.62395430938295
 40
20.36130145467256
 50
262.86388672763758
 51
295.93652692448444
  0
ARC
  8
_0-0_0
  6
CONTINUOUS
 62
    7
 10
1057.1937771140617
 20
796.52834134360648
 40
44.884457655485448
 50
100.53972772764091
 51
110.33170572762491
  0
ARC
  8
_0-0_0
  6
CONTINUOUS
 62
    7
 10
1049.9101873886489
 20
832.7502992281311
 40
7.9593334185887343
 50
58.7024430055368
 51
96.684987727640191
  0
ARC
  8
_0-0_0
  6
CONTINUOUS
 62
    7
 10
1006.2155407689147
 20
813.37872233874327
 40
26.87869514681325
 50
14.606230727647969
 51
41.247757727641869
  0
ARC
  8
_0-0_0
  6
CONTINUOUS
 62
    7
 10
1040.7907747566906
 20
883.29382958252677
 40
46.906536489846779
 50
255.9593027276527
 51
272.15183772765931
  0
ARC
  8
_0-0_0
  6
CONTINUOUS
 62
    7
 10
1039.9868303197266
 20
843.35750440919685
 40
5.0075819194307734
 50
211.2198131301466
 51
288.77418203568641
  0
ARC
  8
_0-0_0
  6
CONTINUOUS
 62
    7
 10
1043.2053458788912
 20
856.39724669964608
 40
22.611750976532253
 50
240.12684100628002
 51
305.35258772763734
  0
ARC
  8
_0-0_0
  6
CONTINUOUS
 62
    7
 10
1035.3938724727002
 20
857.73447902213115
 40
20.823843013700262
 50
211.65875072763984
 51
253.30233172764861
  0
ARC
  8
_0-0_0
  6
CONTINUOUS
 62
    7
 10
1039.1062560910289
 20
846.82714672273028
 40
2.173780081831862
 50
299.72802972763134
 51
10.995211455522664
  0
ARC
  8
_0-0_0
  6
CONTINUOUS
 62
    7
 10
1030.6389962891069
 20
858.77262495071432
 40
16.80676769385391
 50
222.9022797276377
 51
304.60656672765231
  0
ARC
  8
_0-0_0
  6
CONTINUOUS
 62
    7
 10
1053.6074458352161
 20
876.51878779538538
 40
47.24216364115663
 50
224.11890072764001
 51
252.64524072763689
  0
ARC
  8
_0-0_0
  6
CONTINUOUS
 62
    7
 10
1053.8168893442878
 20
861.09328465105546
 40
40.619103479807208
 50
200.13730546958121
 51
227.5949883551252
  0
ARC
  8
_0-0_0
  6
CONTINUOUS
 62
    7
 10
1070.0747335303524
 20
866.53865419743749
 40
59.3535394220212
 50
197.5618547276477
 51
216.7428567276425
  0
ARC
  8
_0-0_0
  6
CONTINUOUS
 62
    7
 10
1029.2543373274518
 20
858.43598716661973
 40
15.29013568637412
 50
241.52548772764226
 51
314.90883290523834
  0
ARC
  8
_0-0_0
  6
CONTINUOUS
 62
    7
 10
1045.9531712951373
 20
848.47784543406669
 40
18.22534292091953
 50
249.31593272764491
 51
327.65597626872869
  0
ARC
  8
_0-0_0
  6
CONTINUOUS
 62
    7
 10
1061.0583359296086
 20
832.78119543582443
 40
7.0368768655545306
 50
92.750687264617184
 51
132.6729817276381
  0
ARC
  8
_0-0_0
  6
CONTINUOUS
 62
    7
 10
1025.195090795899
 20
818.46276024218821
 40
7.2317022024743229
 50
293.03012072763983
 51
13.54790872765671
  0
ARC
  8
_0-0_0
  6
CONTINUOUS
 62
    7
 10
1014.7760203516659
 20
825.83368487177449
 40
1.4269123800426899
 50
120.30215855845469
 51
319.57842360423098
  0
ARC
  8
_0-0_0
  6
CONTINUOUS
 62
    7
 10
1008.6690663581652
 20
831.36968237569045
 40
9.6690345432160072
 50
318.06877676764532
 51
30.706535727640453
  0
ARC
  8
_0-0_0
  6
CONTINUOUS
 62
    7
 10
1027.4577987668683
 20
820.9488844767809
 40
9.1589846981933007
 50
233.86557729396793
 51
273.54574872763612
  0
ARC
  8
_0-0_0
  6
CONTINUOUS
 62
    7
 10
1012.4959209455982
 20
823.75743843655505
 40
12.379823996502981
 50
318.9041065454266
 51
35.987254727650871
  0
ARC
  8
_0-0_0
  6
CONTINUOUS
 62
    7
 10
1022.8893976865457
 20
814.69194253138335
 40
1.4117522285450643
 50
138.9041065454266
 51
233.86557729396787
  0
LINE
  8
_0-0_0
  6
CONTINUOUS
 62
    7
 10
1011.0294834962987
 20
860.88719014554636
 11
1011.9199371001966
 21
858.89241454534476
  0
LINE
  8
_0-0_0
  6
CONTINUOUS
 62
    7
 10
1011.9199371001966
 20
858.89241454534476
 11
1013.5106931103941
 21
856.13052598078855
  0
LINE
  8
_0-0_0
  6
CONTINUOUS
 62
    7
 10
1007.4989547253811
 20
855.95386765526564
 11
1006.5934602131917
 21
856.87151853838805
  0
LINE
  8
_0-0_0
  6
CONTINUOUS
 62
    7
 10
1013.5106931103941
 20
856.13052598078855
 11
1015.3365016620215
 21
853.68762000814377
  0
LINE
  8
_0-0_0
  6
CONTINUOUS
 62
    7
 10
1009.6541243392129
 20
853.17695166178623
 11
1007.4989547253811
 21
855.95386765526564
  0
LINE
  8
_0-0_0
  6
CONTINUOUS
 62
    7
 10
1015.3365016620215
 20
853.68762000814377
 11
1017.793941476678
 21
851.14222206267505
  0
LINE
  8
_0-0_0
  6
CONTINUOUS
 62
    7
 10
1010.9085482517891
 20
850.74093459864105
 11
1009.6541243392129
 21
853.17695166178623
  0
LINE
  8
_0-0_0
  6
CONTINUOUS
 62
    7
 10
1017.793941476678
 20
851.14222206267505
 11
1020.8561504174985
 21
848.76023916360896
  0
LINE
  8
_0-0_0
  6
CONTINUOUS
 62
    7
 10
1012.0871390888
 20
847.38461638382341
 11
1010.9085482517891
 21
850.74093459864105
  0
LINE
  8
_0-0_0
  6
CONTINUOUS
 62
    7
 10
1020.8561504174985
 20
848.76023916360896
 11
1023.2561483664676
 21
847.67040853987669
  0
LINE
  8
_0-0_0
  6
CONTINUOUS
 62
    7
 10
1012.9346862102115
 20
844.09899012002359
 11
1012.0871390888
 21
847.38461638382341
  0
LINE
  8
_0-0_0
  6
CONTINUOUS
 62
    7
 10
1023.2561483664676
 20
847.67040853987669
 11
1026.7935983298748
 21
847.4419911117493
  0
LINE
  8
_0-0_0
  6
CONTINUOUS
 62
    7
 10
1013.6086556099941
 20
839.30713316227116
 11
1012.9346862102115
 21
844.09899012002359
  0
LINE
  8
_0-0_0
  6
CONTINUOUS
 62
    7
 10
1026.7935983298748
 20
847.4419911117493
 11
1029.5883578812006
 21
848.18653402726272
  0
LINE
  8
_0-0_0
  6
CONTINUOUS
 62
    7
 10
1013.6945520580646
 20
835.66394111210968
 11
1013.6086556099941
 21
839.30713316227116
  0
LINE
  8
_0-0_0
  6
CONTINUOUS
 62
    7
 10
1029.5883578812006
 20
848.18653402726272
 11
1031.7255129255839
 21
849.27046667326681
  0
LINE
  8
_0-0_0
  6
CONTINUOUS
 62
    7
 10
1013.5204808245647
 20
832.93624781796166
 11
1013.6945520580646
 21
835.66394111210968
  0
LINE
  8
_0-0_0
  6
CONTINUOUS
 62
    7
 10
1031.7255129255839
 20
849.27046667326681
 11
1034.4771691361079
 21
850.87847190013645
  0
LINE
  8
_0-0_0
  6
CONTINUOUS
 62
    7
 10
1012.9389488679167
 20
829.17224032154206
 11
1013.5204808245647
 21
832.93624781796166
  0
LINE
  8
_0-0_0
  6
CONTINUOUS
 62
    7
 10
1034.4771691361079
 20
850.87847190013645
 11
1037.1697676302838
 21
851.60301414051332
  0
LINE
  8
_0-0_0
  6
CONTINUOUS
 62
    7
 10
1012.1945044913435
 20
827.88550698331233
 11
1012.9389488679167
 21
829.17224032154206
  0
LINE
  8
_0-0_0
  6
CONTINUOUS
 62
    7
 10
1037.1697676302838
 20
851.60301414051332
 11
1039.8549989954563
 21
851.3807837787748
  0
LINE
  8
_0-0_0
  6
CONTINUOUS
 62
    7
 10
1011.5303183425876
 20
825.93321287028118
 11
1012.1945044913435
 21
827.88550698331233
  0
LINE
  8
_0-0_0
  6
CONTINUOUS
 62
    7
 10
1039.8549989954563
 20
851.3807837787748
 11
1041.5988245778017
 21
850.34152374172663
  0
LINE
  8
_0-0_0
  6
CONTINUOUS
 62
    7
 10
1012.1220661732493
 20
823.36112111602233
 11
1011.5303183425876
 21
825.93321287028118
  0
LINE
  8
_0-0_0
  6
CONTINUOUS
 62
    7
 10
1041.5988245778017
 20
850.34152374172663
 11
1042.9743235279043
 21
848.47523965142864
  0
LINE
  8
_0-0_0
  6
CONTINUOUS
 62
    7
 10
1042.9743235279043
 20
848.47523965142864
 11
1043.4484169066102
 21
845.83033538386667
  0
LINE
  8
_0-0_0
  6
CONTINUOUS
 62
    7
 10
1043.4484169066102
 20
845.83033538386667
 11
1043.157877941509
 21
843.87011103516215
  0
LINE
  8
_0-0_0
  6
CONTINUOUS
 62
    7
 10
1016.6475828414269
 20
822.82823559051371
 11
1014.8128476554883
 21
821.85480898252263
  0
LINE
  8
_0-0_0
  6
CONTINUOUS
 62
    7
 10
1043.157877941509
 20
843.87011103516215
 11
1042.3397960542602
 21
842.62239012901205
  0
LINE
  8
_0-0_0
  6
CONTINUOUS
 62
    7
 10
1018.0576836064918
 20
824.26280501775341
 11
1016.6475828414269
 21
822.82823559051371
  0
LINE
  8
_0-0_0
  6
CONTINUOUS
 62
    7
 10
1018.8567969286556
 20
825.01870434259058
 11
1018.0576836064918
 21
824.26280501775341
  0
LINE
  8
_0-0_0
  6
CONTINUOUS
 62
    7
 10
1020.3336418145683
 20
821.17740032170207
 11
1021.1588091822314
 21
823.52494368465818
  0
LINE
  8
_0-0_0
  6
CONTINUOUS
 62
    7
 10
1018.6261772798447
 20
819.44775977127983
 11
1020.3336418145683
 21
821.17740032170207
  0
LINE
  8
_0-0_0
  6
CONTINUOUS
 62
    7
 10
1043.1104713292707
 20
841.55290712686906
 11
1047.2168748938268
 21
842.63822957410525
  0
LINE
  8
_0-0_0
  6
CONTINUOUS
 62
    7
 10
1018.2447508212122
 20
819.24668726624168
 11
1018.6261772798447
 21
819.44775977127983
  0
LINE
  8
_0-0_0
  6
CONTINUOUS
 62
    7
 10
1047.2168748938268
 20
842.63822957410525
 11
1050.1245487214712
 21
843.08970172567183
  0
LINE
  8
_0-0_0
  6
CONTINUOUS
 62
    7
 10
1050.1245487214712
 20
843.08970172567183
 11
1052.6306565784271
 21
843.18034313320163
  0
LINE
  8
_0-0_0
  6
CONTINUOUS
 62
    7
 10
1018.698632369003
 20
814.59625626914305
 11
1017.5547448824727
 21
816.08102047492798
  0
LINE
  8
_0-0_0
  6
CONTINUOUS
 62
    7
 10
1052.6306565784271
 20
843.18034313320163
 11
1054.4169205641438
 21
842.65928070191444
  0
LINE
  8
_0-0_0
  6
CONTINUOUS
 62
    7
 10
1020.7372651426641
 20
812.61330978117371
 11
1018.698632369003
 21
814.59625626914305
  0
LINE
  8
_0-0_0
  6
CONTINUOUS
 62
    7
 10
1054.4169205641438
 20
842.65928070191444
 11
1055.6455419100439
 21
841.83258576097785
  0
LINE
  8
_0-0_0
  6
CONTINUOUS
 62
    7
 10
1022.8702728710575
 20
811.12878193022902
 11
1020.7372651426641
 21
812.61330978117371
  0
LINE
  8
_0-0_0
  6
CONTINUOUS
 62
    7
 10
1055.6455419100439
 20
841.83258576097785
 11
1058.4962293292554
 21
842.66291211893508
  0
LINE
  8
_0-0_0
  6
CONTINUOUS
 62
    7
 10
1024.9887289824683
 20
810.08191030857051
 11
1022.8702728710575
 21
811.12878193022902
  0
LINE
  8
_0-0_0
  6
CONTINUOUS
 62
    7
 10
1058.4962293292554
 20
842.66291211893508
 11
1060.6554098556794
 21
842.81105896901499
  0
LINE
  8
_0-0_0
  6
CONTINUOUS
 62
    7
 10
1027.7223371987079
 20
809.23043983795014
 11
1024.9887289824683
 21
810.08191030857051
  0
LINE
  8
_0-0_0
  6
CONTINUOUS
 62
    7
 10
1060.6554098556794
 20
842.81105896901499
 11
1062.3272123305246
 21
842.51040707045445
  0
LINE
  8
_0-0_0
  6
CONTINUOUS
 62
    7
 10
1030.3309555414689
 20
809.36586686538385
 11
1027.7223371987079
 21
809.23043983795014
  0
LINE
  8
_0-0_0
  6
CONTINUOUS
 62
    7
 10
1062.3272123305246
 20
842.51040707045445
 11
1063.6351328962098
 21
841.1450599752684
  0
LINE
  8
_0-0_0
  6
CONTINUOUS
 62
    7
 10
1032.209596269518
 20
810.37714668622698
 11
1030.3309555414689
 21
809.36586686538385
  0
LINE
  8
_0-0_0
  6
CONTINUOUS
 62
    7
 10
1063.6351328962098
 20
841.1450599752684
 11
1064.1402674730075
 21
838.69237105200773
  0
LINE
  8
_0-0_0
  6
CONTINUOUS
 62
    7
 10
1033.3122776431308
 20
811.60509405747905
 11
1032.209596269518
 21
810.37714668622698
  0
LINE
  8
_0-0_0
  6
CONTINUOUS
 62
    7
 10
1064.1402674730075
 20
838.69237105200773
 11
1063.6814736292499
 21
837.38963530702017
  0
LINE
  8
_0-0_0
  6
CONTINUOUS
 62
    7
 10
1034.5227926473494
 20
814.63372987763159
 11
1033.3122776431308
 21
811.60509405747905
  0
LINE
  8
_0-0_0
  6
CONTINUOUS
 62
    7
 10
1063.6814736292499
 20
837.38963530702017
 11
1061.8799438121898
 21
835.21130135541148
  0
LINE
  8
_0-0_0
  6
CONTINUOUS
 62
    7
 10
1035.0226332278864
 20
818.39766196623623
 11
1034.5227926473494
 21
814.63372987763159
  0
LINE
  8
_0-0_0
  6
CONTINUOUS
 62
    7
 10
1061.8799438121898
 20
835.21130135541148
 11
1060.4500703238259
 21
833.83909387131757
  0
LINE
  8
_0-0_0
  6
CONTINUOUS
 62
    7
 10
1034.6416452987271
 20
821.79891432186776
 11
1035.0226332278864
 21
818.39766196623623
  0
LINE
  8
_0-0_0
  6
CONTINUOUS
 62
    7
 10
1060.4500703238259
 20
833.83909387131757
 11
1057.8216122247293
 21
831.88245918869836
  0
LINE
  8
_0-0_0
  6
CONTINUOUS
 62
    7
 10
1033.190309883134
 20
825.6032453738303
 11
1034.6416452987271
 21
821.79891432186776
  0
LINE
  8
_0-0_0
  6
CONTINUOUS
 62
    7
 10
1057.8216122247293
 20
831.88245918869836
 11
1054.572788493585
 21
830.21076183697107
  0
LINE
  8
_0-0_0
  6
CONTINUOUS
 62
    7
 10
1031.4210962536249
 20
828.64307152906986
 11
1033.190309883134
 21
825.6032453738303
  0
LINE
  8
_0-0_0
  6
CONTINUOUS
 62
    7
 10
1054.572788493585
 20
830.21076183697107
 11
1051.4186091374158
 21
829.20142010723055
  0
LINE
  8
_0-0_0
  6
CONTINUOUS
 62
    7
 10
1031.2897343411314
 20
830.63327206823124
 11
1031.4210962536249
 21
828.64307152906986
  0
LINE
  8
_0-0_0
  6
CONTINUOUS
 62
    7
 10
1051.4186091374158
 20
829.20142010723055
 11
1047.0737778471212
 21
828.64723424231545
  0
LINE
  8
_0-0_0
  6
CONTINUOUS
 62
    7
 10
1031.7601069632747
 20
831.90148453940105
 11
1031.2897343411314
 21
830.63327206823124
  0
LINE
  8
_0-0_0
  6
CONTINUOUS
 62
    7
 10
1047.0737778471212
 20
828.64723424231545
 11
1042.9351186164508
 21
828.96222757030398
  0
LINE
  8
_0-0_0
  6
CONTINUOUS
 62
    7
 10
1032.7300705979014
 20
832.19415400049365
 11
1031.7601069632747
 21
831.90148453940105
  0
LINE
  8
_0-0_0
  6
CONTINUOUS
 62
    7
 10
1042.9351186164508
 20
828.96222757030398
 11
1039.9126555497314
 21
829.72989262771443
  0
LINE
  8
_0-0_0
  6
CONTINUOUS
 62
    7
 10
1034.8273700929644
 20
831.86500014190324
 11
1032.7300705979014
 21
832.19415400049365
  0
LINE
  8
_0-0_0
  6
CONTINUOUS
 62
    7
 10
1039.9126555497314
 20
829.72989262771443
 11
1037.4106335377562
 21
830.74955785804877
  0
LINE
  8
_0-0_0
  6
CONTINUOUS
 62
    7
 10
1037.4106335377562
 20
830.74955785804877
 11
1034.8273700929644
 21
831.86500014190324
  0
ARC
  8
_0-0_0
  6
CONTINUOUS
 62
    7
 10
1019.2322658205677
 20
817.37341101209404
 40
2.1176283428175959
 50
117.79637340560791
 51
217.61126500815834
  0
ARC
  8
_0-0_0
  6
CONTINUOUS
 62
    7
 10
1019.8269401993032
 20
823.99309896564557
 40
1.4117522285450643
 50
340.63329746920368
 51
133.408152775926
  0
ARC
  8
_0-0_0
  6
CONTINUOUS
 62
    7
 10
1042.9301017521643
 20
842.23534972837865
 40
0.7058761142725322
 50
146.7487084842866
 51
284.80474503267249
  0
ARC
  8
_0-0_0
  6
CONTINUOUS
 62
    7
 10
1053.6782328180079
 20
838.94824054019807
 40
0.7058761142725322
 50
295.93652692448444
 51
58.702443005536843
  0
ARC
  8
_0-0_0
  6
CONTINUOUS
 62
    7
 10
1060.754510508825
 20
839.1049016771376
 40
0.7058761142725322
 50
327.65597626872869
 51
92.750687264617156
  0
ARC
  8
_0-0_0
  6
CONTINUOUS
 62
    7
 10
1040.5472139319479
 20
847.10711557576576
 40
0.7058761142725322
 50
10.995211455522631
 51
134.90883290523831
  0
ARC
  8
_0-4_P-6853
  6
CONTINUOUS
 62
    7
 10
1014.3586248013554
 20
824.19989144655756
 40
2.3886670266782208
 50
200.5574117535736
 51
280.96197351339379
  0
LINE
  8
_0-4_P-6853
  6
CONTINUOUS
 62
    7
 10
1039.6115340748613
 20
746.0444532881927
 11
1038.3915048099227
 21
747.62923358611806
  0
LINE
  8
_0-4_P-6853
  6
CONTINUOUS
 62
    7
 10
1041.5610654057739
 20
750.06929211599549
 11
1047.1077964485135
 21
754.33939454328095
  0
ARC
  8
_0-4_P-6853
  6
CONTINUOUS
 62
    7
 10
1039.9762851078485
 20
748.84926285105689
 40
1.9999999999999991
 50
37.590560995144287
 51
217.5905609951443
  0
LINE
  8
_0-4_P-6853
  6
CONTINUOUS
 62
    7
 10
1051.4973863093037
 20
755.1946727752329
 11
1050.2773570443649
 21
756.77945307315849
  0
ARC
  8
_0-4_P-6853
  6
CONTINUOUS
 62
    7
 10
1048.6925767464393
 20
755.55942380821978
 40
1.9999999999999991
 50
37.590560995144287
 51
217.5905609951443
  0
ARC
  8
_0-4_P-6853
  6
CONTINUOUS
 62
    7
 10
1041.5459785791484
 20
1009.7190399795518
 40
166.06825929064823
 50
105.8270622388481
 51
184.53868797370487
  0
ARC
  8
_0-4_P-6853
  6
CONTINUOUS
 62
    7
 10
952.20426271221129
 20
1007.2241348954035
 40
266.42188665810369
 50
307.51063279329259
 51
358.8010293047044
  0
ARC
  8
_0-4_P-6853
  6
CONTINUOUS
 62
    7
 10
1048.7172198739418
 20
1001.6494010343174
 40
169.85059896568254
 50
0
 51
42.469198723921593
  0
ARC
  8
_0-4_P-6853
  6
CONTINUOUS
 62
    7
 10
1048.7172198739418
 20
1001.6494010343174
 40
175.85059896568251
 50
0
 51
42.555602696000456
  0
LINE
  8
_0-4_P-6853
  6
CONTINUOUS
 62
    7
 10
981.3120479381563
 20
693.40719403440767
 11
1114.4308532105042
 21
795.88754311404023
  0
ARC
  8
_0-4_P-6853
  6
CONTINUOUS
 62
    7
 10
952.21464662755454
 20
1007.2155207505488
 40
272.40873068507318
 50
307.51088869778931
 51
358.82919551481359
  0
LINE
  8
_0-4_P-6853
  6
CONTINUOUS
 62
    7
 10
985.56914678952376
 20
689.11245688598171
 11
1118.0876433391763
 21
791.13066354079615
  0
ARC
  8
_0-4_P-6853
  6
CONTINUOUS
 62
    7
 10
1041.5509930036237
 20
1009.7176823654208
 40
160.0731509746368
 50
105.7712750943455
 51
184.52477992035662
  0
ARC
  8
_0-4_P-6853
  6
CONTINUOUS
 62
    7
 10
977.13337762976732
 20
1005.8584171380612
 40
95.55982383409534
 50
185.26509289137843
 51
248.33453321327013
  0
ARC
  8
_0-4_P-6853
  6
CONTINUOUS
 62
    7
 10
972.88616729060573
 20
1000.4209745717385
 40
88.959644667113224
 50
249.58394789903784
 51
291.1027511511885
  0
ARC
  8
_0-4_P-6853
  6
CONTINUOUS
 62
    7
 10
1146.6338113531547
 20
988.28350462782373
 40
44.936057068061565
 50
140.27613597057911
 51
323.14961931770125
  0
ARC
  8
_0-4_P-6853
  6
CONTINUOUS
 62
    7
 10
1146.6443029788329
 20
988.38100509168794
 40
39.001804067287232
 50
141.89834489840709
 51
322.30035830123308
  0
ARC
  8
_0-0_0
  6
CONTINUOUS
 62
    7
 10
1150.2705130419763
 20
1012.2837367665566
 40
20.36130145467256
 50
56.65403407067371
 51
89.726674267506709
  0
ARC
  8
_0-0_0
  6
CONTINUOUS
 62
    7
 10
1170.0315817019086
 20
1070.315552451681
 40
44.884457655485448
 50
242.25885526751529
 51
252.05083326750022
  0
ARC
  8
_0-0_0
  6
CONTINUOUS
 62
    7
 10
1158.1376642752659
 20
1035.3353346060953
 40
7.9593334185887343
 50
255.90557326751309
 51
293.88811798960842
  0
ARC
  8
_0-0_0
  6
CONTINUOUS
 62
    7
 10
1117.3060094683988
 20
1060.1799738696816
 40
26.87869514681325
 50
311.34280326749592
 51
337.98433026750189
  0
ARC
  8
_0-0_0
  6
CONTINUOUS
 62
    7
 10
1142.5763580353735
 20
986.38987623102321
 40
46.906536489846779
 50
80.438723267499498
 51
96.631258267492385
  0
ARC
  8
_0-0_0
  6
CONTINUOUS
 62
    7
 10
1146.9292737276846
 20
1026.0964061723726
 40
5.0075819194307734
 50
63.816378959450788
 51
141.37074786500159
  0
ARC
  8
_0-0_0
  6
CONTINUOUS
 62
    7
 10
1148.4393227973178
 20
1012.7504901973181
 40
22.611750976532253
 50
47.237973267501687
 51
112.46371998886968
  0
ARC
  8
_0-0_0
  6
CONTINUOUS
 62
    7
 10
1140.5206276381753
 20
1012.4317833782764
 40
20.823843013700262
 50
99.288229267498181
 51
140.9318102675048
  0
ARC
  8
_0-0_0
  6
CONTINUOUS
 62
    7
 10
1145.6086108749143
 20
1022.7692935524842
 40
2.173780081831862
 50
341.59534953963288
 51
52.862531267503655
  0
ARC
  8
_0-0_0
  6
CONTINUOUS
 62
    7
 10
1135.6715767753039
 20
1012.0154899485652
 40
16.80676769385391
 50
47.983994267503469
 51
129.68828126749759
  0
ARC
  8
_0-0_0
  6
CONTINUOUS
 62
    7
 10
1156.1597113978796
 20
991.45552132142609
 40
47.24216364115663
 50
99.945320267505238
 51
128.47166026750469
  0
ARC
  8
_0-0_0
  6
CONTINUOUS
 62
    7
 10
1158.3566629505624
 20
1006.7252108308559
 40
40.619103479807208
 50
124.9955726400249
 51
152.45325552556423
  0
ARC
  8
_0-0_0
  6
CONTINUOUS
 62
    7
 10
1173.7765237969004
 20
999.22871574617807
 40
59.3535394220212
 50
135.84770426749961
 51
155.02870626750021
  0
ARC
  8
_0-0_0
  6
CONTINUOUS
 62
    7
 10
1134.3418922716583
 20
1012.5278809696986
 40
15.29013568637412
 50
37.681728089902627
 51
111.06507326750662
  0
ARC
  8
_0-0_0
  6
CONTINUOUS
 62
    7
 10
1152.1854814676699
 20
1020.2494071951237
 40
18.22534292091953
 50
24.934584726410893
 51
103.27462826749452
  0
ARC
  8
_0-0_0
  6
CONTINUOUS
 62
    7
 10
1169.1887406628357
 20
1033.8670426926617
 40
7.0368768655545306
 50
219.91757926751239
 51
259.8398737305406
  0
ARC
  8
_0-0_0
  6
CONTINUOUS
 62
    7
 10
1135.4714466783571
 20
1052.6908049170199
 40
7.2317022024743229
 50
339.04265226749192
 51
59.560440267505101
  0
ARC
  8
_0-0_0
  6
CONTINUOUS
 62
    7
 10
1124.1888293849329
 20
1046.7250605521433
 40
1.4269123800426899
 50
33.012137390917403
 51
232.28840243670416
  0
ARC
  8
_0-0_0
  6
CONTINUOUS
 62
    7
 10
1117.4189523739324
 20
1042.0228354726701
 40
9.6690345432160072
 50
321.88402526750542
 51
34.521784227502671
  0
ARC
  8
_0-0_0
  6
CONTINUOUS
 62
    7
 10
1137.3946528747094
 20
1049.9336435147748
 40
9.1589846981933007
 50
79.04481226750417
 51
118.7249837011733
  0
ARC
  8
_0-0_0
  6
CONTINUOUS
 62
    7
 10
1122.1955195566147
 20
1049.0780094444146
 40
12.379823996502981
 50
316.6033062674918
 51
33.686454449707824
  0
ARC
  8
_0-0_0
  6
CONTINUOUS
 62
    7
 10
1133.6712870128044
 20
1056.727475835135
 40
1.4117522285450643
 50
118.7249837011733
 51
213.6864544497079
  0
LINE
  8
_0-0_0
  6
CONTINUOUS
 62
    7
 10
1115.9531126312024
 20
1012.4474039820202
 11
1117.0933750816764
 21
1014.3106910935232
  0
LINE
  8
_0-0_0
  6
CONTINUOUS
 62
    7
 10
1117.0933750816764
 20
1014.3106910935232
 11
1119.0270184584676
 21
1016.8443754500278
  0
LINE
  8
_0-0_0
  6
CONTINUOUS
 62
    7
 10
1113.0882601789838
 20
1017.794826222914
 11
1112.0719873009236
 21
1017.0016094226514
  0
LINE
  8
_0-0_0
  6
CONTINUOUS
 62
    7
 10
1119.0270184584676
 20
1016.8443754500278
 11
1121.1526160070046
 21
1019.0314286089687
  0
LINE
  8
_0-0_0
  6
CONTINUOUS
 62
    7
 10
1115.583542188501
 20
1020.2706263344348
 11
1113.0882601789838
 21
1017.794826222914
  0
LINE
  8
_0-0_0
  6
CONTINUOUS
 62
    7
 10
1121.1526160070046
 20
1019.0314286089687
 11
1123.9177879125693
 21
1021.2386634120953
  0
LINE
  8
_0-0_0
  6
CONTINUOUS
 62
    7
 10
1117.14163781256
 20
1022.5245332780921
 11
1115.583542188501
 21
1020.2706263344348
  0
LINE
  8
_0-0_0
  6
CONTINUOUS
 62
    7
 10
1123.9177879125693
 20
1021.2386634120953
 11
1127.261605245159
 21
1023.2058572955132
  0
LINE
  8
_0-0_0
  6
CONTINUOUS
 62
    7
 10
1118.7432146559604
 20
1025.700836150125
 11
1117.14163781256
 21
1022.5245332780921
  0
LINE
  8
_0-0_0
  6
CONTINUOUS
 62
    7
 10
1127.261605245159
 20
1023.2058572955132
 11
1129.7821064741063
 21
1023.9770865081059
  0
LINE
  8
_0-0_0
  6
CONTINUOUS
 62
    7
 10
1120.0073956608587
 20
1028.8497284085613
 11
1118.7432146559604
 21
1025.700836150125
  0
LINE
  8
_0-0_0
  6
CONTINUOUS
 62
    7
 10
1129.7821064741063
 20
1023.9770865081059
 11
1133.3194749609384
 21
1023.7474107509076
  0
LINE
  8
_0-0_0
  6
CONTINUOUS
 62
    7
 10
1121.2936902805864
 20
1033.5146586338337
 11
1120.0073956608587
 21
1028.8497284085613
  0
LINE
  8
_0-0_0
  6
CONTINUOUS
 62
    7
 10
1133.3194749609384
 20
1023.7474107509076
 11
1135.9948825935846
 21
1022.648675522589
  0
LINE
  8
_0-0_0
  6
CONTINUOUS
 62
    7
 10
1121.8486917614084
 20
1037.1163526617097
 11
1121.2936902805864
 21
1033.5146586338337
  0
LINE
  8
_0-0_0
  6
CONTINUOUS
 62
    7
 10
1135.9948825935846
 20
1022.648675522589
 11
1137.9744094141647
 21
1021.2981884876973
  0
LINE
  8
_0-0_0
  6
CONTINUOUS
 62
    7
 10
1122.0278345372428
 20
1039.8437175744302
 11
1121.8486917614084
 21
1037.1163526617097
  0
LINE
  8
_0-0_0
  6
CONTINUOUS
 62
    7
 10
1137.9744094141647
 20
1021.2981884876973
 11
1140.4957224163811
 21
1019.3487594801645
  0
LINE
  8
_0-0_0
  6
CONTINUOUS
 62
    7
 10
1121.9365609214688
 20
1043.6512891071491
 11
1122.0278345372428
 21
1039.8437175744302
  0
LINE
  8
_0-0_0
  6
CONTINUOUS
 62
    7
 10
1140.4957224163811
 20
1019.3487594801645
 11
1143.0724013101151
 21
1018.2830325040989
  0
LINE
  8
_0-0_0
  6
CONTINUOUS
 62
    7
 10
1121.3642685056691
 20
1045.023280908998
 11
1121.9365609214688
 21
1043.6512891071491
  0
LINE
  8
_0-0_0
  6
CONTINUOUS
 62
    7
 10
1143.0724013101151
 20
1018.2830325040989
 11
1145.7638694052062
 21
1018.1571225708439
  0
LINE
  8
_0-0_0
  6
CONTINUOUS
 62
    7
 10
1120.9573941842268
 20
1047.0449259892546
 11
1121.3642685056691
 21
1045.023280908998
  0
LINE
  8
_0-0_0
  6
CONTINUOUS
 62
    7
 10
1145.7638694052062
 20
1018.1571225708439
 11
1147.6271558216301
 21
1018.9628227735352
  0
LINE
  8
_0-0_0
  6
CONTINUOUS
 62
    7
 10
1121.875895168685
 20
1049.5192294122344
 11
1120.9573941842268
 21
1047.0449259892546
  0
LINE
  8
_0-0_0
  6
CONTINUOUS
 62
    7
 10
1147.6271558216301
 20
1018.9628227735352
 11
1149.2318433241051
 21
1020.6361403425681
  0
LINE
  8
_0-0_0
  6
CONTINUOUS
 62
    7
 10
1149.2318433241051
 20
1020.6361403425681
 11
1150.0430621057221
 21
1023.1978208856206
  0
LINE
  8
_0-0_0
  6
CONTINUOUS
 62
    7
 10
1150.0430621057221
 20
1023.1978208856206
 11
1150.0077376631193
 21
1025.1791448296667
  0
LINE
  8
_0-0_0
  6
CONTINUOUS
 62
    7
 10
1126.4323438255883
 20
1049.4640593637316
 11
1124.7384608925172
 21
1050.6659633418917
  0
LINE
  8
_0-0_0
  6
CONTINUOUS
 62
    7
 10
1150.0077376631193
 20
1025.1791448296667
 11
1149.3573916121038
 21
1026.5219461730594
  0
LINE
  8
_0-0_0
  6
CONTINUOUS
 62
    7
 10
1127.6456695641073
 20
1047.8596235558994
 11
1126.4323438255883
 21
1049.4640593637316
  0
LINE
  8
_0-0_0
  6
CONTINUOUS
 62
    7
 10
1128.3406302406793
 20
1047.0069832161503
 11
1127.6456695641073
 21
1047.8596235558994
  0
LINE
  8
_0-0_0
  6
CONTINUOUS
 62
    7
 10
1130.3005139583861
 20
1050.6257596959849
 11
1130.8160543604731
 21
1048.191405753061
  0
LINE
  8
_0-0_0
  6
CONTINUOUS
 62
    7
 10
1128.8303595247078
 20
1052.5611504865331
 11
1130.3005139583861
 21
1050.6257596959849
  0
LINE
  8
_0-0_0
  6
CONTINUOUS
 62
    7
 10
1150.2595511157663
 20
1027.4831134328726
 11
1154.1917038680106
 21
1025.8772959518089
  0
LINE
  8
_0-0_0
  6
CONTINUOUS
 62
    7
 10
1128.4780481053799
 20
1052.8097323833779
 11
1128.8303595247078
 21
1052.5611504865331
  0
LINE
  8
_0-0_0
  6
CONTINUOUS
 62
    7
 10
1154.1917038680106
 20
1025.8772959518089
 11
1157.0168770371922
 21
1025.054623018169
  0
LINE
  8
_0-0_0
  6
CONTINUOUS
 62
    7
 10
1157.0168770371922
 20
1025.054623018169
 11
1159.4903696983681
 21
1024.6415533986581
  0
LINE
  8
_0-0_0
  6
CONTINUOUS
 62
    7
 10
1129.5278544764544
 20
1057.3627998660154
 11
1128.2020448750491
 21
1056.0379480896106
  0
LINE
  8
_0-0_0
  6
CONTINUOUS
 62
    7
 10
1159.4903696983681
 20
1024.6415533986581
 11
1161.3289139279525
 21
1024.9279101688426
  0
LINE
  8
_0-0_0
  6
CONTINUOUS
 62
    7
 10
1131.8051832512431
 20
1059.066288642472
 11
1129.5278544764544
 21
1057.3627998660154
  0
LINE
  8
_0-0_0
  6
CONTINUOUS
 62
    7
 10
1161.3289139279525
 20
1024.9279101688426
 11
1162.6538859242269
 21
1025.5892604134638
  0
LINE
  8
_0-0_0
  6
CONTINUOUS
 62
    7
 10
1134.111823392087
 20
1060.2633501155235
 11
1131.8051832512431
 21
1059.066288642472
  0
LINE
  8
_0-0_0
  6
CONTINUOUS
 62
    7
 10
1162.6538859242269
 20
1025.5892604134638
 11
1165.3736918792945
 21
1024.3982456404462
  0
LINE
  8
_0-0_0
  6
CONTINUOUS
 62
    7
 10
1136.3475937288481
 20
1061.0282863804941
 11
1134.111823392087
 21
1060.2633501155235
  0
LINE
  8
_0-0_0
  6
CONTINUOUS
 62
    7
 10
1165.3736918792945
 20
1024.3982456404462
 11
1167.4957382347943
 21
1023.9728901420826
  0
LINE
  8
_0-0_0
  6
CONTINUOUS
 62
    7
 10
1139.1681808777803
 20
1061.5201237291271
 11
1136.3475937288481
 21
1061.0282863804941
  0
LINE
  8
_0-0_0
  6
CONTINUOUS
 62
    7
 10
1167.4957382347943
 20
1023.9728901420826
 11
1169.1923528009786
 21
1024.0554376606256
  0
LINE
  8
_0-0_0
  6
CONTINUOUS
 62
    7
 10
1141.737552547959
 20
1061.0494228066398
 11
1139.1681808777803
 21
1061.5201237291271
  0
LINE
  8
_0-0_0
  6
CONTINUOUS
 62
    7
 10
1169.1923528009786
 20
1024.0554376606256
 11
1170.6654258870774
 21
1025.2407159315335
  0
LINE
  8
_0-0_0
  6
CONTINUOUS
 62
    7
 10
1143.4700928977011
 20
1059.8043196793262
 11
1141.737552547959
 21
1061.0494228066398
  0
LINE
  8
_0-0_0
  6
CONTINUOUS
 62
    7
 10
1170.6654258870774
 20
1025.2407159315335
 11
1171.4826387788885
 21
1027.6077831009268
  0
LINE
  8
_0-0_0
  6
CONTINUOUS
 62
    7
 10
1144.4052119842925
 20
1058.444425105409
 11
1143.4700928977011
 21
1059.8043196793262
  0
LINE
  8
_0-0_0
  6
CONTINUOUS
 62
    7
 10
1171.4826387788885
 20
1027.6077831009268
 11
1171.195675348026
 21
1028.9588064914294
  0
LINE
  8
_0-0_0
  6
CONTINUOUS
 62
    7
 10
1145.2150493655854
 20
1055.284971842199
 11
1144.4052119842925
 21
1058.444425105409
  0
LINE
  8
_0-0_0
  6
CONTINUOUS
 62
    7
 10
1171.195675348026
 20
1028.9588064914294
 11
1169.6901041199826
 21
1031.3512746236679
  0
LINE
  8
_0-0_0
  6
CONTINUOUS
 62
    7
 10
1145.2253234583952
 20
1051.488009922901
 11
1145.2150493655854
 21
1055.284971842199
  0
LINE
  8
_0-0_0
  6
CONTINUOUS
 62
    7
 10
1169.6901041199826
 20
1031.3512746236679
 11
1168.4491286301622
 21
1032.8964190848089
  0
LINE
  8
_0-0_0
  6
CONTINUOUS
 62
    7
 10
1144.4088948231997
 20
1048.164290068207
 11
1145.2253234583952
 21
1051.488009922901
  0
LINE
  8
_0-0_0
  6
CONTINUOUS
 62
    7
 10
1168.4491286301622
 20
1032.8964190848089
 11
1166.0949439202172
 21
1035.1756789671817
  0
LINE
  8
_0-0_0
  6
CONTINUOUS
 62
    7
 10
1142.4790755657573
 20
1044.5788881555777
 11
1144.4088948231997
 21
1048.164290068207
  0
LINE
  8
_0-0_0
  6
CONTINUOUS
 62
    7
 10
1166.0949439202172
 20
1035.1756789671817
 11
1163.0888284509867
 21
1037.2523824745399
  0
LINE
  8
_0-0_0
  6
CONTINUOUS
 62
    7
 10
1140.3326221592315
 20
1041.7926007162539
 11
1142.4790755657573
 21
1044.5788881555777
  0
LINE
  8
_0-0_0
  6
CONTINUOUS
 62
    7
 10
1163.0888284509867
 20
1037.2523824745399
 11
1160.0911503745635
 21
1038.6600558345242
  0
LINE
  8
_0-0_0
  6
CONTINUOUS
 62
    7
 10
1139.9457029272342
 20
1039.8359587852808
 11
1140.3326221592315
 21
1041.7926007162539
  0
LINE
  8
_0-0_0
  6
CONTINUOUS
 62
    7
 10
1160.0911503745635
 20
1038.6600558345242
 11
1155.8540659609318
 21
1039.7699191530244
  0
LINE
  8
_0-0_0
  6
CONTINUOUS
 62
    7
 10
1140.2486005385235
 20
1038.5176772096045
 11
1139.9457029272342
 21
1039.8359587852808
  0
LINE
  8
_0-0_0
  6
CONTINUOUS
 62
    7
 10
1155.8540659609318
 20
1039.7699191530244
 11
1151.7093436073585
 21
1039.9912732496211
  0
LINE
  8
_0-0_0
  6
CONTINUOUS
 62
    7
 10
1141.1727225591701
 20
1038.1023660528685
 11
1140.2486005385235
 21
1038.5176772096045
  0
LINE
  8
_0-0_0
  6
CONTINUOUS
 62
    7
 10
1151.7093436073585
 20
1039.9912732496211
 11
1148.613121025204
 21
1039.619791955598
  0
LINE
  8
_0-0_0
  6
CONTINUOUS
 62
    7
 10
1143.2949567993101
 20
1038.1583058830083
 11
1141.1727225591701
 21
1038.1023660528685
  0
LINE
  8
_0-0_0
  6
CONTINUOUS
 62
    7
 10
1148.613121025204
 20
1039.619791955598
 11
1146.0004960976967
 21
1038.931299168034
  0
LINE
  8
_0-0_0
  6
CONTINUOUS
 62
    7
 10
1146.0004960976967
 20
1038.931299168034
 11
1143.2949567993101
 21
1038.1583058830083
  0
ARC
  8
_0-0_0
  6
CONTINUOUS
 62
    7
 10
1129.6988930521079
 20
1054.5400177397146
 40
2.1176283428175959
 50
134.97929598698883
 51
234.79418758953599
  0
ARC
  8
_0-0_0
  6
CONTINUOUS
 62
    7
 10
1129.4349337553283
 20
1047.8989160458116
 40
1.4117522285450643
 50
219.1824082192235
 51
11.957263525950172
  0
ARC
  8
_0-0_0
  6
CONTINUOUS
 62
    7
 10
1149.9926805459115
 20
1026.8296295481089
 40
0.7058761142725322
 50
67.785815962455544
 51
205.84185251085739
  0
ARC
  8
_0-0_0
  6
CONTINUOUS
 62
    7
 10
1161.0749661717571
 20
1028.7032232956299
 40
0.7058761142725322
 50
293.88811798960842
 51
56.654034070673717
  0
ARC
  8
_0-0_0
  6
CONTINUOUS
 62
    7
 10
1168.0719535970336
 20
1027.6353208469438
 40
0.7058761142725322
 50
259.83987373054066
 51
24.934584726416027
  0
ARC
  8
_0-0_0
  6
CONTINUOUS
 62
    7
 10
1147.0014321249575
 20
1022.3058380277528
 40
0.7058761142725322
 50
217.68172808990258
 51
341.59534953963288
  0
ARC
  8
_0-4_P-6853
  6
CONTINUOUS
 62
    7
 10
1123.9856114245181
 20
1048.3990385873237
 40
2.3886670266782208
 50
71.628587481738492
 51
152.0331492415778
  0
ARC
  8
_0-4_P-6853
  6
CONTINUOUS
 62
    7
 10
1080.4313825428519
 20
1033.3635637032319
 40
125
 50
324.81379405518589
 51
41.560187232485326
  0
ARC
  8
_0-4_P-6853
  6
CONTINUOUS
 62
    7
 10
1080.4313825428519
 20
1033.3635637032319
 40
119
 50
324.65989370655961
 51
41.386526535316385
  0
ARC
  8
_0-4_P-6853
  6
CONTINUOUS
 62
    7
 10
1035.351323467444
 20
1099.5659925135342
 40
44.936057068061565
 50
126.85038068228832
 51
309.72386402941618
  0
ARC
  8
_0-4_P-6853
  6
CONTINUOUS
 62
    7
 10
1035.448823931308
 20
1099.5764841392129
 40
39.001804067287232
 50
127.6996416987669
 51
308.10165510159283
  0
ARC
  8
_0-0_0
  6
CONTINUOUS
 62
    7
 10
1059.3515556061764
 20
1103.2026942023563
 40
20.36130145467256
 50
0.2733257324998274
 51
33.34596592933444
  0
ARC
  8
_0-0_0
  6
CONTINUOUS
 62
    7
 10
1117.3833712913008
 20
1122.9637628622886
 40
44.884457655485448
 50
197.94916673249983
 51
207.74114473248471
  0
ARC
  8
_0-0_0
  6
CONTINUOUS
 62
    7
 10
1082.4031534457154
 20
1111.0698454356457
 40
7.9593334185887343
 50
156.11188201038939
 51
194.09442673249359
  0
ARC
  8
_0-0_0
  6
CONTINUOUS
 62
    7
 10
1107.2477927093016
 20
1070.2381906287783
 40
26.87869514681325
 50
112.0156697324981
 51
138.6571967324949
  0
ARC
  8
_0-0_0
  6
CONTINUOUS
 62
    7
 10
1033.4576950706432
 20
1095.5085391957537
 40
46.906536489846779
 50
353.36874173250118
 51
9.5612767325069346
  0
ARC
  8
_0-0_0
  6
CONTINUOUS
 62
    7
 10
1073.164225011993
 20
1099.8614548880646
 40
5.0075819194307734
 50
308.62925213500421
 51
26.183621040551429
  0
ARC
  8
_0-0_0
  6
CONTINUOUS
 62
    7
 10
1059.8183090369384
 20
1101.3715039576978
 40
22.611750976532253
 50
337.5362800111302
 51
42.762026732489105
  0
ARC
  8
_0-0_0
  6
CONTINUOUS
 62
    7
 10
1059.4996022178964
 20
1093.4528087985552
 40
20.823843013700262
 50
309.06818973249989
 51
350.71177073250192
  0
ARC
  8
_0-0_0
  6
CONTINUOUS
 62
    7
 10
1069.8371123921042
 20
1098.5407920352943
 40
2.173780081831862
 50
37.13746873249179
 51
108.4046504603686
  0
ARC
  8
_0-0_0
  6
CONTINUOUS
 62
    7
 10
1059.0833087881854
 20
1088.6037579356839
 40
16.80676769385391
 50
320.31171873250241
 51
42.016005732505739
  0
ARC
  8
_0-0_0
  6
CONTINUOUS
 62
    7
 10
1038.5233401610462
 20
1109.09189255826
 40
47.24216364115663
 50
321.52833973249074
 51
350.05467973250114
  0
ARC
  8
_0-0_0
  6
CONTINUOUS
 62
    7
 10
1053.793029670476
 20
1111.2888441109426
 40
40.619103479807208
 50
297.54674447443585
 51
325.00442735998325
  0
ARC
  8
_0-0_0
  6
CONTINUOUS
 62
    7
 10
1046.2965345857979
 20
1126.7087049572804
 40
59.3535394220212
 50
294.97129373250641
 51
314.15229573250042
  0
ARC
  8
_0-0_0
  6
CONTINUOUS
 62
    7
 10
1059.5956998093184
 20
1087.2740734320382
 40
15.29013568637412
 50
338.9349267324933
 51
52.318271910087937
  0
ARC
  8
_0-0_0
  6
CONTINUOUS
 62
    7
 10
1067.3172260347437
 20
1105.1176626280496
 40
18.22534292091953
 50
346.72537173250703
 51
65.065415273574573
  0
ARC
  8
_0-0_0
  6
CONTINUOUS
 62
    7
 10
1080.9348615322815
 20
1122.1209218232157
 40
7.0368768655545306
 50
190.1601262694808
 51
230.08242073249801
  0
ARC
  8
_0-0_0
  6
CONTINUOUS
 62
    7
 10
1099.7586237566397
 20
1088.4036278387371
 40
7.2317022024743229
 50
30.439559732500744
 51
110.95734773250811
  0
ARC
  8
_0-0_0
  6
CONTINUOUS
 62
    7
 10
1093.7928793917636
 20
1077.1210105453131
 40
1.4269123800426899
 50
217.7115975633053
 51
56.987862609086207
  0
ARC
  8
_0-0_0
  6
CONTINUOUS
 62
    7
 10
1089.0906543122903
 20
1070.3511335343119
 40
9.6690345432160072
 50
55.478215772503191
 51
128.11597473249461
  0
ARC
  8
_0-0_0
  6
CONTINUOUS
 62
    7
 10
1097.0014623543948
 20
1090.3268340350894
 40
9.1589846981933007
 50
331.27501629881721
 51
10.955187732502589
  0
ARC
  8
_0-0_0
  6
CONTINUOUS
 62
    7
 10
1096.1458282840349
 20
1075.1277007169947
 40
12.379823996502981
 50
56.313545550282683
 51
133.39669373249893
  0
ARC
  8
_0-0_0
  6
CONTINUOUS
 62
    7
 10
1103.795294674755
 20
1086.6034681731846
 40
1.4117522285450643
 50
236.31354555028275
 51
331.27501629881726
  0
LINE
  8
_0-0_0
  6
CONTINUOUS
 62
    7
 10
1059.5152228216402
 20
1068.8852937915819
 11
1061.3785099331433
 21
1070.0255562420562
  0
LINE
  8
_0-0_0
  6
CONTINUOUS
 62
    7
 10
1061.3785099331433
 20
1070.0255562420562
 11
1063.9121942896481
 21
1071.9591996188476
  0
LINE
  8
_0-0_0
  6
CONTINUOUS
 62
    7
 10
1064.8626450625343
 20
1066.020441339364
 11
1064.0694282622715
 21
1065.0041684613038
  0
LINE
  8
_0-0_0
  6
CONTINUOUS
 62
    7
 10
1063.9121942896481
 20
1071.9591996188476
 11
1066.0992474485886
 21
1074.0847971673845
  0
LINE
  8
_0-0_0
  6
CONTINUOUS
 62
    7
 10
1067.3384451740546
 20
1068.5157233488812
 11
1064.8626450625343
 21
1066.020441339364
  0
LINE
  8
_0-0_0
  6
CONTINUOUS
 62
    7
 10
1066.0992474485886
 20
1074.0847971673845
 11
1068.3064822517154
 21
1076.8499690729491
  0
LINE
  8
_0-0_0
  6
CONTINUOUS
 62
    7
 10
1069.5923521177119
 20
1070.0738189729395
 11
1067.3384451740546
 21
1068.5157233488812
  0
LINE
  8
_0-0_0
  6
CONTINUOUS
 62
    7
 10
1068.3064822517154
 20
1076.8499690729491
 11
1070.2736761351332
 21
1080.1937864055387
  0
LINE
  8
_0-0_0
  6
CONTINUOUS
 62
    7
 10
1072.7686549897451
 20
1071.6753958163404
 11
1069.5923521177119
 21
1070.0738189729395
  0
LINE
  8
_0-0_0
  6
CONTINUOUS
 62
    7
 10
1070.2736761351332
 20
1080.1937864055387
 11
1071.0449053477257
 21
1082.7142876344863
  0
LINE
  8
_0-0_0
  6
CONTINUOUS
 62
    7
 10
1075.9175472481816
 20
1072.9395768212385
 11
1072.7686549897451
 21
1071.6753958163404
  0
LINE
  8
_0-0_0
  6
CONTINUOUS
 62
    7
 10
1071.0449053477257
 20
1082.7142876344863
 11
1070.8152295905277
 21
1086.2516561213188
  0
LINE
  8
_0-0_0
  6
CONTINUOUS
 62
    7
 10
1080.582477473454
 20
1074.2258714409668
 11
1075.9175472481816
 21
1072.9395768212385
  0
LINE
  8
_0-0_0
  6
CONTINUOUS
 62
    7
 10
1070.8152295905277
 20
1086.2516561213188
 11
1069.716494362209
 21
1088.9270637539648
  0
LINE
  8
_0-0_0
  6
CONTINUOUS
 62
    7
 10
1084.1841715013302
 20
1074.7808729217884
 11
1080.582477473454
 21
1074.2258714409668
  0
LINE
  8
_0-0_0
  6
CONTINUOUS
 62
    7
 10
1069.716494362209
 20
1088.9270637539648
 11
1068.3660073273174
 21
1090.9065905745447
  0
LINE
  8
_0-0_0
  6
CONTINUOUS
 62
    7
 10
1086.91153641405
 20
1074.9600156976223
 11
1084.1841715013302
 21
1074.7808729217884
  0
LINE
  8
_0-0_0
  6
CONTINUOUS
 62
    7
 10
1068.3660073273174
 20
1090.9065905745447
 11
1066.4165783197845
 21
1093.4279035767611
  0
LINE
  8
_0-0_0
  6
CONTINUOUS
 62
    7
 10
1090.7191079467689
 20
1074.8687420818487
 11
1086.91153641405
 21
1074.9600156976223
  0
LINE
  8
_0-0_0
  6
CONTINUOUS
 62
    7
 10
1066.4165783197845
 20
1093.4279035767611
 11
1065.3508513437191
 21
1096.0045824704953
  0
LINE
  8
_0-0_0
  6
CONTINUOUS
 62
    7
 10
1092.091099748618
 20
1074.2964496660488
 11
1090.7191079467689
 21
1074.8687420818487
  0
LINE
  8
_0-0_0
  6
CONTINUOUS
 62
    7
 10
1065.3508513437191
 20
1096.0045824704953
 11
1065.2249414104638
 21
1098.6960505655859
  0
LINE
  8
_0-0_0
  6
CONTINUOUS
 62
    7
 10
1094.1127448288748
 20
1073.8895753446068
 11
1092.091099748618
 21
1074.2964496660488
  0
LINE
  8
_0-0_0
  6
CONTINUOUS
 62
    7
 10
1065.2249414104638
 20
1098.6960505655859
 11
1066.0306416131557
 21
1100.5593369820103
  0
LINE
  8
_0-0_0
  6
CONTINUOUS
 62
    7
 10
1096.5870482518544
 20
1074.8080763290648
 11
1094.1127448288748
 21
1073.8895753446068
  0
LINE
  8
_0-0_0
  6
CONTINUOUS
 62
    7
 10
1066.0306416131557
 20
1100.5593369820103
 11
1067.7039591821881
 21
1102.1640244844853
  0
LINE
  8
_0-0_0
  6
CONTINUOUS
 62
    7
 10
1067.7039591821881
 20
1102.1640244844853
 11
1070.2656397252404
 21
1102.9752432661021
  0
LINE
  8
_0-0_0
  6
CONTINUOUS
 62
    7
 10
1070.2656397252404
 20
1102.9752432661021
 11
1072.246963669287
 21
1102.9399188234995
  0
LINE
  8
_0-0_0
  6
CONTINUOUS
 62
    7
 10
1096.5318782033517
 20
1079.3645249859683
 11
1097.7337821815117
 21
1077.6706420528972
  0
LINE
  8
_0-0_0
  6
CONTINUOUS
 62
    7
 10
1072.246963669287
 20
1102.9399188234995
 11
1073.5897650126794
 21
1102.2895727724838
  0
LINE
  8
_0-0_0
  6
CONTINUOUS
 62
    7
 10
1094.9274423955192
 20
1080.577850724487
 11
1096.5318782033517
 21
1079.3645249859683
  0
LINE
  8
_0-0_0
  6
CONTINUOUS
 62
    7
 10
1094.0748020557701
 20
1081.272811401059
 11
1094.9274423955192
 21
1080.577850724487
  0
LINE
  8
_0-0_0
  6
CONTINUOUS
 62
    7
 10
1097.693578535605
 20
1083.2326951187663
 11
1095.2592245926808
 21
1083.7482355208531
  0
LINE
  8
_0-0_0
  6
CONTINUOUS
 62
    7
 10
1099.6289693261533
 20
1081.7625406850875
 11
1097.693578535605
 21
1083.2326951187663
  0
LINE
  8
_0-0_0
  6
CONTINUOUS
 62
    7
 10
1074.5509322724929
 20
1103.1917322761458
 11
1072.945114791429
 21
1107.1238850283908
  0
LINE
  8
_0-0_0
  6
CONTINUOUS
 62
    7
 10
1099.8775512229981
 20
1081.4102292657599
 11
1099.6289693261533
 21
1081.7625406850875
  0
LINE
  8
_0-0_0
  6
CONTINUOUS
 62
    7
 10
1072.945114791429
 20
1107.1238850283908
 11
1072.1224418577888
 21
1109.949058197572
  0
LINE
  8
_0-0_0
  6
CONTINUOUS
 62
    7
 10
1072.1224418577888
 20
1109.949058197572
 11
1071.7093722382779
 21
1112.4225508587483
  0
LINE
  8
_0-0_0
  6
CONTINUOUS
 62
    7
 10
1104.4306187056354
 20
1082.4600356368342
 11
1103.1057669292309
 21
1081.134226035429
  0
LINE
  8
_0-0_0
  6
CONTINUOUS
 62
    7
 10
1071.7093722382779
 20
1112.4225508587483
 11
1071.9957290084628
 21
1114.2610950883322
  0
LINE
  8
_0-0_0
  6
CONTINUOUS
 62
    7
 10
1106.1341074820921
 20
1084.7373644116233
 11
1104.4306187056354
 21
1082.4600356368342
  0
LINE
  8
_0-0_0
  6
CONTINUOUS
 62
    7
 10
1071.9957290084628
 20
1114.2610950883322
 11
1072.657079253084
 21
1115.5860670846068
  0
LINE
  8
_0-0_0
  6
CONTINUOUS
 62
    7
 10
1107.3311689551435
 20
1087.044004552467
 11
1106.1341074820921
 21
1084.7373644116233
  0
LINE
  8
_0-0_0
  6
CONTINUOUS
 62
    7
 10
1072.657079253084
 20
1115.5860670846068
 11
1071.4660644800663
 21
1118.3058730396745
  0
LINE
  8
_0-0_0
  6
CONTINUOUS
 62
    7
 10
1108.0961052201142
 20
1089.2797748892283
 11
1107.3311689551435
 21
1087.044004552467
  0
LINE
  8
_0-0_0
  6
CONTINUOUS
 62
    7
 10
1071.4660644800663
 20
1118.3058730396745
 11
1071.0407089817029
 21
1120.4279193951743
  0
LINE
  8
_0-0_0
  6
CONTINUOUS
 62
    7
 10
1108.5879425687474
 20
1092.10036203816
 11
1108.0961052201142
 21
1089.2797748892283
  0
LINE
  8
_0-0_0
  6
CONTINUOUS
 62
    7
 10
1071.0407089817029
 20
1120.4279193951743
 11
1071.1232565002454
 21
1122.1245339613588
  0
LINE
  8
_0-0_0
  6
CONTINUOUS
 62
    7
 10
1108.11724164626
 20
1094.669733708339
 11
1108.5879425687474
 21
1092.10036203816
  0
LINE
  8
_0-0_0
  6
CONTINUOUS
 62
    7
 10
1071.1232565002454
 20
1122.1245339613588
 11
1072.3085347711533
 21
1123.5976070474574
  0
LINE
  8
_0-0_0
  6
CONTINUOUS
 62
    7
 10
1106.8721385189465
 20
1096.402274058081
 11
1108.11724164626
 21
1094.669733708339
  0
LINE
  8
_0-0_0
  6
CONTINUOUS
 62
    7
 10
1072.3085347711533
 20
1123.5976070474574
 11
1074.6756019405468
 21
1124.4148199392685
  0
LINE
  8
_0-0_0
  6
CONTINUOUS
 62
    7
 10
1105.512243945029
 20
1097.3373931446727
 11
1106.8721385189465
 21
1096.402274058081
  0
LINE
  8
_0-0_0
  6
CONTINUOUS
 62
    7
 10
1074.6756019405468
 20
1124.4148199392685
 11
1076.0266253310494
 21
1124.1278565084062
  0
LINE
  8
_0-0_0
  6
CONTINUOUS
 62
    7
 10
1102.3527906818188
 20
1098.1472305259651
 11
1105.512243945029
 21
1097.3373931446727
  0
LINE
  8
_0-0_0
  6
CONTINUOUS
 62
    7
 10
1076.0266253310494
 20
1124.1278565084062
 11
1078.4190934632877
 21
1122.6222852803626
  0
LINE
  8
_0-0_0
  6
CONTINUOUS
 62
    7
 10
1098.5558287625211
 20
1098.1575046187754
 11
1102.3527906818188
 21
1098.1472305259651
  0
LINE
  8
_0-0_0
  6
CONTINUOUS
 62
    7
 10
1078.4190934632877
 20
1122.6222852803626
 11
1079.9642379244287
 21
1121.3813097905422
  0
LINE
  8
_0-0_0
  6
CONTINUOUS
 62
    7
 10
1095.2321089078271
 20
1097.3410759835795
 11
1098.5558287625211
 21
1098.1575046187754
  0
LINE
  8
_0-0_0
  6
CONTINUOUS
 62
    7
 10
1079.9642379244287
 20
1121.3813097905422
 11
1082.2434978068018
 21
1119.0271250805974
  0
LINE
  8
_0-0_0
  6
CONTINUOUS
 62
    7
 10
1091.6467069951975
 20
1095.4112567261373
 11
1095.2321089078271
 21
1097.3410759835795
  0
LINE
  8
_0-0_0
  6
CONTINUOUS
 62
    7
 10
1082.2434978068018
 20
1119.0271250805974
 11
1084.3202013141599
 21
1116.0210096113669
  0
LINE
  8
_0-0_0
  6
CONTINUOUS
 62
    7
 10
1088.8604195558739
 20
1093.2648033196115
 11
1091.6467069951975
 21
1095.4112567261373
  0
LINE
  8
_0-0_0
  6
CONTINUOUS
 62
    7
 10
1084.3202013141599
 20
1116.0210096113669
 11
1085.7278746741442
 21
1113.0233315349435
  0
LINE
  8
_0-0_0
  6
CONTINUOUS
 62
    7
 10
1086.9037776249011
 20
1092.8778840876141
 11
1088.8604195558739
 21
1093.2648033196115
  0
LINE
  8
_0-0_0
  6
CONTINUOUS
 62
    7
 10
1085.7278746741442
 20
1113.0233315349435
 11
1086.8377379926444
 21
1108.7862471213114
  0
LINE
  8
_0-0_0
  6
CONTINUOUS
 62
    7
 10
1085.5854960492243
 20
1093.1807816989033
 11
1086.9037776249011
 21
1092.8778840876141
  0
LINE
  8
_0-0_0
  6
CONTINUOUS
 62
    7
 10
1086.8377379926444
 20
1108.7862471213114
 11
1087.0590920892412
 21
1104.6415247677382
  0
LINE
  8
_0-0_0
  6
CONTINUOUS
 62
    7
 10
1085.1701848924884
 20
1094.1049037195503
 11
1085.5854960492243
 21
1093.1807816989033
  0
LINE
  8
_0-0_0
  6
CONTINUOUS
 62
    7
 10
1087.0590920892412
 20
1104.6415247677382
 11
1086.687610795218
 21
1101.545302185584
  0
LINE
  8
_0-0_0
  6
CONTINUOUS
 62
    7
 10
1085.2261247226281
 20
1096.22713795969
 11
1085.1701848924884
 21
1094.1049037195503
  0
LINE
  8
_0-0_0
  6
CONTINUOUS
 62
    7
 10
1086.687610795218
 20
1101.545302185584
 11
1085.9991180076543
 21
1098.9326772580764
  0
LINE
  8
_0-0_0
  6
CONTINUOUS
 62
    7
 10
1085.9991180076543
 20
1098.9326772580764
 11
1085.2261247226281
 21
1096.22713795969
  0
ARC
  8
_0-0_0
  6
CONTINUOUS
 62
    7
 10
1101.6078365793346
 20
1082.6310742124881
 40
2.1176283428175959
 50
215.20581241046409
 51
315.0207040130158
  0
ARC
  8
_0-0_0
  6
CONTINUOUS
 62
    7
 10
1094.9667348854316
 20
1082.367114915708
 40
1.4117522285450643
 50
78.042736474056539
 51
230.81759178078013
  0
ARC
  8
_0-0_0
  6
CONTINUOUS
 62
    7
 10
1073.8974483877287
 20
1102.9248617062917
 40
0.7058761142725322
 50
244.15814748913749
 51
22.214184037529957
  0
ARC
  8
_0-0_0
  6
CONTINUOUS
 62
    7
 10
1075.7710421352497
 20
1114.007147332137
 40
0.7058761142725322
 50
33.345965929334433
 51
156.11188201038939
  0
ARC
  8
_0-0_0
  6
CONTINUOUS
 62
    7
 10
1074.7031396865641
 20
1121.0041347574138
 40
0.7058761142725322
 50
65.065415273574544
 51
190.16012626948083
  0
ARC
  8
_0-0_0
  6
CONTINUOUS
 62
    7
 10
1069.3736568673726
 20
1099.9336132853375
 40
0.7058761142725322
 50
108.4046504603686
 51
232.31827191008799
  0
ARC
  8
_0-4_P-6853
  6
CONTINUOUS
 62
    7
 10
1095.4668574269435
 20
1076.9177925848981
 40
2.3886670266782208
 50
297.96685075842578
 51
18.371412518253269
  0
LINE
  8
_0-4_P-6853
  6
CONTINUOUS
 62
    7
 10
1179.6680148432524
 20
1121.9935942858306
 11
1168.2988896863853
 21
1110.6244691289642
  0
LINE
  8
_0-4_P-6853
  6
CONTINUOUS
 62
    7
 10
1165.4704625616391
 20
1113.4528962537104
 11
1160.5207150933334
 21
1118.4026437220161
  0
ARC
  8
_0-4_P-6853
  6
CONTINUOUS
 62
    7
 10
1166.8846761240122
 20
1112.0386826913373
 40
1.9999999999999991
 50
134.9999999999954
 51
314.9999999999954
  0
LINE
  8
_0-4_P-6853
  6
CONTINUOUS
 62
    7
 10
1169.0614131254547
 20
1132.6001960036297
 11
1157.6922879685872
 21
1121.2310708467623
  0
ARC
  8
_0-4_P-6853
  6
CONTINUOUS
 62
    7
 10
1159.10650153096
 20
1119.8168572843892
 40
1.9999999999999991
 50
134.9999999999954
 51
314.9999999999954
  0
LINE
  8
_0-4_P-6853
  6
CONTINUOUS
 62
    7
 10
1016.7030966749631
 20
905.69833956152695
 11
1006.6356858891438
 21
920.12966902100311
  0
LINE
  8
_0-4_P-6853
  6
CONTINUOUS
 62
    7
 10
1009.9162959623499
 20
922.41824883118647
 11
1015.6573635904604
 21
926.42326349900736
  0
ARC
  8
_0-4_P-6853
  6
CONTINUOUS
 62
    7
 10
1008.275990925747
 20
921.27395892609479
 40
1.9999999999999991
 50
34.899935666009618
 51
214.89993566600961
  0
LINE
  8
_0-4_P-6853
  6
CONTINUOUS
 62
    7
 10
1029.0053844494857
 20
914.28051384971332
 11
1018.9379736636669
 21
928.71184330919073
  0
ARC
  8
_0-4_P-6853
  6
CONTINUOUS
 62
    7
 10
1017.2976686270637
 20
927.56755340409904
 40
1.9999999999999991
 50
34.899935666009618
 51
214.89993566600961
  0
LINE
  8
_0-4_P-6853
  6
CONTINUOUS
 62
    7
 10
1019.9837067481684
 20
907.98691937170975
 11
1025.7247743762796
 21
911.99193403952995
  0
ARC
  8
_0-4_P-6853
  6
CONTINUOUS
 62
    7
 10
1018.3434017115654
 20
906.84262946661829
 40
1.9999999999999991
 50
214.89993566600961
 51
34.899935666009618
  0
ARC
  8
_0-4_P-6853
  6
CONTINUOUS
 62
    7
 10
1027.3650794128826
 20
913.13622394462163
 40
1.9999999999999991
 50
214.89993566600961
 51
34.899935666009618
  0
ARC
  8
_0-4_P-6853
  6
CONTINUOUS
 62
    7
 10
1044.5679781629265
 20
880.79472881811046
 40
39.001804067287232
 50
137.64598859329041
 51
210.69221609673454
  0
ARC
  8
_0-4_P-6853
  6
CONTINUOUS
 62
    7
 10
1044.5701477018995
 20
880.89276813554875
 40
44.936057068061565
 50
136.01510154832999
 51
212.31442502456721
  0
ARC
  8
_0-4_P-6853
  6
CONTINUOUS
 62
    7
 10
991.16277364633197
 20
955.20440782013236
 40
46.202526826170455
 50
314.3957823539094
 51
80.937607146318982
  0
ARC
  8
_0-4_P-6853
  6
CONTINUOUS
 62
    7
 10
991.02449186370677
 20
955.29170019775177
 40
40.331980753689621
 50
315.88557509158039
 51
80.741383084769865
  0
LINE
  8
_0-4_P-6853
  6
CONTINUOUS
 62
    7
 10
1009.9162959623499
 20
922.41824883118647
 11
1019.9837067481684
 21
907.98691937170975
  0
LINE
  8
_0-4_P-6853
  6
CONTINUOUS
 62
    7
 10
1025.7247743762796
 20
911.99193403953018
 11
1015.65736359046
 21
926.42326349900713
  0
LINE
  8
_0-4_P-6853
  6
CONTINUOUS
 62
    7
 10
1176.8395877185062
 20
1124.8220214105772
 11
1171.8898402502007
 21
1129.771768878883
  0
ARC
  8
_0-4_P-6853
  6
CONTINUOUS
 62
    7
 10
1178.2538012808791
 20
1123.4078078482039
 40
1.9999999999999991
 50
314.9999999999954
 51
134.99999999999542
  0
ARC
  8
_0-4_P-6853
  6
CONTINUOUS
 62
    7
 10
1170.4756266878278
 20
1131.1859824412563
 40
1.9999999999999991
 50
314.9999999999954
 51
134.99999999999542
  0
ARC
  8
_0-4_P-6853
  6
CONTINUOUS
 62
    7
 10
1048.7172198739418
 20
1001.6494010343174
 40
175.85059896568251
 50
47.444397303999558
 51
107.3581146393193
  0
ARC
  8
_0-4_P-6853
  6
CONTINUOUS
 62
    7
 10
1048.7172198739418
 20
1001.6494010343174
 40
169.85059896568254
 50
47.530801276083011
 51
107.35811463931931
  0
ARC
  8
_0-4_P-6853
  6
CONTINUOUS
 62
    7
 10
1080.4313825428519
 20
1033.3635637032319
 40
125
 50
48.439812767514688
 51
125.18620594480922
  0
ARC
  8
_0-4_P-6853
  6
CONTINUOUS
 62
    7
 10
1080.4313825428519
 20
1033.3635637032319
 40
119
 50
48.613473464683629
 51
125.34010629344029
  0
LINE
  8
_0-4_P-6853
  6
CONTINUOUS
 62
    7
 10
1160.5207150933334
 20
1118.4026437220161
 11
1171.8898402502007
 21
1129.771768878883
  0
LINE
  8
_0-4_P-6853
  6
CONTINUOUS
 62
    7
 10
1176.8395877185062
 20
1124.8220214105772
 11
1165.4704625616394
 21
1113.4528962537102
  0
ARC
  8
_0-4_P-6853
  6
CONTINUOUS
 62
    7
 10
1127.1151880084517
 20
484.59963930906883
 40
94.939857147651793
 50
69.540849642912605
 51
111.03854489951209
  0
ARC
  8
_0-4_P-6853
  6
CONTINUOUS
 62
    7
 10
1108.8372263536685
 20
529.79559217986764
 40
46.202526826170455
 50
110.00378089132219
 51
115.71152829943389
  0
ARC
  8
_0-0_0
  6
CONTINUOUS
 62
    7
 10
1121.0318032898319
 20
517.61861877052013
 40
20.36130145467256
 50
323.34449561433223
 51
356.41713581117426
  0
ARC
  8
_0-0_0
  6
CONTINUOUS
 62
    7
 10
1179.2943129329224
 20
498.54844739259022
 40
44.88445765548547
 50
161.02033661433839
 51
170.8123146143308
  0
ARC
  8
_0-0_0
  6
CONTINUOUS
 62
    7
 10
1144.1856075069202
 20
510.05756184968857
 40
7.9593334185887352
 50
119.1830518922399
 51
157.16559661433482
  0
ARC
  8
_0-0_0
  6
CONTINUOUS
 62
    7
 10
1139.5133974509708
 20
462.49023495823934
 40
26.87869514681325
 50
75.086839614331083
 51
101.7283666143303
  0
ARC
  8
_0-0_0
  6
CONTINUOUS
 62
    7
 10
1095.7098842222056
 20
527.02566131490471
 40
46.906536489846793
 50
316.43991161434161
 51
332.6324466143422
  0
ARC
  8
_0-0_0
  6
CONTINUOUS
 62
    7
 10
1130.0659167532531
 20
506.64872769541046
 40
5.0075819194307751
 50
271.70042201684322
 51
349.25479092238493
  0
ARC
  8
_0-0_0
  6
CONTINUOUS
 62
    7
 10
1120.3046974201495
 20
515.87436146968048
 40
22.611750976532253
 50
300.60744989295739
 51
5.8331966143398075
  0
ARC
  8
_0-0_0
  6
CONTINUOUS
 62
    7
 10
1115.2921982867742
 20
509.73578187030682
 40
20.823843013700262
 50
272.13935961432998
 51
313.78294061434377
  0
ARC
  8
_0-0_0
  6
CONTINUOUS
 62
    7
 10
1126.6127973541538
 20
507.59201724357308
 40
2.173780081831862
 50
0.2086386143296576
 51
71.475820342207555
  0
ARC
  8
_0-0_0
  6
CONTINUOUS
 62
    7
 10
1112.0460015983681
 20
506.10965424562028
 40
16.80676769385391
 50
283.38288861433142
 51
5.0871756143349014
  0
ARC
  8
_0-0_0
  6
CONTINUOUS
 62
    7
 10
1107.9204567434415
 20
534.84040171086599
 40
47.242163641156637
 50
284.59950961432872
 51
313.125849614326
  0
ARC
  8
_0-0_0
  6
CONTINUOUS
 62
    7
 10
1121.4467563648923
 20
527.42223263824712
 40
40.619103479807222
 50
260.61791435626151
 51
288.07559724182499
  0
ARC
  8
_0-0_0
  6
CONTINUOUS
 62
    7
 10
1124.7187897344736
 20
544.25266176834839
 40
59.3535394220212
 50
258.04246361433218
 51
277.22346561432778
  0
ARC
  8
_0-0_0
  6
CONTINUOUS
 62
    7
 10
1111.6566935675578
 20
504.73887173372464
 40
15.29013568637412
 50
302.00609661432429
 51
15.38944179192467
  0
ARC
  8
_0-0_0
  6
CONTINUOUS
 62
    7
 10
1128.5499765175202
 20
514.36345659845779
 40
18.22534292091953
 50
309.79654161432939
 51
28.136585155421979
  0
ARC
  8
_0-0_0
  6
CONTINUOUS
 62
    7
 10
1149.6516164679699
 20
519.77378109920505
 40
7.0368768655545333
 50
153.23129615130762
 51
193.15359061432264
  0
ARC
  8
_0-0_0
  6
CONTINUOUS
 62
    7
 10
1144.4408913526845
 20
481.51102790908766
 40
7.2317022024743238
 50
353.510729614333
 51
74.028517614338568
  0
ARC
  8
_0-0_0
  6
CONTINUOUS
 62
    7
 10
1132.8931293568301
 20
476.07625544797827
 40
1.4269123800426911
 50
180.7827674451315
 51
20.059032490925372
  0
ARC
  8
_0-0_0
  6
CONTINUOUS
 62
    7
 10
1125.0667585435413
 20
473.48973745364646
 40
9.6690345432160072
 50
18.549385654342245
 51
91.187144614326741
  0
ARC
  8
_0-0_0
  6
CONTINUOUS
 62
    7
 10
1143.3923705725597
 20
484.70496986932488
 40
9.1589846981933025
 50
294.34618618065883
 51
334.02635761433584
  0
ARC
  8
_0-0_0
  6
CONTINUOUS
 62
    7
 10
1133.5764099135836
 20
473.06913386046745
 40
12.379823996502981
 50
19.384715432120309
 51
96.467863614346015
  0
ARC
  8
_0-0_0
  6
CONTINUOUS
 62
    7
 10
1146.5861586969991
 20
477.64668903367095
 40
1.4117522285450643
 50
199.38471543212029
 51
294.34618618065878
  0
LINE
  8
_0-0_0
  6
CONTINUOUS
 62
    7
 10
1102.4864553537
 20
489.90175680363177
 11
1102.7185428466751
 21
489.87955752069649
  0
LINE
  8
_0-0_0
  6
CONTINUOUS
 62
    7
 10
1102.7185428466751
 20
489.87955752069649
 11
1105.9057021389467
 21
489.90298341853702
  0
LINE
  8
_0-0_0
  6
CONTINUOUS
 62
    7
 10
1103.0973359902114
 20
484.5845921064531
 11
1101.5598697774526
 21
484.16979282921943
  0
LINE
  8
_0-0_0
  6
CONTINUOUS
 62
    7
 10
1105.9057021389467
 20
489.90298341853702
 11
1108.9311009316634
 21
490.28811794491548
  0
LINE
  8
_0-0_0
  6
CONTINUOUS
 62
    7
 10
1106.5756687807097
 20
485.09176022233783
 11
1103.0973359902114
 21
484.5845921064531
  0
LINE
  8
_0-0_0
  6
CONTINUOUS
 62
    7
 10
1108.9311009316634
 20
490.28811794491548
 11
1112.3569032628211
 21
491.17239139317167
  0
LINE
  8
_0-0_0
  6
CONTINUOUS
 62
    7
 10
1109.3135413699204
 20
484.98307641661927
 11
1106.5756687807097
 21
485.09176022233783
  0
LINE
  8
_0-0_0
  6
CONTINUOUS
 62
    7
 10
1112.3569032628211
 20
491.17239139317167
 11
1115.9384843108164
 21
492.66344582723065
  0
LINE
  8
_0-0_0
  6
CONTINUOUS
 62
    7
 10
1112.814885561148
 20
484.35495447403184
 11
1109.3135413699204
 21
484.98307641661927
  0
LINE
  8
_0-0_0
  6
CONTINUOUS
 62
    7
 10
1115.9384843108164
 20
492.66344582723065
 11
1118.0693653365479
 21
494.21491835281978
  0
LINE
  8
_0-0_0
  6
CONTINUOUS
 62
    7
 10
1116.0916031662723
 20
483.47359313800013
 11
1112.814885561148
 21
484.35495447403184
  0
LINE
  8
_0-0_0
  6
CONTINUOUS
 62
    7
 10
1118.0693653365479
 20
494.21491835281978
 11
1120.011097271454
 21
497.18062296691176
  0
LINE
  8
_0-0_0
  6
CONTINUOUS
 62
    7
 10
1120.5935012548246
 20
481.69903926288208
 11
1116.0916031662723
 21
483.47359313800013
  0
LINE
  8
_0-0_0
  6
CONTINUOUS
 62
    7
 10
1120.011097271454
 20
497.18062296691176
 11
1120.7402328224887
 21
499.97944172685061
  0
LINE
  8
_0-0_0
  6
CONTINUOUS
 62
    7
 10
1123.806089602683
 20
479.97871876327963
 11
1120.5935012548246
 21
481.69903926288208
  0
LINE
  8
_0-0_0
  6
CONTINUOUS
 62
    7
 10
1120.7402328224887
 20
499.97944172685061
 11
1120.850021527162
 21
502.37324374563423
  0
LINE
  8
_0-0_0
  6
CONTINUOUS
 62
    7
 10
1126.0939302313341
 20
478.48326005132333
 11
1123.806089602683
 21
479.97871876327963
  0
LINE
  8
_0-0_0
  6
CONTINUOUS
 62
    7
 10
1120.850021527162
 20
502.37324374563423
 11
1120.806543884896
 21
505.55999795723858
  0
LINE
  8
_0-0_0
  6
CONTINUOUS
 62
    7
 10
1129.0827967989926
 20
476.12262274533168
 11
1126.0939302313341
 21
478.48326005132333
  0
LINE
  8
_0-0_0
  6
CONTINUOUS
 62
    7
 10
1120.806543884896
 20
505.55999795723858
 11
1121.5027472018833
 21
508.26006259541771
  0
LINE
  8
_0-0_0
  6
CONTINUOUS
 62
    7
 10
1129.8356967697864
 20
474.84081864660908
 11
1129.0827967989926
 21
476.12262274533168
  0
LINE
  8
_0-0_0
  6
CONTINUOUS
 62
    7
 10
1121.5027472018833
 20
508.26006259541771
 11
1123.0191916963302
 21
510.48722444706823
  0
LINE
  8
_0-0_0
  6
CONTINUOUS
 62
    7
 10
1131.2073050806075
 20
473.30092053775229
 11
1129.8356967697864
 21
474.84081864660908
  0
LINE
  8
_0-0_0
  6
CONTINUOUS
 62
    7
 10
1123.0191916963302
 20
510.48722444706823
 11
1124.782758756442
 21
511.49262004619072
  0
LINE
  8
_0-0_0
  6
CONTINUOUS
 62
    7
 10
1133.7370758719351
 20
472.54853683858857
 11
1131.2073050806075
 21
473.30092053775229
  0
LINE
  8
_0-0_0
  6
CONTINUOUS
 62
    7
 10
1124.782758756442
 20
511.49262004619072
 11
1127.0845118466668
 21
511.77001214967305
  0
LINE
  8
_0-0_0
  6
CONTINUOUS
 62
    7
 10
1127.0845118466668
 20
511.77001214967305
 11
1129.6196728081486
 21
510.8793707989156
  0
LINE
  8
_0-0_0
  6
CONTINUOUS
 62
    7
 10
1129.6196728081486
 20
510.8793707989156
 11
1131.1822846509103
 21
509.66070898513891
  0
LINE
  8
_0-0_0
  6
CONTINUOUS
 62
    7
 10
1136.4305909367836
 20
476.22402928079026
 11
1136.3736488306497
 21
474.14783801787269
  0
LINE
  8
_0-0_0
  6
CONTINUOUS
 62
    7
 10
1131.1822846509103
 20
509.66070898513891
 11
1131.8649538988934
 21
508.33404846648807
  0
LINE
  8
_0-0_0
  6
CONTINUOUS
 62
    7
 10
1135.8770265758833
 20
478.15792175648482
 11
1136.4305909367836
 21
476.22402928079026
  0
LINE
  8
_0-0_0
  6
CONTINUOUS
 62
    7
 10
1135.612988898197
 20
479.22574664648823
 11
1135.8770265758833
 21
478.15792175648482
  0
LINE
  8
_0-0_0
  6
CONTINUOUS
 62
    7
 10
1139.683317565102
 20
478.61820081174938
 11
1138.0470860676974
 21
480.49292946211858
  0
LINE
  8
_0-0_0
  6
CONTINUOUS
 62
    7
 10
1140.347133059106
 20
476.28015877600171
 11
1139.683317565102
 21
478.61820081174938
  0
LINE
  8
_0-0_0
  6
CONTINUOUS
 62
    7
 10
1133.1753318858871
 20
508.47772797994736
 11
1134.2541955783208
 21
512.58583316149065
  0
LINE
  8
_0-0_0
  6
CONTINUOUS
 62
    7
 10
1140.3341684216552
 20
475.8491736094316
 11
1140.347133059106
 21
476.28015877600171
  0
LINE
  8
_0-0_0
  6
CONTINUOUS
 62
    7
 10
1134.2541955783208
 20
512.58583316149065
 11
1135.2939929887027
 21
515.33850741337187
  0
LINE
  8
_0-0_0
  6
CONTINUOUS
 62
    7
 10
1135.2939929887027
 20
515.33850741337187
 11
1136.4499225204163
 21
517.56395554198934
  0
LINE
  8
_0-0_0
  6
CONTINUOUS
 62
    7
 10
1144.6045579292743
 20
473.95278483826291
 11
1142.7489184012341
 21
473.68895673021683
  0
LINE
  8
_0-0_0
  6
CONTINUOUS
 62
    7
 10
1136.4499225204163
 20
517.56395554198934
 11
1137.783469898121
 21
518.86160590914744
  0
LINE
  8
_0-0_0
  6
CONTINUOUS
 62
    7
 10
1147.3345673872191
 20
474.74974702025736
 11
1144.6045579292743
 21
473.95278483826291
  0
LINE
  8
_0-0_0
  6
CONTINUOUS
 62
    7
 10
1137.783469898121
 20
518.86160590914744
 11
1139.1082147023458
 21
519.52341112267402
  0
LINE
  8
_0-0_0
  6
CONTINUOUS
 62
    7
 10
1149.6773586821969
 20
475.87441312972771
 11
1147.3345673872191
 21
474.74974702025736
  0
LINE
  8
_0-0_0
  6
CONTINUOUS
 62
    7
 10
1139.1082147023458
 20
519.52341112267402
 11
1139.7902591186332
 21
522.41316475178837
  0
LINE
  8
_0-0_0
  6
CONTINUOUS
 62
    7
 10
1151.6321364996795
 20
477.20205772542602
 11
1149.6773586821969
 21
475.87441312972771
  0
LINE
  8
_0-0_0
  6
CONTINUOUS
 62
    7
 10
1139.7902591186332
 20
522.41316475178837
 11
1140.7252106742651
 21
524.36505450879292
  0
LINE
  8
_0-0_0
  6
CONTINUOUS
 62
    7
 10
1153.7199749593422
 20
479.16127859316504
 11
1151.6321364996795
 21
477.20205772542602
  0
LINE
  8
_0-0_0
  6
CONTINUOUS
 62
    7
 10
1140.7252106742651
 20
524.36505450879292
 11
1141.8105619754447
 21
525.67170198689655
  0
LINE
  8
_0-0_0
  6
CONTINUOUS
 62
    7
 10
1154.8874413088479
 20
481.49799690325722
 11
1153.7199749593422
 21
479.16127859316504
  0
LINE
  8
_0-0_0
  6
CONTINUOUS
 62
    7
 10
1141.8105619754447
 20
525.67170198689655
 11
1143.6431081146359
 21
526.13710884568843
  0
LINE
  8
_0-0_0
  6
CONTINUOUS
 62
    7
 10
1154.933077020914
 20
483.63104524844618
 11
1154.8874413088479
 21
481.49799690325722
  0
LINE
  8
_0-0_0
  6
CONTINUOUS
 62
    7
 10
1143.6431081146359
 20
526.13710884568843
 11
1146.0262999595896
 21
525.36818718185782
  0
LINE
  8
_0-0_0
  6
CONTINUOUS
 62
    7
 10
1154.4078418017866
 20
485.1956183285119
 11
1154.933077020914
 21
483.63104524844618
  0
LINE
  8
_0-0_0
  6
CONTINUOUS
 62
    7
 10
1146.0262999595896
 20
525.36818718185782
 11
1146.9338702346531
 21
524.32706835667102
  0
LINE
  8
_0-0_0
  6
CONTINUOUS
 62
    7
 10
1152.3687988993786
 20
487.74125882722512
 11
1154.4078418017866
 21
485.1956183285119
  0
LINE
  8
_0-0_0
  6
CONTINUOUS
 62
    7
 10
1146.9338702346531
 20
524.32706835667102
 11
1147.9417861200218
 21
521.68609239038278
  0
LINE
  8
_0-0_0
  6
CONTINUOUS
 62
    7
 10
1149.3397471316357
 20
490.03077204228066
 11
1152.3687988993786
 21
487.74125882722512
  0
LINE
  8
_0-0_0
  6
CONTINUOUS
 62
    7
 10
1147.9417861200218
 20
521.68609239038278
 11
1148.4313414260098
 21
519.76572076631942
  0
LINE
  8
_0-0_0
  6
CONTINUOUS
 62
    7
 10
1146.1922951302913
 20
491.37509911858581
 11
1149.3397471316357
 21
490.03077204228066
  0
LINE
  8
_0-0_0
  6
CONTINUOUS
 62
    7
 10
1148.4313414260098
 20
519.76572076631942
 11
1148.8388945212109
 21
516.51439615402285
  0
LINE
  8
_0-0_0
  6
CONTINUOUS
 62
    7
 10
1142.1667089115003
 20
491.98662576278053
 11
1146.1922951302913
 21
491.37509911858581
  0
LINE
  8
_0-0_0
  6
CONTINUOUS
 62
    7
 10
1148.8388945212109
 20
516.51439615402285
 11
1148.6928329161692
 21
512.86362997699189
  0
LINE
  8
_0-0_0
  6
CONTINUOUS
 62
    7
 10
1138.6497620896173
 20
491.94485288921322
 11
1142.1667089115003
 21
491.98662576278053
  0
LINE
  8
_0-0_0
  6
CONTINUOUS
 62
    7
 10
1148.6928329161692
 20
512.86362997699189
 11
1148.0170297368791
 21
509.62157689273482
  0
LINE
  8
_0-0_0
  6
CONTINUOUS
 62
    7
 10
1136.8531870996621
 20
492.81115101549517
 11
1138.6497620896173
 21
491.94485288921322
  0
LINE
  8
_0-0_0
  6
CONTINUOUS
 62
    7
 10
1148.0170297368791
 20
509.62157689273482
 11
1146.3584991832747
 21
505.56769513363577
  0
LINE
  8
_0-0_0
  6
CONTINUOUS
 62
    7
 10
1135.9813636710205
 20
493.84533532448671
 11
1136.8531870996621
 21
492.81115101549517
  0
LINE
  8
_0-0_0
  6
CONTINUOUS
 62
    7
 10
1146.3584991832747
 20
505.56769513363577
 11
1144.0452031691677
 21
502.12148234632764
  0
LINE
  8
_0-0_0
  6
CONTINUOUS
 62
    7
 10
1136.2046045613256
 20
494.83359053992956
 11
1135.9813636710205
 21
493.84533532448671
  0
LINE
  8
_0-0_0
  6
CONTINUOUS
 62
    7
 10
1144.0452031691677
 20
502.12148234632764
 11
1141.8879672460819
 21
499.8696107242767
  0
LINE
  8
_0-0_0
  6
CONTINUOUS
 62
    7
 10
1137.5244080351499
 20
496.49645740925422
 11
1136.2046045613256
 21
494.83359053992956
  0
LINE
  8
_0-0_0
  6
CONTINUOUS
 62
    7
 10
1141.8879672460819
 20
499.8696107242767
 11
1139.7678742713574
 21
498.19478622335521
  0
LINE
  8
_0-0_0
  6
CONTINUOUS
 62
    7
 10
1139.7678742713574
 20
498.19478622335521
 11
1137.5244080351499
 21
496.49645740925422
  0
ARC
  8
_0-0_0
  6
CONTINUOUS
 62
    7
 10
1142.4508393031651
 20
475.78550118469411
 40
2.1176283428175968
 50
178.27698229230501
 51
278.09187389484629
  0
ARC
  8
_0-0_0
  6
CONTINUOUS
 62
    7
 10
1136.9834665494236
 20
479.56462031363969
 40
1.4117522285450643
 50
41.113906355884943
 51
193.88876166261929
  0
ARC
  8
_0-0_0
  6
CONTINUOUS
 62
    7
 10
1132.4926064929023
 20
508.65702417754801
 40
0.7058761142725323
 50
207.22931737098352
 51
345.28535391938169
  0
ARC
  8
_0-0_0
  6
CONTINUOUS
 62
    7
 10
1140.6488113731857
 20
516.39031132949117
 40
0.7058761142725323
 50
356.41713581117426
 51
119.18305189223999
  0
ARC
  8
_0-0_0
  6
CONTINUOUS
 62
    7
 10
1143.9990966330301
 20
522.62520004919247
 40
0.7058761142725323
 50
28.136585155414693
 51
153.23129615130759
  0
ARC
  8
_0-0_0
  6
CONTINUOUS
 62
    7
 10
1127.0791575413818
 20
508.98386861270149
 40
0.7058761142725323
 50
71.47582034220757
 51
195.38944179192461
  0
ARC
  8
_0-4_P-6853
  6
CONTINUOUS
 62
    7
 10
1134.1091800688155
 20
474.90804285277983
 40
2.3886670266782222
 50
261.03802064026945
 51
341.44258240008782
  0
ARC
  8
_0-4_P-6853
  6
CONTINUOUS
 62
    7
 10
1108.975508136293
 20
529.70829980224835
 40
40.331980753689621
 50
110.14595238091611
 51
114.45151228759531
  0
ARC
  8
_0-4_P-6853
  6
CONTINUOUS
 62
    7
 10
1122.8666223702326
 20
479.1415828619389
 40
101.5598238340953
 50
5.2431111908303238
 51
68.371400604167121
  0
ARC
  8
_0-4_P-6853
  6
CONTINUOUS
 62
    7
 10
1180.1339981199551
 20
700.10962889133998
 40
44.936057068061565
 50
222.86669696571749
 51
45.740180312844629
  0
ARC
  8
_0-4_P-6853
  6
CONTINUOUS
 62
    7
 10
1180.0386647808823
 20
700.13260647007075
 40
39.001804067287232
 50
224.48890589355253
 51
44.89091929637798
  0
ARC
  8
_0-0_0
  6
CONTINUOUS
 62
    7
 10
1156.8031548612873
 20
706.81100895264217
 40
20.36130145467256
 50
139.2445950658072
 51
172.31723526265449
  0
ARC
  8
_0-0_0
  6
CONTINUOUS
 62
    7
 10
1101.8042757965359
 20
733.89079417918356
 40
44.884457655485448
 50
324.84941626265709
 51
334.6413942626458
  0
ARC
  8
_0-0_0
  6
CONTINUOUS
 62
    7
 10
1134.9585791322315
 20
717.58517911562126
 40
7.9593334185887343
 50
338.49613426265267
 51
16.478678984755071
  0
ARC
  8
_0-0_0
  6
CONTINUOUS
 62
    7
 10
1105.0557864027282
 20
680.29841039826965
 40
26.87869514681325
 50
33.933364262646293
 51
60.574891262649267
  0
ARC
  8
_0-0_0
  6
CONTINUOUS
 62
    7
 10
1181.4885696107249
 20
695.84185523197903
 40
46.906536489846779
 50
163.02928426264069
 51
179.22181926264119
  0
ARC
  8
_0-0_0
  6
CONTINUOUS
 62
    7
 10
1142.6749394373012
 20
705.27893676009649
 40
5.0075819194307734
 50
146.40693995458969
 51
223.9613088601476
  0
ARC
  8
_0-0_0
  6
CONTINUOUS
 62
    7
 10
1156.1041504562818
 20
705.05530131210423
 40
22.611750976532253
 50
129.8285342626462
 51
195.0542809840135
  0
ARC
  8
_0-0_0
  6
CONTINUOUS
 62
    7
 10
1155.3990093239693
 20
697.16162770322899
 40
20.823843013700262
 50
181.87879026264889
 51
223.52237126265399
  0
ARC
  8
_0-0_0
  6
CONTINUOUS
 62
    7
 10
1145.8039591231127
 20
703.54024053536045
 40
2.173780081831862
 50
64.185910534769832
 51
135.45309226265391
  0
ARC
  8
_0-0_0
  6
CONTINUOUS
 62
    7
 10
1155.1864980970161
 20
692.29938198044283
 40
16.80676769385391
 50
130.5745552626426
 51
212.27884226263953
  0
ARC
  8
_0-0_0
  6
CONTINUOUS
 62
    7
 10
1178.2169181899483
 20
709.96504700061121
 40
47.24216364115663
 50
182.53588126264731
 51
211.06222126264868
  0
ARC
  8
_0-0_0
  6
CONTINUOUS
 62
    7
 10
1163.3580482399136
 20
714.11281720244051
 40
40.619103479807208
 50
207.5861336351706
 51
235.04381652071874
  0
ARC
  8
_0-0_0
  6
CONTINUOUS
 62
    7
 10
1172.7804763592444
 20
728.43718090248205
 40
59.3535394220212
 50
218.43826526264411
 51
237.61926726264551
  0
ARC
  8
_0-0_0
  6
CONTINUOUS
 62
    7
 10
1154.5069108396908
 20
691.04687784972975
 40
15.29013568637412
 50
120.2722890850511
 51
193.65563426265479
  0
ARC
  8
_0-0_0
  6
CONTINUOUS
 62
    7
 10
1149.1509506761772
 20
709.73723186919119
 40
18.22534292091953
 50
107.52514572154672
 51
185.86518926264833
  0
ARC
  8
_0-0_0
  6
CONTINUOUS
 62
    7
 10
1137.8397460735894
 20
728.35462884729191
 40
7.0368768655545306
 50
302.5081402626538
 51
342.43043472567558
  0
ARC
  8
_0-0_0
  6
CONTINUOUS
 62
    7
 10
1114.8250162483807
 20
697.34636948002708
 40
7.2317022024743229
 50
61.633213262642528
 51
142.15100126265139
  0
ARC
  8
_0-0_0
  6
CONTINUOUS
 62
    7
 10
1119.285951593416
 20
685.3886266050381
 40
1.4269123800426899
 50
115.6026983860632
 51
314.87896343185707
  0
ARC
  8
_0-0_0
  6
CONTINUOUS
 62
    7
 10
1123.0758764399509
 20
678.06888445795971
 40
9.6690345432160072
 50
44.474586262644877
 51
117.1123452226485
  0
ARC
  8
_0-0_0
  6
CONTINUOUS
 62
    7
 10
1117.8071698419262
 20
698.89795609256953
 40
9.1589846981933007
 50
161.635373262652
 51
201.3155446963238
  0
ARC
  8
_0-0_0
  6
CONTINUOUS
 62
    7
 10
1116.6955948156808
 20
683.71539490400164
 40
12.379823996502981
 50
39.193867262648283
 51
116.27701544485639
  0
ARC
  8
_0-0_0
  6
CONTINUOUS
 62
    7
 10
1110.5899050850014
 20
696.08180617340304
 40
1.4117522285450643
 50
201.3155446963238
 51
296.27701544485649
  0
LINE
  8
_0-0_0
  6
CONTINUOUS
 62
    7
 10
1152.2153178593069
 20
672.80126756059292
 11
1150.5146363886997
 21
674.17229631717964
  0
LINE
  8
_0-0_0
  6
CONTINUOUS
 62
    7
 10
1150.5146363886997
 20
674.17229631717964
 11
1148.2514691190588
 21
676.41653494901652
  0
LINE
  8
_0-0_0
  6
CONTINUOUS
 62
    7
 10
1146.5430985580324
 20
670.64993485883883
 11
1147.1986344452789
 21
669.53985551238134
  0
LINE
  8
_0-0_0
  6
CONTINUOUS
 62
    7
 10
1148.2514691190588
 20
676.41653494901652
 11
1146.3567928637431
 21
678.80642372172599
  0
LINE
  8
_0-0_0
  6
CONTINUOUS
 62
    7
 10
1144.4097605323939
 20
673.44365770973013
 11
1146.5430985580324
 21
670.64993485883883
  0
LINE
  8
_0-0_0
  6
CONTINUOUS
 62
    7
 10
1146.3567928637431
 20
678.80642372172599
 11
1144.5245823291268
 21
681.83314896533466
  0
LINE
  8
_0-0_0
  6
CONTINUOUS
 62
    7
 10
1142.3756042655873
 20
675.27940463308005
 11
1144.4097605323939
 21
673.44365770973013
  0
LINE
  8
_0-0_0
  6
CONTINUOUS
 62
    7
 10
1144.5245823291268
 20
681.83314896533466
 11
1143.0050298710009
 21
685.40273247825155
  0
LINE
  8
_0-0_0
  6
CONTINUOUS
 62
    7
 10
1139.4323614331454
 20
677.27722092830868
 11
1142.3756042655873
 21
675.27940463308005
  0
LINE
  8
_0-0_0
  6
CONTINUOUS
 62
    7
 10
1143.0050298710009
 20
685.40273247825155
 11
1142.5652817039529
 21
688.00164426841684
  0
LINE
  8
_0-0_0
  6
CONTINUOUS
 62
    7
 10
1136.4727901158453
 20
678.93692381925052
 11
1139.4323614331454
 21
677.27722092830868
  0
LINE
  8
_0-0_0
  6
CONTINUOUS
 62
    7
 10
1142.5652817039529
 20
688.00164426841684
 11
1143.2492150295989
 21
691.47985673621542
  0
LINE
  8
_0-0_0
  6
CONTINUOUS
 62
    7
 10
1132.0126916023296
 20
680.81406236105749
 11
1136.4727901158453
 21
678.93692381925052
  0
LINE
  8
_0-0_0
  6
CONTINUOUS
 62
    7
 10
1143.2492150295989
 20
691.47985673621542
 11
1144.683793540607
 21
693.99123277307706
  0
LINE
  8
_0-0_0
  6
CONTINUOUS
 62
    7
 10
1128.5126443846214
 20
681.82890027322105
 11
1132.0126916023296
 21
680.81406236105749
  0
LINE
  8
_0-0_0
  6
CONTINUOUS
 62
    7
 10
1144.683793540607
 20
693.99123277307706
 11
1146.2782816443175
 21
695.78007299845569
  0
LINE
  8
_0-0_0
  6
CONTINUOUS
 62
    7
 10
1125.8311552241885
 20
682.35826534928208
 11
1128.5126443846214
 21
681.82890027322105
  0
LINE
  8
_0-0_0
  6
CONTINUOUS
 62
    7
 10
1146.2782816443175
 20
695.78007299845569
 11
1148.5365786987511
 21
698.02893651687782
  0
LINE
  8
_0-0_0
  6
CONTINUOUS
 62
    7
 10
1122.043606625828
 20
682.75877435637653
 11
1125.8311552241885
 21
682.35826534928208
  0
LINE
  8
_0-0_0
  6
CONTINUOUS
 62
    7
 10
1148.5365786987511
 20
698.02893651687782
 11
1149.9256926227624
 21
700.44666491664611
  0
LINE
  8
_0-0_0
  6
CONTINUOUS
 62
    7
 10
1120.6092688130072
 20
682.36819126376281
 11
1122.043606625828
 21
682.75877435637653
  0
LINE
  8
_0-0_0
  6
CONTINUOUS
 62
    7
 10
1149.9256926227624
 20
700.44666491664611
 11
1150.3976401377295
 21
703.09942185260968
  0
LINE
  8
_0-0_0
  6
CONTINUOUS
 62
    7
 10
1118.5520345176797
 20
682.22542362701688
 11
1120.6092688130072
 21
682.36819126376281
  0
LINE
  8
_0-0_0
  6
CONTINUOUS
 62
    7
 10
1150.3976401377295
 20
703.09942185260968
 11
1149.8389550740965
 21
705.05105196252305
  0
LINE
  8
_0-0_0
  6
CONTINUOUS
 62
    7
 10
1116.216840634997
 20
683.4553386719291
 11
1118.5520345176797
 21
682.22542362701688
  0
LINE
  8
_0-0_0
  6
CONTINUOUS
 62
    7
 10
1149.8389550740965
 20
705.05105196252305
 11
1148.3865486609202
 21
706.85812951437231
  0
LINE
  8
_0-0_0
  6
CONTINUOUS
 62
    7
 10
1148.3865486609202
 20
706.85812951437231
 11
1145.9508722613732
 21
707.99292623316819
  0
LINE
  8
_0-0_0
  6
CONTINUOUS
 62
    7
 10
1145.9508722613732
 20
707.99292623316819
 11
1143.981537105594
 21
708.21340623613594
  0
LINE
  8
_0-0_0
  6
CONTINUOUS
 62
    7
 10
1116.8591449100788
 20
687.96662599546096
 11
1115.4488355242418
 21
686.44188339426989
  0
LINE
  8
_0-0_0
  6
CONTINUOUS
 62
    7
 10
1143.981537105594
 20
708.21340623613594
 11
1142.5660802929174
 21
707.74165689025835
  0
LINE
  8
_0-0_0
  6
CONTINUOUS
 62
    7
 10
1118.6066527988414
 20
688.96291399996494
 11
1116.8591449100788
 21
687.96662599546096
  0
LINE
  8
_0-0_0
  6
CONTINUOUS
 62
    7
 10
1119.5417949420262
 20
689.54211609162985
 11
1118.6066527988414
 21
688.96291399996494
  0
LINE
  8
_0-0_0
  6
CONTINUOUS
 62
    7
 10
1116.2059800704346
 20
691.95230831226445
 11
1118.6864905461455
 21
692.14961215283233
  0
LINE
  8
_0-0_0
  6
CONTINUOUS
 62
    7
 10
1114.0971603333592
 20
690.74401576179287
 11
1116.2059800704346
 21
691.95230831226445
  0
LINE
  8
_0-0_0
  6
CONTINUOUS
 62
    7
 10
1141.7292804014689
 20
708.76023443421764
 11
1143.828775542564
 21
712.4524688799147
  0
LINE
  8
_0-0_0
  6
CONTINUOUS
 62
    7
 10
1113.8052203967309
 20
690.42670303114869
 11
1114.0971603333592
 21
690.74401576179287
  0
LINE
  8
_0-0_0
  6
CONTINUOUS
 62
    7
 10
1143.828775542564
 20
712.4524688799147
 11
1145.0089105066243
 21
715.14796060837716
  0
LINE
  8
_0-0_0
  6
CONTINUOUS
 62
    7
 10
1145.0089105066243
 20
715.14796060837716
 11
1145.7375100183997
 21
717.54753040458945
  0
LINE
  8
_0-0_0
  6
CONTINUOUS
 62
    7
 10
1109.4255532845741
 20
692.05490231406634
 11
1110.5683674238887
 21
690.56931180130596
  0
LINE
  8
_0-0_0
  6
CONTINUOUS
 62
    7
 10
1145.7375100183997
 20
717.54753040458945
 11
1145.6906411069426
 21
719.40765093539062
  0
LINE
  8
_0-0_0
  6
CONTINUOUS
 62
    7
 10
1108.0299707175536
 20
694.53289538480385
 11
1109.4255532845741
 21
692.05490231406634
  0
LINE
  8
_0-0_0
  6
CONTINUOUS
 62
    7
 10
1145.6906411069426
 20
719.40765093539062
 11
1145.2056801990957
 21
720.80684636664103
  0
LINE
  8
_0-0_0
  6
CONTINUOUS
 62
    7
 10
1107.1403667143838
 20
696.97464672905676
 11
1108.0299707175536
 21
694.53289538480385
  0
LINE
  8
_0-0_0
  6
CONTINUOUS
 62
    7
 10
1145.2056801990957
 20
720.80684636664103
 11
1146.7374932759117
 21
723.350349722342
  0
LINE
  8
_0-0_0
  6
CONTINUOUS
 62
    7
 10
1106.6701403474112
 20
699.29039361764626
 11
1107.1403667143838
 21
696.97464672905676
  0
LINE
  8
_0-0_0
  6
CONTINUOUS
 62
    7
 10
1146.7374932759117
 20
723.350349722342
 11
1147.4329539269679
 21
725.39982343959514
  0
LINE
  8
_0-0_0
  6
CONTINUOUS
 62
    7
 10
1106.5461498724403
 20
702.15085550418644
 11
1106.6701403474112
 21
699.29039361764626
  0
LINE
  8
_0-0_0
  6
CONTINUOUS
 62
    7
 10
1147.4329539269679
 20
725.39982343959514
 11
1147.569889343408
 21
727.09291639945627
  0
LINE
  8
_0-0_0
  6
CONTINUOUS
 62
    7
 10
1107.3442639195437
 20
704.63807163990214
 11
1106.5461498724403
 21
702.15085550418644
  0
LINE
  8
_0-0_0
  6
CONTINUOUS
 62
    7
 10
1147.569889343408
 20
727.09291639945627
 11
1146.5844742076624
 21
728.70654148190829
  0
LINE
  8
_0-0_0
  6
CONTINUOUS
 62
    7
 10
1108.8023969590752
 20
706.19557794812533
 11
1107.3442639195437
 21
704.63807163990214
  0
LINE
  8
_0-0_0
  6
CONTINUOUS
 62
    7
 10
1146.5844742076624
 20
728.70654148190829
 11
1144.3425591409036
 21
729.82218512053169
  0
LINE
  8
_0-0_0
  6
CONTINUOUS
 62
    7
 10
1110.2715283083878
 20
706.94751812975164
 11
1108.8023969590752
 21
706.19557794812533
  0
LINE
  8
_0-0_0
  6
CONTINUOUS
 62
    7
 10
1144.3425591409036
 20
729.82218512053169
 11
1142.9658103821666
 21
729.71184443150742
  0
LINE
  8
_0-0_0
  6
CONTINUOUS
 62
    7
 10
1113.5090357086447
 20
707.34315349196231
 11
1110.2715283083878
 21
706.94751812975164
  0
LINE
  8
_0-0_0
  6
CONTINUOUS
 62
    7
 10
1142.9658103821666
 20
729.71184443150742
 11
1140.3991626176546
 21
728.52737504000152
  0
LINE
  8
_0-0_0
  6
CONTINUOUS
 62
    7
 10
1117.2756176699882
 20
706.86368951827615
 11
1113.5090357086447
 21
707.34315349196231
  0
LINE
  8
_0-0_0
  6
CONTINUOUS
 62
    7
 10
1140.3991626176546
 20
728.52737504000152
 11
1138.7068853054482
 21
727.49602201085963
  0
LINE
  8
_0-0_0
  6
CONTINUOUS
 62
    7
 10
1120.4662984429599
 20
705.62545464805089
 11
1117.2756176699882
 21
706.86368951827615
  0
LINE
  8
_0-0_0
  6
CONTINUOUS
 62
    7
 10
1138.7068853054482
 20
727.49602201085963
 11
1136.1430641782631
 21
725.45542589998081
  0
LINE
  8
_0-0_0
  6
CONTINUOUS
 62
    7
 10
1123.7728945089495
 20
703.24937979698598
 11
1120.4662984429599
 21
705.62545464805089
  0
LINE
  8
_0-0_0
  6
CONTINUOUS
 62
    7
 10
1136.1430641782631
 20
725.45542589998081
 11
1133.6960357507683
 21
722.74222123633081
  0
LINE
  8
_0-0_0
  6
CONTINUOUS
 62
    7
 10
1126.2591118471628
 20
700.76153268189057
 11
1123.7728945089495
 21
703.24937979698598
  0
LINE
  8
_0-0_0
  6
CONTINUOUS
 62
    7
 10
1133.6960357507683
 20
722.74222123633081
 11
1131.913539100138
 21
719.95110607769402
  0
LINE
  8
_0-0_0
  6
CONTINUOUS
 62
    7
 10
1128.149518979367
 20
700.12551773502105
 11
1126.2591118471628
 21
700.76153268189057
  0
LINE
  8
_0-0_0
  6
CONTINUOUS
 62
    7
 10
1131.913539100138
 20
719.95110607769402
 11
1130.2665331988126
 21
715.89252843583586
  0
LINE
  8
_0-0_0
  6
CONTINUOUS
 62
    7
 10
1129.4958541751002
 20
700.25588190349845
 11
1128.149518979367
 21
700.12551773502105
  0
LINE
  8
_0-0_0
  6
CONTINUOUS
 62
    7
 10
1130.2665331988126
 20
715.89252843583586
 11
1129.5125283216266
 21
711.81096039530644
  0
LINE
  8
_0-0_0
  6
CONTINUOUS
 62
    7
 10
1130.0268712737816
 20
701.11872934474286
 11
1129.4958541751002
 21
700.25588190349845
  0
LINE
  8
_0-0_0
  6
CONTINUOUS
 62
    7
 10
1129.5125283216266
 20
711.81096039530644
 11
1129.4816220633277
 21
708.69268564261893
  0
LINE
  8
_0-0_0
  6
CONTINUOUS
 62
    7
 10
1130.2450796749845
 20
703.2304567249372
 11
1130.0268712737816
 21
701.11872934474286
  0
LINE
  8
_0-0_0
  6
CONTINUOUS
 62
    7
 10
1129.4816220633277
 20
708.69268564261893
 11
1129.8274444834458
 21
706.01308899683306
  0
LINE
  8
_0-0_0
  6
CONTINUOUS
 62
    7
 10
1129.8274444834458
 20
706.01308899683306
 11
1130.2450796749845
 21
703.2304567249372
  0
ARC
  8
_0-0_0
  6
CONTINUOUS
 62
    7
 10
1112.2468219427149
 20
691.86048964596455
 40
2.1176283428175959
 50
217.56985698212702
 51
317.38474858467055
  0
ARC
  8
_0-0_0
  6
CONTINUOUS
 62
    7
 10
1118.7984300611345
 20
690.74230483039491
 40
1.4117522285450643
 50
301.77296921436619
 51
94.547824521084792
  0
ARC
  8
_0-0_0
  6
CONTINUOUS
 62
    7
 10
1142.3428922983253
 20
708.41131964700298
 40
0.7058761142725322
 50
150.37637695760461
 51
288.43241350600658
  0
ARC
  8
_0-0_0
  6
CONTINUOUS
 62
    7
 10
1141.9141032659072
 20
719.64268413175034
 40
0.7058761142725322
 50
16.478678984755039
 51
139.24459506580723
  0
ARC
  8
_0-0_0
  6
CONTINUOUS
 62
    7
 10
1143.8754129079023
 20
726.44353063476785
 40
0.7058761142725322
 50
342.43043472567558
 51
107.52514572156058
  0
ARC
  8
_0-0_0
  6
CONTINUOUS
 62
    7
 10
1146.4431615482451
 20
704.86166488721733
 40
0.7058761142725322
 50
300.27228908505128
 51
64.185910534769874
  0
ARC
  8
_0-4_P-6853
  6
CONTINUOUS
 62
    7
 10
1117.5997446127396
 20
685.40298000253483
 40
2.3886670266782208
 50
154.21914847688842
 51
234.62371023671363
  0
ARC
  8
_0-4_P-6853
  6
CONTINUOUS
 62
    7
 10
1126.8929639895439
 20
640.27347266995605
 40
125
 50
47.404355050332953
 51
207.77676693996182
  0
ARC
  8
_0-4_P-6853
  6
CONTINUOUS
 62
    7
 10
1126.8929639895439
 20
640.27347266995605
 40
119
 50
47.250454701701457
 51
207.9306672885904
  0
ARC
  8
_0-4_P-6853
  6
CONTINUOUS
 62
    7
 10
1055.4298522981005
 20
604.10723186445136
 40
44.936057068061565
 50
209.44094167743563
 51
296.79271742520228
  0
ARC
  8
_0-4_P-6853
  6
CONTINUOUS
 62
    7
 10
1055.4320218370733
 20
604.20527118188954
 40
39.001804067287232
 50
210.29020269390699
 51
295.46268466726087
  0
ARC
  8
_0-0_0
  6
CONTINUOUS
 62
    7
 10
1054.9185624024155
 20
628.37604569061727
 40
20.36130145467256
 50
82.863886727637492
 51
115.93652692448431
  0
ARC
  8
_0-0_0
  6
CONTINUOUS
 62
    7
 10
1042.8062228859378
 20
688.47165865639363
 40
44.884457655485448
 50
280.53972772764098
 51
290.33170572762504
  0
ARC
  8
_0-0_0
  6
CONTINUOUS
 62
    7
 10
1050.0898126113511
 20
652.24970077186913
 40
7.9593334185887343
 50
238.70244300553679
 51
276.68498772765332
  0
ARC
  8
_0-0_0
  6
CONTINUOUS
 62
    7
 10
1093.7844592310853
 20
671.62127766125695
 40
26.87869514681325
 50
194.6062307276479
 51
221.2477577276419
  0
ARC
  8
_0-0_0
  6
CONTINUOUS
 62
    7
 10
1059.2092252433094
 20
601.70617041747346
 40
46.906536489846779
 50
75.959302727639283
 51
92.151837727659327
  0
ARC
  8
_0-0_0
  6
CONTINUOUS
 62
    7
 10
1060.0131696802734
 20
641.64249559080315
 40
5.0075819194307734
 50
31.219813130146623
 51
108.77418203569971
  0
ARC
  8
_0-0_0
  6
CONTINUOUS
 62
    7
 10
1056.7946541211084
 20
628.60275330035404
 40
22.611750976532253
 50
60.12684100628001
 51
125.35258772763729
  0
ARC
  8
_0-0_0
  6
CONTINUOUS
 62
    7
 10
1064.6061275272996
 20
627.26552097786885
 40
20.823843013700262
 50
31.65875072763977
 51
73.302331727648621
  0
ARC
  8
_0-0_0
  6
CONTINUOUS
 62
    7
 10
1060.8937439089709
 20
638.17285327726972
 40
2.173780081831862
 50
119.7280297276313
 51
190.99521145552259
  0
ARC
  8
_0-0_0
  6
CONTINUOUS
 62
    7
 10
1069.3610037108929
 20
626.2273750492858
 40
16.80676769385391
 50
42.90227972763774
 51
124.60656672765228
  0
ARC
  8
_0-0_0
  6
CONTINUOUS
 62
    7
 10
1046.3925541647839
 20
608.48121220461485
 40
47.24216364115663
 50
44.118900727640003
 51
72.645240727640044
  0
ARC
  8
_0-0_0
  6
CONTINUOUS
 62
    7
 10
1046.183110655712
 20
623.90671534894477
 40
40.619103479807208
 50
20.13730546958125
 51
47.594988355125189
  0
ARC
  8
_0-0_0
  6
CONTINUOUS
 62
    7
 10
1029.9252664696471
 20
618.46134580256262
 40
59.3535394220212
 50
17.561854727647773
 51
36.742856727642469
  0
ARC
  8
_0-0_0
  6
CONTINUOUS
 62
    7
 10
1070.7456626725482
 20
626.56401283338039
 40
15.29013568637412
 50
61.525487727642243
 51
134.90883290523831
  0
ARC
  8
_0-0_0
  6
CONTINUOUS
 62
    7
 10
1054.0468287048625
 20
636.52215456593342
 40
18.22534292091953
 50
69.315932727646427
 51
147.65597626872861
  0
ARC
  8
_0-0_0
  6
CONTINUOUS
 62
    7
 10
1038.9416640703912
 20
652.21880456417568
 40
7.0368768655545306
 50
272.75068726461723
 51
312.6729817276381
  0
ARC
  8
_0-0_0
  6
CONTINUOUS
 62
    7
 10
1074.804909204101
 20
666.5372397578119
 40
7.2317022024743229
 50
113.0301207276398
 51
193.5479087276567
  0
ARC
  8
_0-0_0
  6
CONTINUOUS
 62
    7
 10
1085.2239796483341
 20
659.16631512822562
 40
1.4269123800426899
 50
300.30215855845472
 51
139.57842360423103
  0
ARC
  8
_0-0_0
  6
CONTINUOUS
 62
    7
 10
1091.3309336418347
 20
653.63031762430978
 40
9.6690345432160072
 50
138.0687767676452
 51
210.7065357276405
  0
ARC
  8
_0-0_0
  6
CONTINUOUS
 62
    7
 10
1072.5422012331317
 20
664.05111552321932
 40
9.1589846981933007
 50
53.865577293967895
 51
93.545748727636038
  0
ARC
  8
_0-0_0
  6
CONTINUOUS
 62
    7
 10
1087.5040790544019
 20
661.24256156344518
 40
12.379823996502981
 50
138.9041065454266
 51
215.98725472765091
  0
ARC
  8
_0-0_0
  6
CONTINUOUS
 62
    7
 10
1077.1106023134541
 20
670.30805746861688
 40
1.4117522285450643
 50
318.9041065454266
 51
53.865577293967895
  0
LINE
  8
_0-0_0
  6
CONTINUOUS
 62
    7
 10
1088.9705165037012
 20
624.11280985445376
 11
1088.0800628998034
 21
626.10758545465546
  0
LINE
  8
_0-0_0
  6
CONTINUOUS
 62
    7
 10
1088.0800628998034
 20
626.10758545465546
 11
1086.489306889606
 21
628.86947401921145
  0
LINE
  8
_0-0_0
  6
CONTINUOUS
 62
    7
 10
1092.5010452746189
 20
629.04613234473447
 11
1093.4065397868083
 21
628.12848146161218
  0
LINE
  8
_0-0_0
  6
CONTINUOUS
 62
    7
 10
1086.489306889606
 20
628.86947401921145
 11
1084.6634983379786
 21
631.31237999185623
  0
LINE
  8
_0-0_0
  6
CONTINUOUS
 62
    7
 10
1090.345875660787
 20
631.82304833821388
 11
1092.5010452746189
 21
629.04613234473447
  0
LINE
  8
_0-0_0
  6
CONTINUOUS
 62
    7
 10
1084.6634983379786
 20
631.31237999185623
 11
1082.2060585233221
 21
633.85777793732495
  0
LINE
  8
_0-0_0
  6
CONTINUOUS
 62
    7
 10
1089.0914517482108
 20
634.25906540135895
 11
1090.345875660787
 21
631.82304833821388
  0
LINE
  8
_0-0_0
  6
CONTINUOUS
 62
    7
 10
1082.2060585233221
 20
633.85777793732495
 11
1079.1438495825016
 21
636.23976083639138
  0
LINE
  8
_0-0_0
  6
CONTINUOUS
 62
    7
 10
1087.9128609111999
 20
637.61538361617681
 11
1089.0914517482108
 21
634.25906540135895
  0
LINE
  8
_0-0_0
  6
CONTINUOUS
 62
    7
 10
1079.1438495825016
 20
636.23976083639138
 11
1076.7438516335321
 21
637.32959146012354
  0
LINE
  8
_0-0_0
  6
CONTINUOUS
 62
    7
 10
1087.0653137897884
 20
640.90100987997653
 11
1087.9128609111999
 21
637.61538361617681
  0
LINE
  8
_0-0_0
  6
CONTINUOUS
 62
    7
 10
1076.7438516335321
 20
637.32959146012354
 11
1073.2064016701252
 21
637.55800888825081
  0
LINE
  8
_0-0_0
  6
CONTINUOUS
 62
    7
 10
1086.3913443900058
 20
645.69286683772907
 11
1087.0653137897884
 21
640.90100987997653
  0
LINE
  8
_0-0_0
  6
CONTINUOUS
 62
    7
 10
1073.2064016701252
 20
637.55800888825081
 11
1070.4116421187994
 21
636.8134659727375
  0
LINE
  8
_0-0_0
  6
CONTINUOUS
 62
    7
 10
1086.305447941935
 20
649.33605888789043
 11
1086.3913443900058
 21
645.69286683772907
  0
LINE
  8
_0-0_0
  6
CONTINUOUS
 62
    7
 10
1070.4116421187994
 20
636.8134659727375
 11
1068.2744870744161
 21
635.7295333267333
  0
LINE
  8
_0-0_0
  6
CONTINUOUS
 62
    7
 10
1086.4795191754354
 20
652.06375218203846
 11
1086.305447941935
 21
649.33605888789043
  0
LINE
  8
_0-0_0
  6
CONTINUOUS
 62
    7
 10
1068.2744870744161
 20
635.7295333267333
 11
1065.5228308638918
 21
634.12152809986378
  0
LINE
  8
_0-0_0
  6
CONTINUOUS
 62
    7
 10
1087.0610511320833
 20
655.82775967845805
 11
1086.4795191754354
 21
652.06375218203846
  0
LINE
  8
_0-0_0
  6
CONTINUOUS
 62
    7
 10
1065.5228308638918
 20
634.12152809986378
 11
1062.8302323697162
 21
633.39698585948679
  0
LINE
  8
_0-0_0
  6
CONTINUOUS
 62
    7
 10
1087.8054955086563
 20
657.1144930166879
 11
1087.0610511320833
 21
655.82775967845805
  0
LINE
  8
_0-0_0
  6
CONTINUOUS
 62
    7
 10
1062.8302323697162
 20
633.39698585948679
 11
1060.1450010045435
 21
633.6192162212252
  0
LINE
  8
_0-0_0
  6
CONTINUOUS
 62
    7
 10
1088.4696816574124
 20
659.06678712971882
 11
1087.8054955086563
 21
657.1144930166879
  0
LINE
  8
_0-0_0
  6
CONTINUOUS
 62
    7
 10
1060.1450010045435
 20
633.6192162212252
 11
1058.4011754221983
 21
634.65847625827348
  0
LINE
  8
_0-0_0
  6
CONTINUOUS
 62
    7
 10
1087.8779338267507
 20
661.6388788839779
 11
1088.4696816574124
 21
659.06678712971882
  0
LINE
  8
_0-0_0
  6
CONTINUOUS
 62
    7
 10
1058.4011754221983
 20
634.65847625827348
 11
1057.0256764720955
 21
636.52476034857136
  0
LINE
  8
_0-0_0
  6
CONTINUOUS
 62
    7
 10
1057.0256764720955
 20
636.52476034857136
 11
1056.5515830933896
 21
639.16966461613345
  0
LINE
  8
_0-0_0
  6
CONTINUOUS
 62
    7
 10
1056.5515830933896
 20
639.16966461613345
 11
1056.842122058491
 21
641.12988896483807
  0
LINE
  8
_0-0_0
  6
CONTINUOUS
 62
    7
 10
1083.3524171585732
 20
662.17176440948629
 11
1085.1871523445116
 21
663.14519101747749
  0
LINE
  8
_0-0_0
  6
CONTINUOUS
 62
    7
 10
1056.842122058491
 20
641.12988896483807
 11
1057.6602039457396
 21
642.37760987098795
  0
LINE
  8
_0-0_0
  6
CONTINUOUS
 62
    7
 10
1081.942316393508
 20
660.73719498224682
 11
1083.3524171585732
 21
662.17176440948629
  0
LINE
  8
_0-0_0
  6
CONTINUOUS
 62
    7
 10
1081.1432030713443
 20
659.98129565740953
 11
1081.942316393508
 21
660.73719498224682
  0
LINE
  8
_0-0_0
  6
CONTINUOUS
 62
    7
 10
1079.6663581854316
 20
663.82259967829793
 11
1078.8411908177686
 21
661.47505631534204
  0
LINE
  8
_0-0_0
  6
CONTINUOUS
 62
    7
 10
1081.3738227201552
 20
665.55224022872017
 11
1079.6663581854316
 21
663.82259967829793
  0
LINE
  8
_0-0_0
  6
CONTINUOUS
 62
    7
 10
1056.8895286707291
 20
643.44709287313106
 11
1052.783125106173
 21
642.36177042589486
  0
LINE
  8
_0-0_0
  6
CONTINUOUS
 62
    7
 10
1081.7552491787878
 20
665.75331273375855
 11
1081.3738227201552
 21
665.55224022872017
  0
LINE
  8
_0-0_0
  6
CONTINUOUS
 62
    7
 10
1052.783125106173
 20
642.36177042589486
 11
1049.8754512785288
 21
641.91029827432862
  0
LINE
  8
_0-0_0
  6
CONTINUOUS
 62
    7
 10
1049.8754512785288
 20
641.91029827432862
 11
1047.3693434215729
 21
641.81965686679848
  0
LINE
  8
_0-0_0
  6
CONTINUOUS
 62
    7
 10
1081.301367630997
 20
670.40374373085706
 11
1082.4452551175273
 21
668.91897952507225
  0
LINE
  8
_0-0_0
  6
CONTINUOUS
 62
    7
 10
1047.3693434215729
 20
641.81965686679848
 11
1045.583079435856
 21
642.34071929808533
  0
LINE
  8
_0-0_0
  6
CONTINUOUS
 62
    7
 10
1079.262734857336
 20
672.38669021882652
 11
1081.301367630997
 21
670.40374373085706
  0
LINE
  8
_0-0_0
  6
CONTINUOUS
 62
    7
 10
1045.583079435856
 20
642.34071929808533
 11
1044.3544580899559
 21
643.16741423902215
  0
LINE
  8
_0-0_0
  6
CONTINUOUS
 62
    7
 10
1077.1297271289425
 20
673.87121806977109
 11
1079.262734857336
 21
672.38669021882652
  0
LINE
  8
_0-0_0
  6
CONTINUOUS
 62
    7
 10
1044.3544580899559
 20
643.16741423902215
 11
1041.5037706707446
 21
642.33708788106492
  0
LINE
  8
_0-0_0
  6
CONTINUOUS
 62
    7
 10
1075.0112710175315
 20
674.91808969142971
 11
1077.1297271289425
 21
673.87121806977109
  0
LINE
  8
_0-0_0
  6
CONTINUOUS
 62
    7
 10
1041.5037706707446
 20
642.33708788106492
 11
1039.3445901443204
 21
642.18894103098523
  0
LINE
  8
_0-0_0
  6
CONTINUOUS
 62
    7
 10
1072.2776628012921
 20
675.76956016205008
 11
1075.0112710175315
 21
674.91808969142971
  0
LINE
  8
_0-0_0
  6
CONTINUOUS
 62
    7
 10
1039.3445901443204
 20
642.18894103098523
 11
1037.6727876694754
 21
642.48959292954567
  0
LINE
  8
_0-0_0
  6
CONTINUOUS
 62
    7
 10
1069.6690444585311
 20
675.63413313461638
 11
1072.2776628012921
 21
675.76956016205008
  0
LINE
  8
_0-0_0
  6
CONTINUOUS
 62
    7
 10
1037.6727876694754
 20
642.48959292954567
 11
1036.3648671037899
 21
643.8549400247316
  0
LINE
  8
_0-0_0
  6
CONTINUOUS
 62
    7
 10
1067.790403730482
 20
674.62285331377325
 11
1069.6690444585311
 21
675.63413313461638
  0
LINE
  8
_0-0_0
  6
CONTINUOUS
 62
    7
 10
1036.3648671037899
 20
643.8549400247316
 11
1035.8597325269923
 21
646.30762894799227
  0
LINE
  8
_0-0_0
  6
CONTINUOUS
 62
    7
 10
1066.6877223568692
 20
673.39490594252095
 11
1067.790403730482
 21
674.62285331377325
  0
LINE
  8
_0-0_0
  6
CONTINUOUS
 62
    7
 10
1035.8597325269923
 20
646.30762894799227
 11
1036.3185263707501
 21
647.61036469297983
  0
LINE
  8
_0-0_0
  6
CONTINUOUS
 62
    7
 10
1065.4772073526506
 20
670.36627012236863
 11
1066.6877223568692
 21
673.39490594252095
  0
LINE
  8
_0-0_0
  6
CONTINUOUS
 62
    7
 10
1036.3185263707501
 20
647.61036469297983
 11
1038.12005618781
 21
649.78869864458886
  0
LINE
  8
_0-0_0
  6
CONTINUOUS
 62
    7
 10
1064.9773667721136
 20
666.60233803376389
 11
1065.4772073526506
 21
670.36627012236863
  0
LINE
  8
_0-0_0
  6
CONTINUOUS
 62
    7
 10
1038.12005618781
 20
649.78869864458886
 11
1039.5499296761741
 21
651.16090612868265
  0
LINE
  8
_0-0_0
  6
CONTINUOUS
 62
    7
 10
1065.3583547012727
 20
663.20108567813224
 11
1064.9773667721136
 21
666.60233803376389
  0
LINE
  8
_0-0_0
  6
CONTINUOUS
 62
    7
 10
1039.5499296761741
 20
651.16090612868265
 11
1042.1783877752705
 21
653.11754081130164
  0
LINE
  8
_0-0_0
  6
CONTINUOUS
 62
    7
 10
1066.809690116866
 20
659.3967546261697
 11
1065.3583547012727
 21
663.20108567813224
  0
LINE
  8
_0-0_0
  6
CONTINUOUS
 62
    7
 10
1042.1783877752705
 20
653.11754081130164
 11
1045.427211506415
 21
654.78923816302893
  0
LINE
  8
_0-0_0
  6
CONTINUOUS
 62
    7
 10
1068.5789037463751
 20
656.35692847093026
 11
1066.809690116866
 21
659.3967546261697
  0
LINE
  8
_0-0_0
  6
CONTINUOUS
 62
    7
 10
1045.427211506415
 20
654.78923816302893
 11
1048.5813908625839
 21
655.79857989276945
  0
LINE
  8
_0-0_0
  6
CONTINUOUS
 62
    7
 10
1068.7102656588684
 20
654.36672793176899
 11
1068.5789037463751
 21
656.35692847093026
  0
LINE
  8
_0-0_0
  6
CONTINUOUS
 62
    7
 10
1048.5813908625839
 20
655.79857989276945
 11
1052.9262221528786
 21
656.35276575768455
  0
LINE
  8
_0-0_0
  6
CONTINUOUS
 62
    7
 10
1068.2398930367251
 20
653.09851546059906
 11
1068.7102656588684
 21
654.36672793176899
  0
LINE
  8
_0-0_0
  6
CONTINUOUS
 62
    7
 10
1052.9262221528786
 20
656.35276575768455
 11
1057.0648813835492
 21
656.03777242969613
  0
LINE
  8
_0-0_0
  6
CONTINUOUS
 62
    7
 10
1067.2699294020988
 20
652.80584599950612
 11
1068.2398930367251
 21
653.09851546059906
  0
LINE
  8
_0-0_0
  6
CONTINUOUS
 62
    7
 10
1057.0648813835492
 20
656.03777242969613
 11
1060.0873444502686
 21
655.27010737228568
  0
LINE
  8
_0-0_0
  6
CONTINUOUS
 62
    7
 10
1065.1726299070353
 20
653.13499985809653
 11
1067.2699294020988
 21
652.80584599950612
  0
LINE
  8
_0-0_0
  6
CONTINUOUS
 62
    7
 10
1060.0873444502686
 20
655.27010737228568
 11
1062.5893664622438
 21
654.25044214195145
  0
LINE
  8
_0-0_0
  6
CONTINUOUS
 62
    7
 10
1062.5893664622438
 20
654.25044214195145
 11
1065.1726299070353
 21
653.13499985809653
  0
ARC
  8
_0-0_0
  6
CONTINUOUS
 62
    7
 10
1080.7677341794324
 20
667.62658898790596
 40
2.1176283428175959
 50
297.79637340560788
 51
37.611265008158327
  0
ARC
  8
_0-0_0
  6
CONTINUOUS
 62
    7
 10
1080.1730598006966
 20
661.00690103435454
 40
1.4117522285450643
 50
160.63329746920371
 51
313.408152775926
  0
ARC
  8
_0-0_0
  6
CONTINUOUS
 62
    7
 10
1057.0698982478357
 20
642.76465027162158
 40
0.7058761142725322
 50
326.74870848428668
 51
104.8047450326725
  0
ARC
  8
_0-0_0
  6
CONTINUOUS
 62
    7
 10
1046.3217671819923
 20
646.05175945980193
 40
0.7058761142725322
 50
115.93652692448428
 51
238.70244300553679
  0
ARC
  8
_0-0_0
  6
CONTINUOUS
 62
    7
 10
1039.2454894911748
 20
645.89509832286262
 40
0.7058761142725322
 50
147.65597626872861
 51
272.75068726461723
  0
ARC
  8
_0-0_0
  6
CONTINUOUS
 62
    7
 10
1059.4527860680519
 20
637.89288442423424
 40
0.7058761142725322
 50
190.99521145552259
 51
314.90883290523828
  0
ARC
  8
_0-4_P-6853
  6
CONTINUOUS
 62
    7
 10
1085.6413751986447
 20
660.80010855344256
 40
2.3886670266782208
 50
20.557411753573621
 51
100.96197351339381
  0
LINE
  8
_0-4_P-6853
  6
CONTINUOUS
 62
    7
 10
1060.3884659251385
 20
738.95554671180753
 11
1061.6084951900771
 21
737.37076641388194
  0
LINE
  8
_0-4_P-6853
  6
CONTINUOUS
 62
    7
 10
1058.4389345942259
 20
734.93070788400462
 11
1052.8922035514865
 21
730.66060545671905
  0
ARC
  8
_0-4_P-6853
  6
CONTINUOUS
 62
    7
 10
1060.0237148921515
 20
736.15073714894334
 40
1.9999999999999991
 50
217.59056099514433
 51
37.590560995144315
  0
LINE
  8
_0-4_P-6853
  6
CONTINUOUS
 62
    7
 10
1048.5026136906963
 20
729.80532722476732
 11
1049.7226429556349
 21
728.22054692684173
  0
ARC
  8
_0-4_P-6853
  6
CONTINUOUS
 62
    7
 10
1051.3074232535607
 20
729.44057619178034
 40
1.9999999999999991
 50
217.59056099514433
 51
37.590560995144315
  0
ARC
  8
_0-4_P-6853
  6
CONTINUOUS
 62
    7
 10
1058.4540214208514
 20
475.28096002044833
 40
166.06825929064823
 50
285.82706223884821
 51
4.5386879737049171
  0
ARC
  8
_0-4_P-6853
  6
CONTINUOUS
 62
    7
 10
1147.7957372877886
 20
477.77586510459673
 40
266.42188665810369
 50
127.51063279329261
 51
178.8010293047044
  0
ARC
  8
_0-4_P-6853
  6
CONTINUOUS
 62
    7
 10
1051.2827801260582
 20
483.35059896568282
 40
169.85059896568254
 50
180
 51
222.46919872392161
  0
ARC
  8
_0-4_P-6853
  6
CONTINUOUS
 62
    7
 10
1051.2827801260582
 20
483.35059896568282
 40
175.85059896568251
 50
180
 51
222.55560269600039
  0
ARC
  8
_0-4_P-6853
  6
CONTINUOUS
 62
    7
 10
1147.7853533724456
 20
477.78447924945141
 40
272.40873068507318
 50
127.67023329251302
 51
178.82919551480714
  0
ARC
  8
_0-4_P-6853
  6
CONTINUOUS
 62
    7
 10
1058.4490069963763
 20
475.28231763457933
 40
160.0731509746368
 50
285.77127509434558
 51
4.5247799203566652
  0
ARC
  8
_0-4_P-6853
  6
CONTINUOUS
 62
    7
 10
1122.8666223702326
 20
479.1415828619389
 40
95.55982383409534
 50
5.2650928913719621
 51
68.334533213270149
  0
ARC
  8
_0-4_P-6853
  6
CONTINUOUS
 62
    7
 10
1127.1138327093943
 20
484.57902542826173
 40
88.959644667113224
 50
69.583947899037767
 51
111.1027511511886
  0
ARC
  8
_0-4_P-6853
  6
CONTINUOUS
 62
    7
 10
953.36618864684533
 20
496.71649537217633
 40
44.936057068061565
 50
320.27613597057922
 51
143.14961931770134
  0
ARC
  8
_0-4_P-6853
  6
CONTINUOUS
 62
    7
 10
953.35569702116732
 20
496.61899490831217
 40
39.001804067287232
 50
321.89834489840723
 51
142.30035830123313
  0
ARC
  8
_0-0_0
  6
CONTINUOUS
 62
    7
 10
949.72948695802359
 20
472.71626323344373
 40
20.36130145467256
 50
236.65403407067373
 51
269.72667426750672
  0
ARC
  8
_0-0_0
  6
CONTINUOUS
 62
    7
 10
929.96841829809125
 20
414.68444754831927
 40
44.884457655485448
 50
62.258855267515315
 51
72.050833267500209
  0
ARC
  8
_0-0_0
  6
CONTINUOUS
 62
    7
 10
941.86233572473407
 20
449.66466539390478
 40
7.9593334185887343
 50
75.90557326751312
 51
113.8881179896084
  0
ARC
  8
_0-0_0
  6
CONTINUOUS
 62
    7
 10
982.69399053160123
 20
424.82002613031852
 40
26.87869514681325
 50
131.3428032674959
 51
157.98433026750192
  0
ARC
  8
_0-0_0
  6
CONTINUOUS
 62
    7
 10
957.42364196462643
 20
498.61012376897702
 40
46.906536489846779
 50
260.43872326749954
 51
276.63125826749229
  0
ARC
  8
_0-0_0
  6
CONTINUOUS
 62
    7
 10
953.07072627231514
 20
458.90359382762767
 40
5.0075819194307734
 50
243.81637895945079
 51
321.37074786500159
  0
ARC
  8
_0-0_0
  6
CONTINUOUS
 62
    7
 10
951.56067720268197
 20
472.24950980268193
 40
22.611750976532253
 50
227.2379732675017
 51
292.46371998886968
  0
ARC
  8
_0-0_0
  6
CONTINUOUS
 62
    7
 10
959.47937236182474
 20
472.56821662172388
 40
20.823843013700262
 50
279.28822926749808
 51
320.93181026750494
  0
ARC
  8
_0-0_0
  6
CONTINUOUS
 62
    7
 10
954.39138912508554
 20
462.23070644751613
 40
2.173780081831862
 50
161.59534953963291
 51
232.86253126751856
  0
ARC
  8
_0-0_0
  6
CONTINUOUS
 62
    7
 10
964.32842322469594
 20
472.98451005143477
 40
16.80676769385391
 50
227.9839942675035
 51
309.68828126749759
  0
ARC
  8
_0-0_0
  6
CONTINUOUS
 62
    7
 10
943.84028860212027
 20
493.54447867857391
 40
47.24216364115663
 50
279.94532026750522
 51
308.47166026750477
  0
ARC
  8
_0-0_0
  6
CONTINUOUS
 62
    7
 10
941.64333704943738
 20
478.27478916914413
 40
40.619103479807208
 50
304.99557264002487
 51
332.4532555255642
  0
ARC
  8
_0-0_0
  6
CONTINUOUS
 62
    7
 10
926.22347620309961
 20
485.77128425382222
 40
59.3535394220212
 50
315.84770426749958
 51
335.02870626749882
  0
ARC
  8
_0-0_0
  6
CONTINUOUS
 62
    7
 10
965.65810772834175
 20
472.47211903030188
 40
15.29013568637412
 50
217.68172808990258
 51
291.0650732675067
  0
ARC
  8
_0-0_0
  6
CONTINUOUS
 62
    7
 10
947.81451853233023
 20
464.75059280487642
 40
18.22534292091953
 50
204.93458472641092
 51
283.27462826750798
  0
ARC
  8
_0-0_0
  6
CONTINUOUS
 62
    7
 10
930.81125933716453
 20
451.13295730733853
 40
7.0368768655545306
 50
39.91757926751248
 51
79.839873730527515
  0
ARC
  8
_0-0_0
  6
CONTINUOUS
 62
    7
 10
964.52855332164279
 20
432.30919508298041
 40
7.2317022024743229
 50
159.04265226749192
 51
239.56044026750513
  0
ARC
  8
_0-0_0
  6
CONTINUOUS
 62
    7
 10
975.81117061506689
 20
438.27493944785681
 40
1.4269123800426899
 50
213.01213739091739
 51
52.288402436704125
  0
ARC
  8
_0-0_0
  6
CONTINUOUS
 62
    7
 10
982.58104762606763
 20
442.97716452732982
 40
9.6690345432160072
 50
141.88402526750539
 51
214.52178422750271
  0
ARC
  8
_0-0_0
  6
CONTINUOUS
 62
    7
 10
962.60534712529056
 20
435.06635648522541
 40
9.1589846981933007
 50
259.04481226750408
 51
298.7249837011733
  0
ARC
  8
_0-0_0
  6
CONTINUOUS
 62
    7
 10
977.80448044338516
 20
435.92199055558552
 40
12.379823996502981
 50
136.6033062674918
 51
213.6864544497079
  0
ARC
  8
_0-0_0
  6
CONTINUOUS
 62
    7
 10
966.32871298719556
 20
428.2725241648651
 40
1.4117522285450643
 50
298.7249837011733
 51
33.686454449707817
  0
LINE
  8
_0-0_0
  6
CONTINUOUS
 62
    7
 10
984.0468873687978
 20
472.55259601797991
 11
982.90662491832347
 21
470.68930890647692
  0
LINE
  8
_0-0_0
  6
CONTINUOUS
 62
    7
 10
982.90662491832347
 20
470.68930890647692
 11
980.97298154153248
 21
468.15562454997234
  0
LINE
  8
_0-0_0
  6
CONTINUOUS
 62
    7
 10
986.91173982101589
 20
467.20517377708603
 11
987.92801269907636
 21
467.9983905773488
  0
LINE
  8
_0-0_0
  6
CONTINUOUS
 62
    7
 10
980.97298154153248
 20
468.15562454997234
 11
978.84738399299533
 21
465.96857139103133
  0
LINE
  8
_0-0_0
  6
CONTINUOUS
 62
    7
 10
984.41645781149873
 20
464.72937366556539
 11
986.91173982101589
 21
467.20517377708603
  0
LINE
  8
_0-0_0
  6
CONTINUOUS
 62
    7
 10
978.84738399299533
 20
465.96857139103133
 11
976.08221208743078
 21
463.76133658790502
  0
LINE
  8
_0-0_0
  6
CONTINUOUS
 62
    7
 10
982.85836218744009
 20
462.47546672190822
 11
984.41645781149873
 21
464.72937366556539
  0
LINE
  8
_0-0_0
  6
CONTINUOUS
 62
    7
 10
976.08221208743078
 20
463.76133658790502
 11
972.73839475484112
 21
461.79414270448706
  0
LINE
  8
_0-0_0
  6
CONTINUOUS
 62
    7
 10
981.25678534403949
 20
459.29916384987507
 11
982.85836218744009
 21
462.47546672190822
  0
LINE
  8
_0-0_0
  6
CONTINUOUS
 62
    7
 10
972.73839475484112
 20
461.79414270448706
 11
970.21789352589371
 21
461.02291349189431
  0
LINE
  8
_0-0_0
  6
CONTINUOUS
 62
    7
 10
979.99260433914151
 20
456.15027159143892
 11
981.25678534403949
 21
459.29916384987507
  0
LINE
  8
_0-0_0
  6
CONTINUOUS
 62
    7
 10
970.21789352589371
 20
461.02291349189431
 11
966.68052503906154
 21
461.25258924909258
  0
LINE
  8
_0-0_0
  6
CONTINUOUS
 62
    7
 10
978.70630971941353
 20
451.48534136616604
 11
979.99260433914151
 21
456.15027159143892
  0
LINE
  8
_0-0_0
  6
CONTINUOUS
 62
    7
 10
966.68052503906154
 20
461.25258924909258
 11
964.00511740641514
 21
462.35132447741125
  0
LINE
  8
_0-0_0
  6
CONTINUOUS
 62
    7
 10
978.15130823859147
 20
447.88364733829053
 11
978.70630971941353
 21
451.48534136616604
  0
LINE
  8
_0-0_0
  6
CONTINUOUS
 62
    7
 10
964.00511740641514
 20
462.35132447741125
 11
962.02559058583518
 21
463.70181151230281
  0
LINE
  8
_0-0_0
  6
CONTINUOUS
 62
    7
 10
977.97216546275718
 20
445.15628242557011
 11
978.15130823859147
 21
447.88364733829053
  0
LINE
  8
_0-0_0
  6
CONTINUOUS
 62
    7
 10
962.02559058583518
 20
463.70181151230281
 11
959.50427758361911
 21
465.6512405198356
  0
LINE
  8
_0-0_0
  6
CONTINUOUS
 62
    7
 10
978.06343907853125
 20
441.34871089285116
 11
977.97216546275718
 21
445.15628242557011
  0
LINE
  8
_0-0_0
  6
CONTINUOUS
 62
    7
 10
959.50427758361911
 20
465.6512405198356
 11
956.92759868988503
 21
466.71696749590137
  0
LINE
  8
_0-0_0
  6
CONTINUOUS
 62
    7
 10
978.63573149433114
 20
439.976719091002
 11
978.06343907853125
 21
441.34871089285116
  0
LINE
  8
_0-0_0
  6
CONTINUOUS
 62
    7
 10
956.92759868988503
 20
466.71696749590137
 11
954.23613059479385
 21
466.84287742915626
  0
LINE
  8
_0-0_0
  6
CONTINUOUS
 62
    7
 10
979.04260581577307
 20
437.95507401074576
 11
978.63573149433114
 21
439.976719091002
  0
LINE
  8
_0-0_0
  6
CONTINUOUS
 62
    7
 10
954.23613059479385
 20
466.84287742915626
 11
952.37284417837009
 21
466.03717722646491
  0
LINE
  8
_0-0_0
  6
CONTINUOUS
 62
    7
 10
978.12410483131487
 20
435.48077058776573
 11
979.04260581577307
 21
437.95507401074576
  0
LINE
  8
_0-0_0
  6
CONTINUOUS
 62
    7
 10
952.37284417837009
 20
466.03717722646491
 11
950.76815667589494
 21
464.36385965743216
  0
LINE
  8
_0-0_0
  6
CONTINUOUS
 62
    7
 10
950.76815667589494
 20
464.36385965743216
 11
949.95693789427776
 21
461.80217911437973
  0
LINE
  8
_0-0_0
  6
CONTINUOUS
 62
    7
 10
949.95693789427776
 20
461.80217911437973
 11
949.99226233688069
 21
459.8208551703334
  0
LINE
  8
_0-0_0
  6
CONTINUOUS
 62
    7
 10
973.56765617441158
 20
435.53594063626872
 11
975.26153910748258
 21
434.33403665810852
  0
LINE
  8
_0-0_0
  6
CONTINUOUS
 62
    7
 10
949.99226233688069
 20
459.8208551703334
 11
950.64260838789642
 21
458.47805382694094
  0
LINE
  8
_0-0_0
  6
CONTINUOUS
 62
    7
 10
972.35433043589285
 20
437.14037644410092
 11
973.56765617441158
 21
435.53594063626872
  0
LINE
  8
_0-0_0
  6
CONTINUOUS
 62
    7
 10
971.65936975932084
 20
437.99301678385001
 11
972.35433043589285
 21
437.14037644410092
  0
LINE
  8
_0-0_0
  6
CONTINUOUS
 62
    7
 10
969.69948604161368
 20
434.37424030401519
 11
969.18394563952677
 21
436.80859424693921
  0
LINE
  8
_0-0_0
  6
CONTINUOUS
 62
    7
 10
971.16964047529223
 20
432.43884951346683
 11
969.69948604161368
 21
434.37424030401519
  0
LINE
  8
_0-0_0
  6
CONTINUOUS
 62
    7
 10
949.74044888423373
 20
457.51688656712753
 11
945.80829613198932
 21
459.12270404819139
  0
LINE
  8
_0-0_0
  6
CONTINUOUS
 62
    7
 10
971.52195189461986
 20
432.19026761662235
 11
971.16964047529223
 21
432.43884951346683
  0
LINE
  8
_0-0_0
  6
CONTINUOUS
 62
    7
 10
945.80829613198932
 20
459.12270404819139
 11
942.98312296280778
 21
459.94537698183149
  0
LINE
  8
_0-0_0
  6
CONTINUOUS
 62
    7
 10
942.98312296280778
 20
459.94537698183149
 11
940.50963030163177
 21
460.35844660134217
  0
LINE
  8
_0-0_0
  6
CONTINUOUS
 62
    7
 10
970.47214552354581
 20
427.63720013398483
 11
971.79795512495093
 21
428.96205191038962
  0
LINE
  8
_0-0_0
  6
CONTINUOUS
 62
    7
 10
940.50963030163177
 20
460.35844660134217
 11
938.67108607204727
 21
460.07208983115743
  0
LINE
  8
_0-0_0
  6
CONTINUOUS
 62
    7
 10
968.19481674875692
 20
425.93371135752813
 11
970.47214552354581
 21
427.63720013398483
  0
LINE
  8
_0-0_0
  6
CONTINUOUS
 62
    7
 10
938.67108607204727
 20
460.07208983115743
 11
937.34611407577302
 21
459.41073958653618
  0
LINE
  8
_0-0_0
  6
CONTINUOUS
 62
    7
 10
965.8881766079129
 20
424.73664988447666
 11
968.19481674875692
 21
425.93371135752813
  0
LINE
  8
_0-0_0
  6
CONTINUOUS
 62
    7
 10
937.34611407577302
 20
459.41073958653618
 11
934.62630812070529
 21
460.60175435955387
  0
LINE
  8
_0-0_0
  6
CONTINUOUS
 62
    7
 10
963.65240627115168
 20
423.9717136195062
 11
965.8881766079129
 21
424.73664988447666
  0
LINE
  8
_0-0_0
  6
CONTINUOUS
 62
    7
 10
934.62630812070529
 20
460.60175435955387
 11
932.50426176520568
 21
461.02710985791731
  0
LINE
  8
_0-0_0
  6
CONTINUOUS
 62
    7
 10
960.8318191222196
 20
423.47987627087292
 11
963.65240627115168
 21
423.9717136195062
  0
LINE
  8
_0-0_0
  6
CONTINUOUS
 62
    7
 10
932.50426176520568
 20
461.02710985791731
 11
930.80764719902106
 21
460.94456233937478
  0
LINE
  8
_0-0_0
  6
CONTINUOUS
 62
    7
 10
958.2624474520411
 20
423.95057719336052
 11
960.8318191222196
 21
423.47987627087292
  0
LINE
  8
_0-0_0
  6
CONTINUOUS
 62
    7
 10
930.80764719902106
 20
460.94456233937478
 11
929.33457411292227
 21
459.75928406846691
  0
LINE
  8
_0-0_0
  6
CONTINUOUS
 62
    7
 10
956.52990710229903
 20
425.19568032067383
 11
958.2624474520411
 21
423.95057719336052
  0
LINE
  8
_0-0_0
  6
CONTINUOUS
 62
    7
 10
929.33457411292227
 20
459.75928406846691
 11
928.51736122111163
 21
457.39221689907356
  0
LINE
  8
_0-0_0
  6
CONTINUOUS
 62
    7
 10
955.59478801570754
 20
426.55557489459108
 11
956.52990710229903
 21
425.19568032067383
  0
LINE
  8
_0-0_0
  6
CONTINUOUS
 62
    7
 10
928.51736122111163
 20
457.39221689907356
 11
928.80432465197373
 21
456.04119350857093
  0
LINE
  8
_0-0_0
  6
CONTINUOUS
 62
    7
 10
954.78495063441471
 20
429.71502815780138
 11
955.59478801570754
 21
426.55557489459108
  0
LINE
  8
_0-0_0
  6
CONTINUOUS
 62
    7
 10
928.80432465197373
 20
456.04119350857093
 11
930.30989588001705
 21
453.64872537633232
  0
LINE
  8
_0-0_0
  6
CONTINUOUS
 62
    7
 10
954.77467654160466
 20
433.51199007709931
 11
954.78495063441471
 21
429.71502815780138
  0
LINE
  8
_0-0_0
  6
CONTINUOUS
 62
    7
 10
930.30989588001705
 20
453.64872537633232
 11
931.55087136983764
 21
452.10358091519151
  0
LINE
  8
_0-0_0
  6
CONTINUOUS
 62
    7
 10
955.5911051768004
 20
436.83570993179302
 11
954.77467654160466
 21
433.51199007709931
  0
LINE
  8
_0-0_0
  6
CONTINUOUS
 62
    7
 10
931.55087136983764
 20
452.10358091519151
 11
933.90505607978275
 21
449.82432103281849
  0
LINE
  8
_0-0_0
  6
CONTINUOUS
 62
    7
 10
957.5209244342426
 20
440.42111184442251
 11
955.5911051768004
 21
436.83570993179302
  0
LINE
  8
_0-0_0
  6
CONTINUOUS
 62
    7
 10
933.90505607978275
 20
449.82432103281849
 11
936.91117154901326
 21
447.74761752546044
  0
LINE
  8
_0-0_0
  6
CONTINUOUS
 62
    7
 10
959.66737784076827
 20
443.20739928374621
 11
957.5209244342426
 21
440.42111184442251
  0
LINE
  8
_0-0_0
  6
CONTINUOUS
 62
    7
 10
936.91117154901326
 20
447.74761752546044
 11
939.90884962543657
 21
446.33994416547603
  0
LINE
  8
_0-0_0
  6
CONTINUOUS
 62
    7
 10
960.05429707276573
 20
445.1640412147193
 11
959.66737784076827
 21
443.20739928374621
  0
LINE
  8
_0-0_0
  6
CONTINUOUS
 62
    7
 10
939.90884962543657
 20
446.33994416547603
 11
944.14593403906815
 21
445.2300808469758
  0
LINE
  8
_0-0_0
  6
CONTINUOUS
 62
    7
 10
959.75139946147635
 20
446.48232279039598
 11
960.05429707276573
 21
445.1640412147193
  0
LINE
  8
_0-0_0
  6
CONTINUOUS
 62
    7
 10
944.14593403906815
 20
445.2300808469758
 11
948.29065639264172
 21
445.00872675037897
  0
LINE
  8
_0-0_0
  6
CONTINUOUS
 62
    7
 10
958.82727744082956
 20
446.89763394713162
 11
959.75139946147635
 21
446.48232279039598
  0
LINE
  8
_0-0_0
  6
CONTINUOUS
 62
    7
 10
948.29065639264172
 20
445.00872675037897
 11
951.38687897479588
 21
445.38020804440208
  0
LINE
  8
_0-0_0
  6
CONTINUOUS
 62
    7
 10
956.70504320068983
 20
446.84169411699173
 11
958.82727744082956
 21
446.89763394713162
  0
LINE
  8
_0-0_0
  6
CONTINUOUS
 62
    7
 10
951.38687897479588
 20
445.38020804440208
 11
953.99950390230345
 21
446.06870083196623
  0
LINE
  8
_0-0_0
  6
CONTINUOUS
 62
    7
 10
953.99950390230345
 20
446.06870083196623
 11
956.70504320068983
 21
446.84169411699173
  0
ARC
  8
_0-0_0
  6
CONTINUOUS
 62
    7
 10
970.30110694789187
 20
430.45998226028559
 40
2.1176283428175959
 50
314.9792959869888
 51
54.794187589535966
  0
ARC
  8
_0-0_0
  6
CONTINUOUS
 62
    7
 10
970.56506624467193
 20
437.10108395418871
 40
1.4117522285450643
 50
39.182408219223497
 51
191.95726352595011
  0
ARC
  8
_0-0_0
  6
CONTINUOUS
 62
    7
 10
950.00731945408825
 20
458.17037045189124
 40
0.7058761142725322
 50
247.7858159624555
 51
25.8418525108574
  0
ARC
  8
_0-0_0
  6
CONTINUOUS
 62
    7
 10
938.92503382824304
 20
456.29677670437059
 40
0.7058761142725322
 50
113.8881179896084
 51
236.6540340706737
  0
ARC
  8
_0-0_0
  6
CONTINUOUS
 62
    7
 10
931.92804640296629
 20
457.36467915305627
 40
0.7058761142725322
 50
79.839873730527501
 51
204.93458472641603
  0
ARC
  8
_0-0_0
  6
CONTINUOUS
 62
    7
 10
952.99856787504245
 20
462.69416197224746
 40
0.7058761142725322
 50
37.681728089902627
 51
161.59534953963288
  0
ARC
  8
_0-4_P-6853
  6
CONTINUOUS
 62
    7
 10
976.01438857548192
 20
436.60096141267644
 40
2.3886670266782208
 50
251.62858748173852
 51
332.03314924157797
  0
ARC
  8
_0-4_P-6853
  6
CONTINUOUS
 62
    7
 10
1019.5686174571478
 20
451.63643629676824
 40
125
 50
144.81379405518581
 51
221.56018723248533
  0
ARC
  8
_0-4_P-6853
  6
CONTINUOUS
 62
    7
 10
1019.5686174571478
 20
451.63643629676824
 40
119
 50
144.65989370655959
 51
221.38652653531639
  0
ARC
  8
_0-4_P-6853
  6
CONTINUOUS
 62
    7
 10
1064.648676532556
 20
385.43400748646582
 40
44.936057068061565
 50
306.85038068228829
 51
129.72386402941623
  0
ARC
  8
_0-4_P-6853
  6
CONTINUOUS
 62
    7
 10
1064.5511760686916
 20
385.42351586078735
 40
39.001804067287232
 50
307.69964169876692
 51
128.10165510159283
  0
ARC
  8
_0-0_0
  6
CONTINUOUS
 62
    7
 10
1040.6484443938234
 20
381.7973057976439
 40
20.36130145467256
 50
180.27332573249333
 51
213.34596592933443
  0
ARC
  8
_0-0_0
  6
CONTINUOUS
 62
    7
 10
982.61662870869918
 20
362.03623713771174
 40
44.884457655485448
 50
17.949166732499801
 51
27.741144732484713
  0
ARC
  8
_0-0_0
  6
CONTINUOUS
 62
    7
 10
1017.5968465542846
 20
373.93015456435421
 40
7.9593334185887343
 50
336.11188201038942
 51
14.094426732493584
  0
ARC
  8
_0-0_0
  6
CONTINUOUS
 62
    7
 10
992.75220729069804
 20
414.76180937122172
 40
26.87869514681325
 50
292.01566973249817
 51
318.65719673249492
  0
ARC
  8
_0-0_0
  6
CONTINUOUS
 62
    7
 10
1066.5423049293568
 20
389.49146080424657
 40
46.906536489846779
 50
173.36874173250109
 51
189.56127673250691
  0
ARC
  8
_0-0_0
  6
CONTINUOUS
 62
    7
 10
1026.8357749880074
 20
385.13854511193563
 40
5.0075819194307734
 50
128.62925213500321
 51
206.1836210405514
  0
ARC
  8
_0-0_0
  6
CONTINUOUS
 62
    7
 10
1040.1816909630616
 20
383.62849604230246
 40
22.611750976532253
 50
157.5362800111302
 51
222.76202673248909
  0
ARC
  8
_0-0_0
  6
CONTINUOUS
 62
    7
 10
1040.5003977821038
 20
391.54719120144512
 40
20.823843013700262
 50
129.06818973249989
 51
170.7117707325018
  0
ARC
  8
_0-0_0
  6
CONTINUOUS
 62
    7
 10
1030.1628876078958
 20
386.4592079647058
 40
2.173780081831862
 50
217.13746873249181
 51
288.4046504603686
  0
ARC
  8
_0-0_0
  6
CONTINUOUS
 62
    7
 10
1040.9166912118144
 20
396.39624206431643
 40
16.80676769385391
 50
140.31171873250241
 51
222.0160057325057
  0
ARC
  8
_0-0_0
  6
CONTINUOUS
 62
    7
 10
1061.4766598389538
 20
375.90810744174041
 40
47.24216364115663
 50
141.52833973249071
 51
170.05467973250109
  0
ARC
  8
_0-0_0
  6
CONTINUOUS
 62
    7
 10
1046.206970329524
 20
373.71115588905758
 40
40.619103479807208
 50
117.5467444744358
 51
145.0044273599832
  0
ARC
  8
_0-0_0
  6
CONTINUOUS
 62
    7
 10
1053.7034654142019
 20
358.29129504271981
 40
59.3535394220212
 50
114.9712937324924
 51
134.15229573250031
  0
ARC
  8
_0-0_0
  6
CONTINUOUS
 62
    7
 10
1040.4043001906814
 20
397.72592656796184
 40
15.29013568637412
 50
158.9349267324933
 51
232.31827191008799
  0
ARC
  8
_0-0_0
  6
CONTINUOUS
 62
    7
 10
1032.6827739652563
 20
379.88233737195048
 40
18.22534292091953
 50
166.725371732507
 51
245.0654152735745
  0
ARC
  8
_0-0_0
  6
CONTINUOUS
 62
    7
 10
1019.0651384677183
 20
362.87907817678479
 40
7.0368768655545306
 50
10.160126269480802
 51
50.08242073249798
  0
ARC
  8
_0-0_0
  6
CONTINUOUS
 62
    7
 10
1000.2413762433603
 20
396.59637216126299
 40
7.2317022024743229
 50
210.43955973250073
 51
290.95734773250808
  0
ARC
  8
_0-0_0
  6
CONTINUOUS
 62
    7
 10
1006.2071206082368
 20
407.8789894546872
 40
1.4269123800426899
 50
37.711597563305332
 51
236.98786260908619
  0
ARC
  8
_0-0_0
  6
CONTINUOUS
 62
    7
 10
1010.9093456877099
 20
414.648866465688
 40
9.6690345432160072
 50
235.47821577250318
 51
308.11597473249458
  0
ARC
  8
_0-0_0
  6
CONTINUOUS
 62
    7
 10
1002.9985376456051
 20
394.67316596491065
 40
9.1589846981933007
 50
151.27501629881709
 51
190.95518773250251
  0
ARC
  8
_0-0_0
  6
CONTINUOUS
 62
    7
 10
1003.8541717159649
 20
409.87229928300542
 40
12.379823996502981
 50
236.31354555028275
 51
313.39669373249893
  0
ARC
  8
_0-0_0
  6
CONTINUOUS
 62
    7
 10
996.20470532524507
 20
398.39653182681559
 40
1.4117522285450643
 50
56.313545550282683
 51
151.27501629881709
  0
LINE
  8
_0-0_0
  6
CONTINUOUS
 62
    7
 10
1040.4847771783598
 20
416.114706208418
 11
1038.6214900668563
 21
414.97444375794367
  0
LINE
  8
_0-0_0
  6
CONTINUOUS
 62
    7
 10
1038.6214900668563
 20
414.97444375794367
 11
1036.0878057103519
 21
413.04080038115268
  0
LINE
  8
_0-0_0
  6
CONTINUOUS
 62
    7
 10
1035.1373549374662
 20
418.9795586606362
 11
1035.9305717377285
 21
419.99583153869628
  0
LINE
  8
_0-0_0
  6
CONTINUOUS
 62
    7
 10
1036.0878057103519
 20
413.04080038115268
 11
1033.9007525514112
 21
410.91520283261559
  0
LINE
  8
_0-0_0
  6
CONTINUOUS
 62
    7
 10
1032.6615548259454
 20
416.48427665111888
 11
1035.1373549374662
 21
418.9795586606362
  0
LINE
  8
_0-0_0
  6
CONTINUOUS
 62
    7
 10
1033.9007525514112
 20
410.91520283261559
 11
1031.6935177482846
 21
408.15003092705103
  0
LINE
  8
_0-0_0
  6
CONTINUOUS
 62
    7
 10
1030.4076478822881
 20
414.92618102706081
 11
1032.6615548259454
 21
416.48427665111888
  0
LINE
  8
_0-0_0
  6
CONTINUOUS
 62
    7
 10
1031.6935177482846
 20
408.15003092705103
 11
1029.7263238648668
 21
404.80621359446138
  0
LINE
  8
_0-0_0
  6
CONTINUOUS
 62
    7
 10
1027.2313450102545
 20
413.32460418365974
 11
1030.4076478822881
 21
414.92618102706081
  0
LINE
  8
_0-0_0
  6
CONTINUOUS
 62
    7
 10
1029.7263238648668
 20
404.80621359446138
 11
1028.9550946522738
 21
402.28571236551397
  0
LINE
  8
_0-0_0
  6
CONTINUOUS
 62
    7
 10
1024.0824527518187
 20
412.06042317876165
 11
1027.2313450102545
 21
413.32460418365974
  0
LINE
  8
_0-0_0
  6
CONTINUOUS
 62
    7
 10
1028.9550946522738
 20
402.28571236551397
 11
1029.1847704094723
 21
398.74834387868157
  0
LINE
  8
_0-0_0
  6
CONTINUOUS
 62
    7
 10
1019.417522526546
 20
410.77412855903367
 11
1024.0824527518187
 21
412.06042317876165
  0
LINE
  8
_0-0_0
  6
CONTINUOUS
 62
    7
 10
1029.1847704094723
 20
398.74834387868157
 11
1030.283505637791
 21
396.07293624603562
  0
LINE
  8
_0-0_0
  6
CONTINUOUS
 62
    7
 10
1015.8158284986702
 20
410.21912707821173
 11
1019.417522526546
 21
410.77412855903367
  0
LINE
  8
_0-0_0
  6
CONTINUOUS
 62
    7
 10
1030.283505637791
 20
396.07293624603562
 11
1031.6339926726826
 21
394.09340942545543
  0
LINE
  8
_0-0_0
  6
CONTINUOUS
 62
    7
 10
1013.0884635859496
 20
410.03998430237777
 11
1015.8158284986702
 21
410.21912707821173
  0
LINE
  8
_0-0_0
  6
CONTINUOUS
 62
    7
 10
1031.6339926726826
 20
394.09340942545543
 11
1033.5834216802155
 21
391.5720964232392
  0
LINE
  8
_0-0_0
  6
CONTINUOUS
 62
    7
 10
1009.280892053231
 20
410.13125791815133
 11
1013.0884635859496
 21
410.03998430237777
  0
LINE
  8
_0-0_0
  6
CONTINUOUS
 62
    7
 10
1033.5834216802155
 20
391.5720964232392
 11
1034.6491486562811
 21
388.99541752950518
  0
LINE
  8
_0-0_0
  6
CONTINUOUS
 62
    7
 10
1007.9089002513819
 20
410.7035503339514
 11
1009.280892053231
 21
410.13125791815133
  0
LINE
  8
_0-0_0
  6
CONTINUOUS
 62
    7
 10
1034.6491486562811
 20
388.99541752950518
 11
1034.7750585895358
 21
386.30394943441422
  0
LINE
  8
_0-0_0
  6
CONTINUOUS
 62
    7
 10
1005.8872551711255
 20
411.11042465539333
 11
1007.9089002513819
 21
410.7035503339514
  0
LINE
  8
_0-0_0
  6
CONTINUOUS
 62
    7
 10
1034.7750585895358
 20
386.30394943441422
 11
1033.9693583868443
 21
384.44066301799
  0
LINE
  8
_0-0_0
  6
CONTINUOUS
 62
    7
 10
1003.4129517481455
 20
410.1919236709353
 11
1005.8872551711255
 21
411.11042465539333
  0
LINE
  8
_0-0_0
  6
CONTINUOUS
 62
    7
 10
1033.9693583868443
 20
384.44066301799
 11
1032.2960408178117
 21
382.83597551551514
  0
LINE
  8
_0-0_0
  6
CONTINUOUS
 62
    7
 10
1032.2960408178117
 20
382.83597551551514
 11
1029.7343602747594
 21
382.02475673389813
  0
LINE
  8
_0-0_0
  6
CONTINUOUS
 62
    7
 10
1029.7343602747594
 20
382.02475673389813
 11
1027.753036330713
 21
382.0600811765006
  0
LINE
  8
_0-0_0
  6
CONTINUOUS
 62
    7
 10
1003.4681217966486
 20
405.63547501403184
 11
1002.2662178184883
 21
407.32935794710284
  0
LINE
  8
_0-0_0
  6
CONTINUOUS
 62
    7
 10
1027.753036330713
 20
382.0600811765006
 11
1026.4102349873203
 21
382.7104272275165
  0
LINE
  8
_0-0_0
  6
CONTINUOUS
 62
    7
 10
1005.0725576044807
 20
404.42214927551311
 11
1003.4681217966486
 21
405.63547501403184
  0
LINE
  8
_0-0_0
  6
CONTINUOUS
 62
    7
 10
1005.9251979442296
 20
403.72718859894121
 11
1005.0725576044807
 21
404.42214927551311
  0
LINE
  8
_0-0_0
  6
CONTINUOUS
 62
    7
 10
1002.3064214643949
 20
401.76730488123388
 11
1004.7407754073191
 21
401.2517644791472
  0
LINE
  8
_0-0_0
  6
CONTINUOUS
 62
    7
 10
1000.3710306738467
 20
403.2374593149126
 11
1002.3064214643949
 21
401.76730488123388
  0
LINE
  8
_0-0_0
  6
CONTINUOUS
 62
    7
 10
1025.4490677275071
 20
381.80826772385421
 11
1027.0548852085708
 21
377.87611497160958
  0
LINE
  8
_0-0_0
  6
CONTINUOUS
 62
    7
 10
1000.1224487770023
 20
403.58977073424023
 11
1000.3710306738467
 21
403.2374593149126
  0
LINE
  8
_0-0_0
  6
CONTINUOUS
 62
    7
 10
1027.0548852085708
 20
377.87611497160958
 11
1027.8775581422112
 21
375.05094180242799
  0
LINE
  8
_0-0_0
  6
CONTINUOUS
 62
    7
 10
1027.8775581422112
 20
375.05094180242799
 11
1028.2906277617219
 21
372.57744914125192
  0
LINE
  8
_0-0_0
  6
CONTINUOUS
 62
    7
 10
995.56938129436446
 20
402.53996436316606
 11
996.89423307076913
 21
403.86577396457091
  0
LINE
  8
_0-0_0
  6
CONTINUOUS
 62
    7
 10
1028.2906277617219
 20
372.57744914125192
 11
1028.0042709915369
 21
370.73890491166787
  0
LINE
  8
_0-0_0
  6
CONTINUOUS
 62
    7
 10
993.86589251790781
 20
400.26263558837695
 11
995.56938129436446
 21
402.53996436316606
  0
LINE
  8
_0-0_0
  6
CONTINUOUS
 62
    7
 10
1028.0042709915369
 20
370.73890491166787
 11
1027.3429207469158
 21
369.41393291539327
  0
LINE
  8
_0-0_0
  6
CONTINUOUS
 62
    7
 10
992.66883104485612
 20
397.95599544753321
 11
993.86589251790781
 21
400.26263558837695
  0
LINE
  8
_0-0_0
  6
CONTINUOUS
 62
    7
 10
1027.3429207469158
 20
369.41393291539327
 11
1028.5339355199335
 21
366.69412696032566
  0
LINE
  8
_0-0_0
  6
CONTINUOUS
 62
    7
 10
991.90389477988583
 20
395.72022511077193
 11
992.66883104485612
 21
397.95599544753321
  0
LINE
  8
_0-0_0
  6
CONTINUOUS
 62
    7
 10
1028.5339355199335
 20
366.69412696032566
 11
1028.9592910182969
 21
364.572080604826
  0
LINE
  8
_0-0_0
  6
CONTINUOUS
 62
    7
 10
991.41205743125283
 20
392.89963796184003
 11
991.90389477988583
 21
395.72022511077193
  0
LINE
  8
_0-0_0
  6
CONTINUOUS
 62
    7
 10
1028.9592910182969
 20
364.572080604826
 11
1028.8767434997544
 21
362.87546603864143
  0
LINE
  8
_0-0_0
  6
CONTINUOUS
 62
    7
 10
991.88275835374043
 20
390.33026629166113
 11
991.41205743125283
 21
392.89963796184003
  0
LINE
  8
_0-0_0
  6
CONTINUOUS
 62
    7
 10
1028.8767434997544
 20
362.87546603864143
 11
1027.6914652288465
 21
361.4023929525427
  0
LINE
  8
_0-0_0
  6
CONTINUOUS
 62
    7
 10
993.12786148105363
 20
388.59772594191918
 11
991.88275835374043
 21
390.33026629166113
  0
LINE
  8
_0-0_0
  6
CONTINUOUS
 62
    7
 10
1027.6914652288465
 20
361.4023929525427
 11
1025.324398059453
 21
360.58518006073172
  0
LINE
  8
_0-0_0
  6
CONTINUOUS
 62
    7
 10
994.48775605497087
 20
387.66260685532751
 11
993.12786148105363
 21
388.59772594191918
  0
LINE
  8
_0-0_0
  6
CONTINUOUS
 62
    7
 10
1025.324398059453
 20
360.58518006073172
 11
1023.9733746689503
 21
360.87214349159387
  0
LINE
  8
_0-0_0
  6
CONTINUOUS
 62
    7
 10
997.64720931818135
 20
386.85276947403497
 11
994.48775605497087
 21
387.66260685532751
  0
LINE
  8
_0-0_0
  6
CONTINUOUS
 62
    7
 10
1023.9733746689503
 20
360.87214349159387
 11
1021.580906536712
 21
362.37771471963759
  0
LINE
  8
_0-0_0
  6
CONTINUOUS
 62
    7
 10
1001.4441712374789
 20
386.84249538122492
 11
997.64720931818135
 21
386.85276947403497
  0
LINE
  8
_0-0_0
  6
CONTINUOUS
 62
    7
 10
1021.580906536712
 20
362.37771471963759
 11
1020.0357620755713
 21
363.6186902094579
  0
LINE
  8
_0-0_0
  6
CONTINUOUS
 62
    7
 10
1004.7678910921729
 20
387.65892401642071
 11
1001.4441712374789
 21
386.84249538122492
  0
LINE
  8
_0-0_0
  6
CONTINUOUS
 62
    7
 10
1020.0357620755713
 20
363.6186902094579
 11
1017.7565021931981
 21
365.97287491940278
  0
LINE
  8
_0-0_0
  6
CONTINUOUS
 62
    7
 10
1008.3532930048021
 20
389.58874327386286
 11
1004.7678910921729
 21
387.65892401642071
  0
LINE
  8
_0-0_0
  6
CONTINUOUS
 62
    7
 10
1017.7565021931981
 20
365.97287491940278
 11
1015.6797986858398
 21
368.97899038863329
  0
LINE
  8
_0-0_0
  6
CONTINUOUS
 62
    7
 10
1011.139580444126
 20
391.7351966803887
 11
1008.3532930048021
 21
389.58874327386286
  0
LINE
  8
_0-0_0
  6
CONTINUOUS
 62
    7
 10
1015.6797986858398
 20
368.97899038863329
 11
1014.2721253258558
 21
371.97666846505672
  0
LINE
  8
_0-0_0
  6
CONTINUOUS
 62
    7
 10
1013.0962223750989
 20
392.12211591238599
 11
1011.139580444126
 21
391.7351966803887
  0
LINE
  8
_0-0_0
  6
CONTINUOUS
 62
    7
 10
1014.2721253258558
 20
371.97666846505672
 11
1013.1622620073553
 21
376.21375287868864
  0
LINE
  8
_0-0_0
  6
CONTINUOUS
 62
    7
 10
1014.4145039507757
 20
391.81921830109684
 11
1013.0962223750989
 21
392.12211591238599
  0
LINE
  8
_0-0_0
  6
CONTINUOUS
 62
    7
 10
1013.1622620073553
 20
376.21375287868864
 11
1012.9409079107587
 21
380.35847523226187
  0
LINE
  8
_0-0_0
  6
CONTINUOUS
 62
    7
 10
1014.8298151075113
 20
390.89509628044993
 11
1014.4145039507757
 21
391.81921830109684
  0
LINE
  8
_0-0_0
  6
CONTINUOUS
 62
    7
 10
1012.9409079107587
 20
380.35847523226187
 11
1013.312389204782
 21
383.45469781441614
  0
LINE
  8
_0-0_0
  6
CONTINUOUS
 62
    7
 10
1014.7738752773715
 20
388.77286204031014
 11
1014.8298151075113
 21
390.89509628044993
  0
LINE
  8
_0-0_0
  6
CONTINUOUS
 62
    7
 10
1013.312389204782
 20
383.45469781441614
 11
1014.0008819923459
 21
386.0673227419237
  0
LINE
  8
_0-0_0
  6
CONTINUOUS
 62
    7
 10
1014.0008819923459
 20
386.0673227419237
 11
1014.7738752773715
 21
388.77286204031014
  0
ARC
  8
_0-0_0
  6
CONTINUOUS
 62
    7
 10
998.39216342066516
 20
402.36892578751224
 40
2.1176283428175959
 50
35.205812410464048
 51
135.0207040130158
  0
ARC
  8
_0-0_0
  6
CONTINUOUS
 62
    7
 10
1005.0332651145685
 20
402.63288508429207
 40
1.4117522285450643
 50
258.04273647405648
 51
50.817591780780056
  0
ARC
  8
_0-0_0
  6
CONTINUOUS
 62
    7
 10
1026.1025516122711
 20
382.07513829370862
 40
0.7058761142725322
 50
64.158147489137491
 51
202.21418403752989
  0
ARC
  8
_0-0_0
  6
CONTINUOUS
 62
    7
 10
1024.2289578647503
 20
370.99285266786302
 40
0.7058761142725322
 50
213.34596592933437
 51
336.11188201038942
  0
ARC
  8
_0-0_0
  6
CONTINUOUS
 62
    7
 10
1025.2968603134357
 20
363.99586524258643
 40
0.7058761142725322
 50
245.0654152735745
 51
10.160126269480809
  0
ARC
  8
_0-0_0
  6
CONTINUOUS
 62
    7
 10
1030.6263431326272
 20
385.06638671466254
 40
0.7058761142725322
 50
288.40465046036866
 51
52.318271910087972
  0
ARC
  8
_0-4_P-6853
  6
CONTINUOUS
 62
    7
 10
1004.5331425730564
 20
408.08220741510206
 40
2.3886670266782208
 50
117.96685075842581
 51
198.37141251825329
  0
LINE
  8
_0-4_P-6853
  6
CONTINUOUS
 62
    7
 10
920.33198515674735
 20
363.00640571416949
 11
931.70111031361455
 21
374.37553087103601
  0
LINE
  8
_0-4_P-6853
  6
CONTINUOUS
 62
    7
 10
934.52953743836076
 20
371.54710374628991
 11
939.47928490666652
 21
366.59735627798403
  0
ARC
  8
_0-4_P-6853
  6
CONTINUOUS
 62
    7
 10
933.11532387598754
 20
372.96131730866284
 40
1.9999999999999991
 50
314.9999999999954
 51
134.99999999999542
  0
LINE
  8
_0-4_P-6853
  6
CONTINUOUS
 62
    7
 10
930.93858687454508
 20
352.39980399637079
 11
942.30771203141273
 21
363.76892915323771
  0
ARC
  8
_0-4_P-6853
  6
CONTINUOUS
 62
    7
 10
940.89349846903951
 20
365.18314271561098
 40
1.9999999999999991
 50
314.9999999999954
 51
134.99999999999542
  0
LINE
  8
_0-4_P-6853
  6
CONTINUOUS
 62
    7
 10
1083.296903325037
 20
579.30166043847294
 11
1093.3643141108564
 21
564.870330978997
  0
LINE
  8
_0-4_P-6853
  6
CONTINUOUS
 62
    7
 10
1090.08370403765
 20
562.58175116881364
 11
1084.3426364095394
 21
558.57673650099275
  0
ARC
  8
_0-4_P-6853
  6
CONTINUOUS
 62
    7
 10
1091.724009074253
 20
563.72604107390532
 40
1.9999999999999991
 50
214.89993566600961
 51
34.899935666009618
  0
LINE
  8
_0-4_P-6853
  6
CONTINUOUS
 62
    7
 10
1070.994615550514
 20
570.71948615028691
 11
1081.0620263363332
 21
556.28815669080939
  0
ARC
  8
_0-4_P-6853
  6
CONTINUOUS
 62
    7
 10
1082.7023313729362
 20
557.43244659590107
 40
1.9999999999999991
 50
214.89993566600961
 51
34.899935666009618
  0
LINE
  8
_0-4_P-6853
  6
CONTINUOUS
 62
    7
 10
1080.0162932518315
 20
577.01308062829048
 11
1074.2752256237204
 21
573.00806596047028
  0
ARC
  8
_0-4_P-6853
  6
CONTINUOUS
 62
    7
 10
1081.6565982884347
 20
578.15737053338194
 40
1.9999999999999991
 50
34.899935666003742
 51
214.8999356660037
  0
ARC
  8
_0-4_P-6853
  6
CONTINUOUS
 62
    7
 10
1072.6349205871174
 20
571.86377605537837
 40
1.9999999999999991
 50
34.899935666003742
 51
214.8999356660037
  0
ARC
  8
_0-4_P-6853
  6
CONTINUOUS
 62
    7
 10
1055.4320218370733
 20
604.20527118188954
 40
39.001804067287232
 50
317.64598859329038
 51
30.692216096734466
  0
ARC
  8
_0-4_P-6853
  6
CONTINUOUS
 62
    7
 10
1055.4298522981005
 20
604.10723186445136
 40
44.936057068061565
 50
316.01510154833011
 51
32.314425024567228
  0
ARC
  8
_0-4_P-6853
  6
CONTINUOUS
 62
    7
 10
1108.8372263536685
 20
529.79559217986764
 40
46.202526826170455
 50
134.39578235390931
 51
260.93760714631901
  0
ARC
  8
_0-4_P-6853
  6
CONTINUOUS
 62
    7
 10
1108.975508136293
 20
529.70829980224835
 40
40.331980753689621
 50
135.88557509158039
 51
260.74138308478302
  0
LINE
  8
_0-4_P-6853
  6
CONTINUOUS
 62
    7
 10
1090.08370403765
 20
562.58175116881364
 11
1080.0162932518315
 21
577.01308062829025
  0
LINE
  8
_0-4_P-6853
  6
CONTINUOUS
 62
    7
 10
1074.2752256237204
 20
573.00806596047005
 11
1084.3426364095399
 21
558.57673650099298
  0
LINE
  8
_0-4_P-6853
  6
CONTINUOUS
 62
    7
 10
923.16041228149356
 20
360.17797858942333
 11
928.1101597497991
 21
355.22823112111723
  0
ARC
  8
_0-4_P-6853
  6
CONTINUOUS
 62
    7
 10
921.74619871912057
 20
361.59219215179638
 40
1.9999999999999991
 50
134.9999999999954
 51
314.9999999999954
  0
ARC
  8
_0-4_P-6853
  6
CONTINUOUS
 62
    7
 10
929.52437331217197
 20
353.81401755874384
 40
1.9999999999999991
 50
134.9999999999954
 51
314.9999999999954
  0
ARC
  8
_0-4_P-6853
  6
CONTINUOUS
 62
    7
 10
1051.2827801260582
 20
483.35059896568282
 40
175.85059896568251
 50
227.44439730399952
 51
287.3581146393193
  0
ARC
  8
_0-4_P-6853
  6
CONTINUOUS
 62
    7
 10
1051.2827801260582
 20
483.35059896568282
 40
169.85059896568254
 50
227.530801276083
 51
287.3581146393193
  0
ARC
  8
_0-4_P-6853
  6
CONTINUOUS
 62
    7
 10
1019.5686174571478
 20
451.63643629676824
 40
125
 50
228.43981276751472
 51
305.18620594480922
  0
ARC
  8
_0-4_P-6853
  6
CONTINUOUS
 62
    7
 10
1019.5686174571478
 20
451.63643629676824
 40
119
 50
228.61347346468361
 51
305.34010629344039
  0
LINE
  8
_0-4_P-6853
  6
CONTINUOUS
 62
    7
 10
939.47928490666652
 20
366.59735627798398
 11
928.1101597497991
 21
355.22823112111723
  0
LINE
  8
_0-4_P-6853
  6
CONTINUOUS
 62
    7
 10
923.16041228149356
 20
360.17797858942333
 11
934.52953743836042
 21
371.54710374628996
  0
ENDSEC
  0
EOF
