  0
SECTION
  2
HEADER
  9
$ACADVER
  1
AC1009
  9
$INSBASE
 10
0
 20
0
 30
0
  9
$EXTMIN
 10
0
 20
0
  9
$EXTMAX
 10
1485
 20
1050
  9
$LIMMIN
 10
0
 20
0
  9
$LIMMAX
 10
1485
 20
1050
  9
$LTSCALE
 40
5
  0
ENDSEC
  0
SECTION
  2
TABLES
  0
TABLE
  2
LTYPE
 70
     9
  0
LTYPE
  2
CONTINUOUS
 70
    64
  3
実線
 72
    65
 73
     0
 40
0.0
  0
LTYPE
  2
DASHED1
 70
    64
  3
--  --  --  --  --  --  --  --  
 72
    65
 73
     2
 40
2.5
 49
1.25
 49
-1.25
  0
LTYPE
  2
DASHED2
 70
    64
  3
----    ----    ----    ----    
 72
    65
 73
     2
 40
5.0
 49
2.5
 49
-2.5
  0
LTYPE
  2
DASHED3
 70
    64
  3
------  ------  ------  ------  
 72
    65
 73
     2
 40
5.0
 49
3.75
 49
-1.25
  0
LTYPE
  2
CENTER1
 70
    64
  3
----- - ----- - ----- - ----- - 
 72
    65
 73
     4
 40
10.0
 49
6.25
 49
-1.25
 49
1.25
 49
-1.25
  0
LTYPE
  2
CENTER2
 70
    64
  3
----------  --  ----------  --  
 72
    65
 73
     4
 40
20.0
 49
12.5
 49
-2.5
 49
2.5
 49
-2.5
  0
LTYPE
  2
PHANTOM1
 70
    64
  3
--- - - --- - - --- - - --- - - 
 72
    65
 73
     6
 40
10.0
 49
3.25
 49
-1.25
 49
1.25
 49
-1.25
 49
1.25
 49
-1.25
  0
LTYPE
  2
PHANTOM2
 70
    64
  3
--------  -  -  --------  -  -  
 72
    65
 73
     6
 40
20.0
 49
10.0
 49
-2.5
 49
1.25
 49
-2.5
 49
1.25
 49
-2.5
  0
LTYPE
  2
DOT
 70
    64
  3
-   -   -   -   -   -   -   -   
 72
    65
 73
     2
 40
2.5
 49
0.625
 49
-1.875
  0
LTYPE
  2
DUMMY
 70
    64
  3
ダミー
 72
    65
 73
     0
 40
0.0
  0
LTYPE
  2
RAND1
 70
    64
  3
ランダム線1
 72
    65
 73
     4
 40
10.0
 49
1.0
 49
-2.0
 49
3.0
 49
-4.0
  0
LTYPE
  2
RAND2
 70
    64
  3
ランダム線2
 72
    65
 73
     4
 40
14.0
 49
2.0
 49
-3.0
 49
4.0
 49
-5.0
  0
LTYPE
  2
RAND3
 70
    64
  3
ランダム線3
 72
    65
 73
     4
 40
18.0
 49
3.0
 49
-4.0
 49
5.0
 49
-6.0
  0
LTYPE
  2
RAND4
 70
    64
  3
ランダム線4
 72
    65
 73
     4
 40
22.0
 49
4.0
 49
-5.0
 49
6.0
 49
-7.0
  0
LTYPE
  2
RAND5
 70
    64
  3
ランダム線5
 72
    65
 73
     4
 40
26.0
 49
5.0
 49
-6.0
 49
7.0
 49
-8.0
  0
LTYPE
  2
LONG1
 70
    64
  3
----------  --  ----------  --  
 72
    65
 73
     4
 40
40.0
 49
32.5
 49
-2.5
 49
2.5
 49
-2.5
  0
LTYPE
  2
LONG2
 70
    64
  3
--------  -  -  --------  -  -  
 72
    65
 73
     6
 40
40.0
 49
30.0
 49
-2.5
 49
1.25
 49
-2.5
 49
1.25
 49
-2.5
  0
LTYPE
  2
LONG3
 70
    64
  3
+++++++++++++++..+++++++++++++++
 72
    65
 73
     2
 40
40.0
 49
37.5
 49
-2.5
  0
LTYPE
  2
LONG4
 70
    64
  3
+++++++++++++++..+++++++++++++++
 72
    65
 73
     2
 40
80.0
 49
75.0
 49
-5.0
  0
LTYPE
  2
LONG5
 70
    64
  3
----------  --  ----------  --  
 72
    65
 73
     4
 40
60.0
 49
37.5
 49
-7.5
 49
7.5
 49
-7.5
  0
LTYPE
  2
dashed
 70
   64
  3
-------   -------------   ------
 72
   65
 73
    2
 40
7.5
 49
6
 49
-1.5
  0
LTYPE
  2
dashed_spaced
 70
   64
  3
----        --------        ----
 72
   65
 73
    2
 40
12
 49
6
 49
-6
  0
LTYPE
  2
long_dashed_dotted
 70
   64
  3
------------- --- --------------
 72
   65
 73
    4
 40
15.25
 49
12
 49
-1.5
 49
0.25
 49
-1.5
  0
LTYPE
  2
long_dashed_double-dotted
 70
   64
  3
----------- --- --- ------------
 72
   65
 73
    6
 40
17
 49
12
 49
-1.5
 49
0.25
 49
-1.5
 49
0.25
 49
-1.5
  0
LTYPE
  2
long_dashed_triplicate-dotted
 70
   64
  3
--------- --- --- --- ----------
 72
   65
 73
    8
 40
18.75
 49
12
 49
-1.5
 49
0.25
 49
-1.5
 49
0.25
 49
-1.5
 49
0.25
 49
-1.5
  0
LTYPE
  2
dotted
 70
   64
  3
   -       -       -       -    
 72
   65
 73
    2
 40
1.75
 49
0.25
 49
-1.5
  0
LTYPE
  2
chain
 70
   64
  3
-------------- -- --------------
 72
   65
 73
    4
 40
18.5
 49
12
 49
-1.5
 49
3.5
 49
-1.5
  0
LTYPE
  2
chain_double_dash
 70
   64
  3
------------ -- -- -------------
 72
   65
 73
    6
 40
23.5
 49
12
 49
-1.5
 49
3.5
 49
-1.5
 49
3.5
 49
-1.5
  0
LTYPE
  2
dashed_dotted
 70
   64
  3
-----------     -     ----------
 72
   65
 73
    4
 40
9.25
 49
6
 49
-1.5
 49
0.25
 49
-1.5
  0
LTYPE
  2
double-dashed_dotted
 70
   64
  3
------   -----------   -   -----
 72
   65
 73
    6
 40
16.75
 49
6
 49
-1.5
 49
6
 49
-1.5
 49
0.25
 49
-1.5
  0
LTYPE
  2
dashed_double-dotted
 70
   64
  3
---------    -    -    ---------
 72
   65
 73
    6
 40
11
 49
6
 49
-1.5
 49
0.25
 49
-1.5
 49
0.25
 49
-1.5
  0
LTYPE
  2
double-dashed_double-dotted
 70
   64
  3
-----   ---------   -   -   ----
 72
   65
 73
    8
 40
18.5
 49
6
 49
-1.5
 49
6
 49
-1.5
 49
0.25
 49
-1.5
 49
0.25
 49
-1.5
  0
LTYPE
  2
dashed_triplicate-dotted
 70
   64
  3
-------    -    -    -    ------
 72
   65
 73
    8
 40
12.75
 49
6
 49
-1.5
 49
0.25
 49
-1.5
 49
0.25
 49
-1.5
 49
0.25
 49
-1.5
  0
LTYPE
  2
double-dashed_triplicate-dotted
 70
   64
  3
-----  ---------  -  -  -  -----
 72
   65
 73
   10
 40
20.25
 49
6
 49
-1.5
 49
6
 49
-1.5
 49
0.25
 49
-1.5
 49
0.25
 49
-1.5
 49
0.25
 49
-1.5
  0
LTYPE
  2
undefined
 70
   64
  3
--------------------------------
 72
   65
 73
    0
 40
0
  0
LTYPE
  2
BORDER
 70
   64
  3
----     --------     -     ----
 72
   65
 73
    6
 40
1.76
 49
0.5
 49
-0.25
 49
0.5
 49
-0.25
 49
0.01
 49
-0.25
  0
LTYPE
  2
BORDER2
 70
   64
  3
----     --------     -     ----
 72
   65
 73
    6
 40
0.885
 49
0.25
 49
-0.125
 49
0.25
 49
-0.125
 49
0.01
 49
-0.125
  0
LTYPE
  2
BORDERX2
 70
   64
  3
----     --------     -     ----
 72
   65
 73
    6
 40
3.5099999999999998
 49
1
 49
-0.5
 49
1
 49
-0.5
 49
0.01
 49
-0.5
  0
LTYPE
  2
CENTER
 70
   64
  3
----------    ----    ----------
 72
   65
 73
    4
 40
2
 49
1.25
 49
-0.25
 49
0.25
 49
-0.25
  0
LTYPE
  2
CENTER2_21
 70
   64
  3
----------    ----    ----------
 72
   65
 73
    4
 40
1.125
 49
0.75
 49
-0.125
 49
0.125
 49
-0.125
  0
LTYPE
  2
CENTERX2
 70
   64
  3
----------    ----    ----------
 72
   65
 73
    4
 40
4
 49
2.5
 49
-0.5
 49
0.5
 49
-0.5
  0
LTYPE
  2
DASHDOT
 70
   64
  3
--------        -        -------
 72
   65
 73
    4
 40
1.01
 49
0.5
 49
-0.25
 49
0.01
 49
-0.25
  0
LTYPE
  2
DASHDOT2
 70
   64
  3
--------        -        -------
 72
   65
 73
    4
 40
0.51
 49
0.25
 49
-0.125
 49
0.01
 49
-0.125
  0
LTYPE
  2
DASHDOTX2
 70
   64
  3
--------        -        -------
 72
   65
 73
    4
 40
2.0099999999999998
 49
1
 49
-0.5
 49
0.01
 49
-0.5
  0
LTYPE
  2
DASHED
 70
   64
  3
------     -----------     -----
 72
   65
 73
    2
 40
0.75
 49
0.5
 49
-0.25
  0
LTYPE
  2
DASHED2_27
 70
   64
  3
------     -----------     -----
 72
   65
 73
    2
 40
0.375
 49
0.25
 49
-0.125
  0
LTYPE
  2
DASHEDX2
 70
   64
  3
------     -----------     -----
 72
   65
 73
    2
 40
1.5
 49
1
 49
-0.5
  0
LTYPE
  2
DIVIDE
 70
   64
  3
------      -      -      ------
 72
   65
 73
    6
 40
1.27
 49
0.5
 49
-0.25
 49
0.01
 49
-0.25
 49
0.01
 49
-0.25
  0
LTYPE
  2
DIVIDE2
 70
   64
  3
------      -      -      ------
 72
   65
 73
    6
 40
0.645
 49
0.25
 49
-0.125
 49
0.01
 49
-0.125
 49
0.01
 49
-0.125
  0
LTYPE
  2
DIVIDEX2
 70
   64
  3
------      -      -      ------
 72
   65
 73
    6
 40
2.5199999999999996
 49
1
 49
-0.5
 49
0.01
 49
-0.5
 49
0.01
 49
-0.5
  0
LTYPE
  2
DOT_32
 70
   64
  3
-               -               
 72
   65
 73
    2
 40
0.26
 49
0.01
 49
-0.25
  0
ENDTAB
  0
TABLE
  2
STYLE
  5
3
100
AcDbSymbolTable
 70
     1
  0
STYLE
  5
10
100
AcDbSymbolTableRecord
100
AcDbTextStyleTableRecord
  2
STANDARD
 70
     0
 40
0.0
 41
1.0
 50
0.0
 71
     0
 42
0.2
  3
txt
  4
bigfont.shx
  0
STYLE
  5
26
100
AcDbSymbolTableRecord
100
AcDbTextStyleTableRecord
  2
TATEGAKI
 70
    68
 40
0.0
 41
1.0
 50
0.0
 71
     0
 42
1.0
  3
txt
  4
bigfont.shx
  0
ENDTAB
  0
TABLE
  2
LAYER
 70
   15
  0
LAYER
  2
_0-0_0
 70
   64
 62
    7
  6
CONTINUOUS
  0
LAYER
  2
_0-1_P-4B13
 70
   64
 62
    7
  6
CONTINUOUS
  0
LAYER
  2
_0-2_P-47EC
 70
   64
 62
    7
  6
CONTINUOUS
  0
LAYER
  2
_0-3_P-33DB
 70
   64
 62
    7
  6
CONTINUOUS
  0
LAYER
  2
_0-4_P-4AC1
 70
   64
 62
    7
  6
CONTINUOUS
  0
LAYER
  2
_0-5_P-4481
 70
   64
 62
    7
  6
CONTINUOUS
  0
LAYER
  2
_0-6_P-3DDA
 70
   64
 62
    7
  6
CONTINUOUS
  0
LAYER
  2
_0-7_P-2CCF
 70
   64
 62
    7
  6
CONTINUOUS
  0
LAYER
  2
_0-8_P-6578
 70
   64
 62
    7
  6
CONTINUOUS
  0
LAYER
  2
_0-9_P-1A33
 70
   64
 62
    7
  6
CONTINUOUS
  0
LAYER
  2
_0-a_P-5A90
 70
   64
 62
    7
  6
CONTINUOUS
  0
LAYER
  2
_0-b_P-6E6F
 70
   64
 62
    7
  6
CONTINUOUS
  0
LAYER
  2
_0-c_P-1721
 70
   64
 62
    7
  6
CONTINUOUS
  0
LAYER
  2
_0-d_P-4E91
 70
   64
 62
    7
  6
CONTINUOUS
  0
LAYER
  2
ADD_LINE
 70
   64
 62
    7
  6
CONTINUOUS
  0
ENDTAB
  0
ENDSEC
  0
SECTION
  2
BLOCKS
  0
ENDSEC
  0
SECTION
  2
ENTITIES
  0
ARC
  8
_0-b_P-6E6F
  6
CONTINUOUS
 62
    7
 10
767.32027382777278
 20
288.08112999228615
 40
12.191327000000001
 50
25.037347842372071
 51
127.83302984239849
  0
ARC
  8
_0-8_P-6578
  6
CONTINUOUS
 62
    7
 10
880.66240090668771
 20
586.15756634446734
 40
23.868214200000001
 50
226.73206197558659
 51
283.53639497559988
  0
ARC
  8
_0-8_P-6578
  6
CONTINUOUS
 62
    7
 10
878.19446323132479
 20
680.6940982848173
 40
18.7394517
 50
89.598268975624222
 51
146.86907797555691
  0
ARC
  8
_0-8_P-6578
  6
CONTINUOUS
 62
    7
 10
864.91966869372891
 20
639.6364446999869
 40
14.576661900000001
 50
110.50883897553241
 51
127.3079349755902
  0
ARC
  8
_0-8_P-6578
  6
CONTINUOUS
 62
    7
 10
870.44864891414591
 20
631.92165848418881
 40
23.868214200000001
 50
59.658025975608503
 51
116.46235997558919
  0
ARC
  8
_0-8_P-6578
  6
CONTINUOUS
 62
    7
 10
851.86624647065082
 20
685.94327205775699
 40
55.515566341715193
 50
349.23987826474939
 51
83.096873571466006
  0
ARC
  8
_0-9_P-1A33
  6
CONTINUOUS
 62
    7
 10
725.96196146055672
 20
781.86135642405861
 40
26.520238000000003
 50
246.62311784233532
 51
303.42745184231592
  0
ARC
  8
_0-9_P-1A33
  6
CONTINUOUS
 62
    7
 10
704.96452258285171
 20
761.77966204428594
 40
27.306579000000003
 50
225.48835484235588
 51
294.75860284240741
  0
ARC
  8
_0-1_P-4B13
  6
CONTINUOUS
 62
    7
 10
697.96777329575571
 20
887.9429111877181
 40
214.16680425198422
 50
340.10905500981681
 51
0.2660758361037415
  0
ARC
  8
_0-1_P-4B13
  6
CONTINUOUS
 62
    7
 10
706.59322080507809
 20
884.84319133230747
 40
211.17739176158864
 50
337.52341588703456
 51
3.1346337159392501
  0
ARC
  8
_0-5_P-4481
  6
CONTINUOUS
 62
    7
 10
772.65287646696197
 20
759.56673763864819
 40
1.4999679999999991
 50
327.69722974283587
 51
147.70166374277622
  0
LINE
  8
_0-5_P-4481
  6
CONTINUOUS
 62
    7
 10
752.11506881208879
 20
749.74810312502814
 11
762.087319006283
 21
766.24642146696715
  0
LINE
  8
_0-5_P-4481
  6
CONTINUOUS
 62
    7
 10
754.65082018458406
 20
748.14495123740562
 11
764.62305542953573
 21
764.64326834642634
  0
ARC
  8
_0-5_P-4481
  6
CONTINUOUS
 62
    7
 10
753.38295197295793
 20
748.94652779767785
 40
1.5000049999999989
 50
147.6979347428217
 51
327.69829474279811
  0
ARC
  8
_0-5_P-4481
  6
CONTINUOUS
 62
    7
 10
763.35518721790686
 20
765.44484490670584
 40
1.5000049999999989
 50
327.69722974283587
 51
147.69793474282173
  0
LINE
  8
_0-5_P-4481
  6
CONTINUOUS
 62
    7
 10
764.62305542953573
 20
764.64326834642634
 11
771.38501828305789
 21
760.36819261172786
  0
ARC
  8
_0-5_P-4481
  6
CONTINUOUS
 62
    7
 10
762.68065133192613
 20
743.0682979458179
 40
1.5000049999999989
 50
147.6979347428217
 51
330.1743207428284
  0
LINE
  8
_0-5_P-4481
  6
CONTINUOUS
 62
    7
 10
773.92074467858674
 20
758.76516107837597
 11
763.94853449279708
 21
742.26672261846761
  0
LINE
  8
_0-5_P-4481
  6
CONTINUOUS
 62
    7
 10
761.41278303810577
 20
743.86987550269623
 11
754.65082018458406
 21
748.14495123740562
  0
LINE
  8
_0-5_P-4481
  6
CONTINUOUS
 62
    7
 10
761.41278303810577
 20
743.86987550269623
 11
771.38501828305789
 21
760.36819261172786
  0
ARC
  8
_0-1_P-4B13
  6
CONTINUOUS
 62
    7
 10
779.9506961341358
 20
883.79093283181646
 40
132.28174649124833
 50
2.2297077272732362
 51
80.453383981463475
  0
ARC
  8
_0-1_P-4B13
  6
CONTINUOUS
 62
    7
 10
669.10565273577276
 20
229.36952283085702
 40
249.40546057523784
 50
346.44289562383932
 51
25.44531381034939
  0
ARC
  8
_0-1_P-4B13
  6
CONTINUOUS
 62
    7
 10
643.94370035731481
 20
735.29746288796741
 40
39.99999600000001
 50
204.12344100009702
 51
216.66563500004574
  0
ARC
  8
_0-1_P-4B13
  6
CONTINUOUS
 62
    7
 10
784.11892731804301
 20
825.94229250406715
 40
206.5526077488974
 50
134.1203665267451
 51
211.19777116747991
  0
ARC
  8
_0-1_P-4B13
  6
CONTINUOUS
 62
    7
 10
785.11270369153681
 20
825.54531051590675
 40
213.7584088293838
 50
133.75332177280541
 51
212.14646223816121
  0
LINE
  8
_0-1_P-4B13
  6
CONTINUOUS
 62
    7
 10
894.52407459904271
 20
961.72340207791785
 11
907.86294286599377
 21
935.04019528927893
  0
LINE
  8
_0-5_P-4481
  6
CONTINUOUS
 62
    7
 10
760.47079508490515
 20
744.46542296847838
 11
757.91655836674181
 21
746.08027292418774
  0
LINE
  8
_0-5_P-4481
  6
CONTINUOUS
 62
    7
 10
757.91655836674181
 20
746.08027292418774
 11
756.57666973994674
 21
746.92738277670651
  0
ARC
  8
_0-8_P-6578
  6
CONTINUOUS
 62
    7
 10
880.55392370923073
 20
670.51219576119911
 40
5.2591833000000001
 50
278.85270197562511
 51
20.007766975619777
  0
ARC
  8
_0-8_P-6578
  6
CONTINUOUS
 62
    7
 10
880.62701491642702
 20
671.83006952120559
 40
6.9693588000000002
 50
285.44974997556653
 51
26.439529975500108
  0
ARC
  8
_0-8_P-6578
  6
CONTINUOUS
 62
    7
 10
879.09051143988881
 20
692.22543164700619
 40
5.5728476999999987
 50
15.603588975557271
 51
71.78625597547726
  0
ARC
  8
_0-8_P-6578
  6
CONTINUOUS
 62
    7
 10
864.13084755468299
 20
693.61044803983896
 40
20.327460299999998
 50
318.4658739755709
 51
0.3212249756186967
  0
ARC
  8
_0-8_P-6578
  6
CONTINUOUS
 62
    7
 10
866.42149559679501
 20
692.95992793159894
 40
19.571328000000001
 50
320.2847459755701
 51
6.0145909755711893
  0
ARC
  8
_0-8_P-6578
  6
CONTINUOUS
 62
    7
 10
876.03491767314699
 20
683.47690602292641
 40
14.839073100000002
 50
71.137442975597111
 51
131.84031197561279
  0
ARC
  8
_0-8_P-6578
  6
CONTINUOUS
 62
    7
 10
878.81859161763396
 20
691.60361862742866
 40
7.8449381999999988
 50
25.740514975489489
 51
93.601087975656768
  0
ARC
  8
_0-8_P-6578
  6
CONTINUOUS
 62
    7
 10
851.89627379683589
 20
685.94973222225599
 40
60.887653321740686
 50
349.0833033606865
 51
83.597462637412406
  0
ARC
  8
_0-8_P-6578
  6
CONTINUOUS
 62
    7
 10
874.84466181458311
 20
670.26484533095572
 40
10.8459153
 50
10.87770197558608
 51
65.471663975616821
  0
ARC
  8
_0-8_P-6578
  6
CONTINUOUS
 62
    7
 10
872.73242728244486
 20
666.52381288277684
 40
16.4473965
 50
30.749848975646586
 51
57.884307975613098
  0
ARC
  8
_0-8_P-6578
  6
CONTINUOUS
 62
    7
 10
886.16069781513579
 20
670.01837191636878
 40
11.6255214
 50
237.28861097566812
 51
286.37026797563436
  0
ARC
  8
_0-8_P-6578
  6
CONTINUOUS
 62
    7
 10
885.02589088358582
 20
660.45911155152862
 40
5.1525684000000007
 50
182.47488097562601
 51
277.9732749756165
  0
ARC
  8
_0-8_P-6578
  6
CONTINUOUS
 62
    7
 10
879.17859428397787
 20
546.29349547922902
 40
5.2591833000000001
 50
323.18619697559143
 51
64.34175997560888
  0
ARC
  8
_0-8_P-6578
  6
CONTINUOUS
 62
    7
 10
888.37648478964184
 20
554.88175537775896
 40
7.0238799000000007
 50
168.1377949755431
 51
214.48732197565059
  0
ARC
  8
_0-8_P-6578
  6
CONTINUOUS
 62
    7
 10
872.84426473601388
 20
552.37296480290752
 40
16.4473965
 50
285.30996297559312
 51
312.44435097557317
  0
ARC
  8
_0-8_P-6578
  6
CONTINUOUS
 62
    7
 10
873.78467597902682
 20
548.18102442625604
 40
10.8459153
 50
277.72214197562039
 51
332.31629497559697
  0
ARC
  8
_0-8_P-6578
  6
CONTINUOUS
 62
    7
 10
878.86752298845795
 20
545.01077592786896
 40
6.9693588000000002
 50
316.75452897558148
 51
57.744857975593128
  0
ARC
  8
_0-8_P-6578
  6
CONTINUOUS
 62
    7
 10
871.10412865256194
 20
535.18904644837676
 40
14.839073100000002
 50
211.3542049756735
 51
272.05714197565783
  0
ARC
  8
_0-8_P-6578
  6
CONTINUOUS
 62
    7
 10
871.49977266527685
 20
525.93069595288762
 40
5.5728476999999987
 50
271.40891597556418
 51
327.59128597557248
  0
ARC
  8
_0-8_P-6578
  6
CONTINUOUS
 62
    7
 10
871.41918526489508
 20
526.6045942090168
 40
7.8449381999999988
 50
249.59352397551399
 51
317.45443197556108
  0
ARC
  8
_0-8_P-6578
  6
CONTINUOUS
 62
    7
 10
856.77865828430004
 20
528.93009794667887
 40
20.327460299999998
 50
342.87308997559921
 51
24.728700975547021
  0
ARC
  8
_0-8_P-6578
  6
CONTINUOUS
 62
    7
 10
859.15954996791379
 20
528.89050983481866
 40
19.571328000000001
 50
337.17984697559064
 51
22.909664975577453
  0
ARC
  8
_0-8_P-6578
  6
CONTINUOUS
 62
    7
 10
851.95660799982988
 20
574.0348929119391
 40
5.4967193999999999
 50
173.82226097553601
 51
242.44351897561302
  0
ARC
  8
_0-8_P-6578
  6
CONTINUOUS
 62
    7
 10
843.26000758794589
 20
554.2930603366076
 40
16.091775899999998
 50
38.989688975599648
 51
67.516840975572151
  0
ARC
  8
_0-8_P-6578
  6
CONTINUOUS
 62
    7
 10
868.30875246658297
 20
566.48048509355795
 40
12.709750500000002
 50
144.3641189755572
 51
189.34031397563359
  0
ARC
  8
_0-8_P-6578
  6
CONTINUOUS
 62
    7
 10
855.89557369535805
 20
579.01743106320646
 40
25.874307900000005
 50
221.6671899756669
 51
282.54230197562657
  0
ARC
  8
_0-8_P-6578
  6
CONTINUOUS
 62
    7
 10
873.41456892042697
 20
539.03844981460861
 40
18.930244500000001
 50
128.94911997554919
 51
217.67790797556569
  0
ARC
  8
_0-8_P-6578
  6
CONTINUOUS
 62
    7
 10
873.9760250991967
 20
537.22861875243689
 40
18.7394517
 50
196.32508397551743
 51
253.59594697560203
  0
ARC
  8
_0-8_P-6578
  6
CONTINUOUS
 62
    7
 10
883.87277029729103
 20
549.18828360363841
 40
12.882474000000002
 50
115.34980397552191
 51
232.22306897567589
  0
ARC
  8
_0-8_P-6578
  6
CONTINUOUS
 62
    7
 10
873.1657059223221
 20
579.60498920106693
 40
19.5593751
 50
219.49451997549463
 51
283.68284797562239
  0
ARC
  8
_0-8_P-6578
  6
CONTINUOUS
 62
    7
 10
889.1591325601371
 20
541.17542061182758
 40
23.0224428
 50
134.77803097556659
 51
228.2291439755092
  0
ARC
  8
_0-8_P-6578
  6
CONTINUOUS
 62
    7
 10
882.12726824562196
 20
537.28649402639712
 40
22.494689999999999
 50
123.9296959755867
 51
213.37938297553541
  0
ARC
  8
_0-8_P-6578
  6
CONTINUOUS
 62
    7
 10
887.73801134583482
 20
555.36954792359757
 40
7.6329801000000019
 50
106.08164697560092
 51
214.6103879756383
  0
ARC
  8
_0-8_P-6578
  6
CONTINUOUS
 62
    7
 10
859.38345145812491
 20
572.41548658842657
 40
2.0331449999999989
 50
343.15406997553981
 51
133.69003597554851
  0
ARC
  8
_0-8_P-6578
  6
CONTINUOUS
 62
    7
 10
886.366224264013
 20
554.62424556556653
 40
5.1525684000000007
 50
65.22195197560724
 51
160.71977197554261
  0
ARC
  8
_0-8_P-6578
  6
CONTINUOUS
 62
    7
 10
885.07741513728979
 20
551.33144840116802
 40
10.444932
 50
102.58628397558481
 51
237.9557699755762
  0
ARC
  8
_0-8_P-6578
  6
CONTINUOUS
 62
    7
 10
864.31172112128888
 20
654.33011050664572
 40
12.709750500000002
 50
153.85387497556368
 51
198.83019297549541
  0
ARC
  8
_0-8_P-6578
  6
CONTINUOUS
 62
    7
 10
854.05167299457798
 20
651.22917861060705
 40
2.0331449999999989
 50
209.50517697560448
 51
0.0398889756130245
  0
ARC
  8
_0-8_P-6578
  6
CONTINUOUS
 62
    7
 10
860.17627632250878
 20
654.47078255482847
 40
8.5792041000000001
 50
61.137307975588151
 51
132.04166597558748
  0
ARC
  8
_0-8_P-6578
  6
CONTINUOUS
 62
    7
 10
848.80389985094371
 20
645.91762736782766
 40
25.874307900000005
 50
60.65195497552547
 51
121.52713597556189
  0
ARC
  8
_0-8_P-6578
  6
CONTINUOUS
 62
    7
 10
843.85650633961677
 20
673.2393204580876
 40
16.091775899999998
 50
275.67725197559901
 51
304.2045139755254
  0
ARC
  8
_0-8_P-6578
  6
CONTINUOUS
 62
    7
 10
848.15067420531386
 20
641.35381463160593
 40
27.4944393
 50
45.486170975567767
 51
87.918096975522161
  0
ARC
  8
_0-8_P-6578
  6
CONTINUOUS
 62
    7
 10
837.0077894013998
 20
652.62571586489867
 40
4.0692437999999989
 50
238.94407097553491
 51
3.0184389755544361
  0
ARC
  8
_0-8_P-6578
  6
CONTINUOUS
 62
    7
 10
846.47375159548392
 20
651.82621070526875
 40
5.4967193999999999
 50
100.75101197552081
 51
169.37165497560031
  0
ARC
  8
_0-8_P-6578
  6
CONTINUOUS
 62
    7
 10
847.61064289397882
 20
655.07241413583688
 40
14.252461200000003
 50
89.913796975595091
 51
186.6332909755302
  0
ARC
  8
_0-8_P-6578
  6
CONTINUOUS
 62
    7
 10
852.71171641183582
 20
651.94230012362823
 40
13.888401300000002
 50
65.140563975579013
 51
178.6238289756279
  0
ARC
  8
_0-8_P-6578
  6
CONTINUOUS
 62
    7
 10
841.76121913162615
 20
658.42675553921799
 40
11.541531600000001
 50
124.19850497554241
 51
233.57733197556959
  0
ARC
  8
_0-8_P-6578
  6
CONTINUOUS
 62
    7
 10
850.60552852740193
 20
648.95180096952754
 40
24.575921100000002
 50
68.326874975517015
 51
137.5971229755686
  0
ARC
  8
_0-8_P-6578
  6
CONTINUOUS
 62
    7
 10
864.26428963842091
 20
648.75454867416556
 40
10.9721943
 50
55.252447975525911
 51
158.04812997555254
  0
ARC
  8
_0-8_P-6578
  6
CONTINUOUS
 62
    7
 10
845.53690903853976
 20
569.07881634053774
 40
11.541531600000001
 50
109.61697997558922
 51
218.996079975534
  0
ARC
  8
_0-8_P-6578
  6
CONTINUOUS
 62
    7
 10
842.66373080426274
 20
576.00641207276567
 40
4.0692437999999989
 50
340.1760939755693
 51
104.25009097552049
  0
ARC
  8
_0-8_P-6578
  6
CONTINUOUS
 62
    7
 10
856.74295361754776
 20
575.59191633060618
 40
24.575921100000002
 50
205.59714797551021
 51
274.86746497562677
  0
ARC
  8
_0-8_P-6578
  6
CONTINUOUS
 62
    7
 10
862.53770507270383
 20
588.10146266774609
 40
31.648157099999999
 50
217.37270797556707
 51
292.9366069755971
  0
ARC
  8
_0-8_P-6578
  6
CONTINUOUS
 62
    7
 10
866.3761672818041
 20
583.49892507758705
 40
25.705537199999998
 50
202.41631497559021
 51
277.79482897550901
  0
ARC
  8
_0-8_P-6578
  6
CONTINUOUS
 62
    7
 10
884.09534151583284
 20
681.25750928737762
 40
28.421726400000004
 50
282.28293297556269
 51
346.07699497555922
  0
ARC
  8
_0-8_P-6578
  6
CONTINUOUS
 62
    7
 10
884.09534151583284
 20
681.25750928737762
 40
23.021724599999999
 50
283.41715397549945
 51
345.71923697554843
  0
ARC
  8
_0-8_P-6578
  6
CONTINUOUS
 62
    7
 10
886.12362036168997
 20
659.34904011202889
 40
7.6329801000000019
 50
128.58389597552619
 51
237.11271997549343
  0
ARC
  8
_0-8_P-6578
  6
CONTINUOUS
 62
    7
 10
877.13368313179672
 20
679.1239342482877
 40
18.930244500000001
 50
125.51656797554952
 51
214.24530097567302
  0
ARC
  8
_0-8_P-6578
  6
CONTINUOUS
 62
    7
 10
886.87594504524895
 20
659.63136251392643
 40
7.0238799000000007
 50
128.70692197558679
 51
175.05663997559691
  0
ARC
  8
_0-8_P-6578
  6
CONTINUOUS
 62
    7
 10
883.87508027301101
 20
661.41166421743765
 40
8.0822249999999993
 50
114.0835139755881
 51
238.77386297561151
  0
ARC
  8
_0-8_P-6578
  6
CONTINUOUS
 62
    7
 10
884.9303450033658
 20
676.65697001530862
 40
22.728252600000005
 50
117.18898197560711
 51
252.5543019755327
  0
ARC
  8
_0-8_P-6578
  6
CONTINUOUS
 62
    7
 10
886.29352421541307
 20
670.98543200347558
 40
17.8299162
 50
115.05569597554901
 51
233.21992197555201
  0
ARC
  8
_0-8_P-6578
  6
CONTINUOUS
 62
    7
 10
886.05901710135004
 20
667.18418263793865
 40
14.2903935
 50
120.08459997558811
 51
230.56285497564099
  0
ARC
  8
_0-8_P-6578
  6
CONTINUOUS
 62
    7
 10
883.98309138257173
 20
533.00150003300587
 40
30.036476700000001
 50
16.58479697551806
 51
85.673450975555284
  0
ARC
  8
_0-8_P-6578
  6
CONTINUOUS
 62
    7
 10
849.21646387469309
 20
534.45295957324561
 40
73.142378359448713
 50
268.47200211856568
 51
300.82619982929441
  0
ARC
  8
_0-8_P-6578
  6
CONTINUOUS
 62
    7
 10
849.34710142826179
 20
534.44082507367784
 40
67.718668834355483
 50
268.23900988183033
 51
300.06997926989629
  0
LINE
  8
_0-8_P-6578
  6
CONTINUOUS
 62
    7
 10
864.44792269906975
 20
568.64236307553801
 11
861.12443666477702
 21
573.46555758663817
  0
ARC
  8
_0-9_P-1A33
  6
CONTINUOUS
 62
    7
 10
767.14185541039114
 20
882.16318884321663
 40
11.853717106934042
 50
135.9568502947221
 51
179.09112077752752
  0
ARC
  8
_0-9_P-1A33
  6
CONTINUOUS
 62
    7
 10
765.37305287923891
 20
881.23468189331845
 40
16.60109141897621
 50
123.80873355832519
 51
158.76860704455089
  0
ARC
  8
_0-9_P-1A33
  6
CONTINUOUS
 62
    7
 10
768.92211229415398
 20
877.35019324560562
 40
16.628519657945208
 50
47.432925625155413
 51
128.2775933218999
  0
ARC
  8
_0-9_P-1A33
  6
CONTINUOUS
 62
    7
 10
765.31549916429276
 20
875.51997673119695
 40
21.560371134010708
 50
44.244461727567874
 51
115.19913007045662
  0
ARC
  8
_0-9_P-1A33
  6
CONTINUOUS
 62
    7
 10
739.48172721021274
 20
739.64950020218748
 40
5.8435370000000013
 50
343.07771084230478
 51
84.23277584229956
  0
ARC
  8
_0-9_P-1A33
  6
CONTINUOUS
 62
    7
 10
739.64163916258713
 20
738.19169007909659
 40
7.7437319999999996
 50
336.64594784242439
 51
77.635727842358023
  0
ARC
  8
_0-9_P-1A33
  6
CONTINUOUS
 62
    7
 10
739.15666029632985
 20
715.47113530380739
 40
6.1920529999999996
 50
291.29922184244708
 51
347.48188884236731
  0
ARC
  8
_0-9_P-1A33
  6
CONTINUOUS
 62
    7
 10
722.64174026642195
 20
713.03977607016714
 40
22.586067
 50
2.7642528423058539
 51
44.619603842353598
  0
ARC
  8
_0-9_P-1A33
  6
CONTINUOUS
 62
    7
 10
725.14430990887286
 20
713.89852369666914
 40
21.745920000000002
 50
357.07088684235327
 51
42.800731842354502
  0
ARC
  8
_0-9_P-1A33
  6
CONTINUOUS
 62
    7
 10
735.24326038464187
 20
724.99488390302577
 40
16.487859
 50
231.24516584231179
 51
291.94803484232739
  0
ARC
  8
_0-9_P-1A33
  6
CONTINUOUS
 62
    7
 10
738.8177767771831
 20
716.14477455318774
 40
8.7165979999999994
 50
269.48438984226772
 51
337.34496284243511
  0
ARC
  8
_0-9_P-1A33
  6
CONTINUOUS
 62
    7
 10
737.47284741341582
 20
728.21156471029826
 40
20.821612999999999
 50
216.21639984236759
 51
273.48720884230028
  0
ARC
  8
_0-9_P-1A33
  6
CONTINUOUS
 62
    7
 10
733.13250582075671
 20
739.58248543824811
 40
12.051017000000002
 50
297.61381384230771
 51
352.20777584233849
  0
ARC
  8
_0-9_P-1A33
  6
CONTINUOUS
 62
    7
 10
730.56524327140005
 20
743.60683731909739
 40
18.274885000000005
 50
305.2011698423114
 51
332.33562884227791
  0
ARC
  8
_0-9_P-1A33
  6
CONTINUOUS
 62
    7
 10
745.67291142468093
 20
740.53271868710726
 40
12.917246000000002
 50
76.715209842290264
 51
125.79686684225662
  0
ARC
  8
_0-9_P-1A33
  6
CONTINUOUS
 62
    7
 10
743.84213815088015
 20
751.07085305725559
 40
5.7250759999999996
 50
85.112202842308022
 51
180.61059684229849
  0
ARC
  8
_0-9_P-1A33
  6
CONTINUOUS
 62
    7
 10
720.49320562669709
 20
756.63214301270636
 40
14.121945
 50
164.25528484242921
 51
209.23160284236079
  0
ARC
  8
_0-9_P-1A33
  6
CONTINUOUS
 62
    7
 10
708.92422285309476
 20
759.45901202827736
 40
2.2590499999999993
 50
3.0455888423115152
 51
153.58030084232013
  0
ARC
  8
_0-9_P-1A33
  6
CONTINUOUS
 62
    7
 10
720.28894905295692
 20
772.97112998898592
 40
16.196291000000002
 50
235.7775428423343
 51
252.57663884239207
  0
ARC
  8
_0-9_P-1A33
  6
CONTINUOUS
 62
    7
 10
715.91334111978995
 20
756.2287414289458
 40
9.5324489999999997
 50
231.04381184233688
 51
301.94816984233631
  0
ARC
  8
_0-9_P-1A33
  6
CONTINUOUS
 62
    7
 10
702.78415200273776
 20
765.03832996897836
 40
28.749231000000002
 50
241.55834184236261
 51
302.4335228423991
  0
ARC
  8
_0-9_P-1A33
  6
CONTINUOUS
 62
    7
 10
698.92902796483577
 20
734.42901542232721
 40
17.879750999999999
 50
58.880963842399112
 51
87.408225842325422
  0
ARC
  8
_0-9_P-1A33
  6
CONTINUOUS
 62
    7
 10
701.78645287984091
 20
770.06281490272886
 40
30.549377
 50
275.16738084240228
 51
317.59930684235673
  0
ARC
  8
_0-9_P-1A33
  6
CONTINUOUS
 62
    7
 10
690.09754927887116
 20
756.89022080431823
 40
4.5213820000000009
 50
0.0670388423700795
 51
124.1414068423898
  0
ARC
  8
_0-9_P-1A33
  6
CONTINUOUS
 62
    7
 10
700.55222247062602
 20
758.34339680981793
 40
6.1074660000000005
 50
193.71382284232419
 51
262.33446584240369
  0
ARC
  8
_0-9_P-1A33
  6
CONTINUOUS
 62
    7
 10
702.00774740689303
 20
754.80972618706801
 40
15.836068000000001
 50
176.45218684239441
 51
273.17168084232941
  0
ARC
  8
_0-9_P-1A33
  6
CONTINUOUS
 62
    7
 10
707.48018971133706
 20
758.58766551300869
 40
15.431557
 50
184.46164884229657
 51
297.9449138423455
  0
ARC
  8
_0-9_P-1A33
  6
CONTINUOUS
 62
    7
 10
695.71842044291316
 20
750.73825038197901
 40
12.823924
 50
129.50814584235511
 51
238.88697284238211
  0
ARC
  8
_0-9_P-1A33
  6
CONTINUOUS
 62
    7
 10
720.1071263309309
 20
762.81539429927579
 40
12.191327000000001
 50
205.0373478423721
 51
307.83302984239862
  0
ARC
  8
_0-9_P-1A33
  6
CONTINUOUS
 62
    7
 10
744.99368009770706
 20
752.36812894721879
 40
8.4810890000000008
 50
125.97275784243109
 51
234.50158184239828
  0
ARC
  8
_0-9_P-1A33
  6
CONTINUOUS
 62
    7
 10
736.2020056936949
 20
729.89022091637889
 40
21.033605000000005
 50
148.84017684225159
 51
237.56890984237501
  0
ARC
  8
_0-9_P-1A33
  6
CONTINUOUS
 62
    7
 10
745.84526929722915
 20
752.09988593346861
 40
7.8043110000000002
 50
188.02883784232759
 51
234.37855584233768
  0
ARC
  8
_0-9_P-1A33
  6
CONTINUOUS
 62
    7
 10
742.62228204301982
 20
749.94516971777557
 40
8.9802500000000016
 50
124.31161484231309
 51
249.00196384233641
  0
ARC
  8
_0-9_P-1A33
  6
CONTINUOUS
 62
    7
 10
744.70486488322013
 20
733.09360863026814
 40
25.253613999999999
 50
110.5311758423918
 51
245.89649584231731
  0
ARC
  8
_0-9_P-1A33
  6
CONTINUOUS
 62
    7
 10
745.87811870855194
 20
739.46770901292621
 40
19.811018000000004
 50
129.86555584237269
 51
248.02978184237537
  0
ARC
  8
_0-9_P-1A33
  6
CONTINUOUS
 62
    7
 10
745.39059409495394
 20
743.67117162497743
 40
15.878215000000003
 50
132.52262284228368
 51
243.00087784233631
  0
ARC
  8
_0-1_P-4B13
  6
CONTINUOUS
 62
    7
 10
1957.8035407418242
 20
1523.6667258914786
 40
1578.4674995401701
 50
210.9529333718408
 51
218.22721121759099
  0
ARC
  8
_0-1_P-4B13
  6
CONTINUOUS
 62
    7
 10
332.12820340305001
 20
25.737643811866278
 40
642.36220222007933
 50
28.914751841985304
 51
47.509818553030243
  0
ARC
  8
_0-1_P-4B13
  6
CONTINUOUS
 62
    7
 10
676.12509925100903
 20
229.82651455201631
 40
236.69767757642842
 50
345.93927236990942
 51
24.282905445059114
  0
ARC
  8
_0-1_P-4B13
  6
CONTINUOUS
 62
    7
 10
769.22505303054277
 20
808.90276074970825
 40
216.01887938876894
 50
92.390187798120593
 51
127.64526037117759
  0
ARC
  8
_0-1_P-4B13
  6
CONTINUOUS
 62
    7
 10
766.9358656550271
 20
809.20646141051839
 40
207.99232578763903
 50
80.325357876537922
 51
127.49810863421251
  0
ARC
  8
_0-1_P-4B13
  6
CONTINUOUS
 62
    7
 10
766.32641500308591
 20
821.41166582543883
 40
2.2344499999999989
 50
12.069244999979718
 51
204.70145700000347
  0
ARC
  8
_0-1_P-4B13
  6
CONTINUOUS
 62
    7
 10
767.19689800308788
 20
820.92725982543561
 40
3.3275669999999993
 50
35.566845000025197
 51
134.83614199996296
  0
ARC
  8
_0-1_P-4B13
  6
CONTINUOUS
 62
    7
 10
783.57470600308579
 20
814.68812482543581
 40
4.9675169999999991
 50
45.013324000083628
 51
220.53637600007767
  0
ARC
  8
_0-1_P-4B13
  6
CONTINUOUS
 62
    7
 10
785.07507200308601
 20
814.86883482543635
 40
5.1678009999999999
 50
48.651493000045498
 51
118.11070099992752
  0
ARC
  8
_0-1_P-4B13
  6
CONTINUOUS
 62
    7
 10
790.68701000308783
 20
821.21215682543698
 40
14.616853000000001
 50
221.85245800001678
 51
274.43434100006363
  0
ARC
  8
_0-1_P-4B13
  6
CONTINUOUS
 62
    7
 10
793.76147300308503
 20
832.01383882543814
 40
22.280925000000003
 50
235.85587600000139
 51
296.34211900009012
  0
ARC
  8
_0-1_P-4B13
  6
CONTINUOUS
 62
    7
 10
828.3376440030861
 20
802.74622982543588
 40
32.243656000000001
 50
183.65614100002671
 51
232.07346699995679
  0
ARC
  8
_0-1_P-4B13
  6
CONTINUOUS
 62
    7
 10
822.38488600308574
 20
800.23432882543784
 40
22.149341000000003
 50
147.77132500001929
 51
240.06366800001291
  0
ARC
  8
_0-1_P-4B13
  6
CONTINUOUS
 62
    7
 10
838.46105700308681
 20
817.23071182543572
 40
26.137607000000003
 50
203.2652929999679
 51
240.14836300001252
  0
ARC
  8
_0-1_P-4B13
  6
CONTINUOUS
 62
    7
 10
828.84606700308814
 20
816.033339825437
 40
13.568878
 50
216.06735599997714
 51
259.22024499998878
  0
ARC
  8
_0-1_P-4B13
  6
CONTINUOUS
 62
    7
 10
827.11034900308505
 20
805.25367682543583
 40
2.6729689999999988
 50
252.53704200007758
 51
48.539860000067776
  0
ARC
  8
_0-1_P-4B13
  6
CONTINUOUS
 62
    7
 10
827.54174600308488
 20
806.17985482543736
 40
3.311720999999999
 50
295.12525200002779
 51
48.318588999980527
  0
ARC
  8
_0-1_P-4B13
  6
CONTINUOUS
 62
    7
 10
816.2308330030869
 20
807.27274982543895
 40
1.8192159999999991
 50
25.115043000040039
 51
191.609268000009
  0
ARC
  8
_0-1_P-4B13
  6
CONTINUOUS
 62
    7
 10
835.95983700308807
 20
813.77914282543861
 40
20.237431999999998
 50
193.06404399996794
 51
235.21381100009802
  0
ARC
  8
_0-1_P-4B13
  6
CONTINUOUS
 62
    7
 10
818.48034500308586
 20
788.02540482543918
 40
10.891336000000001
 50
326.51051799997128
 51
56.988175999924778
  0
ARC
  8
_0-1_P-4B13
  6
CONTINUOUS
 62
    7
 10
816.42773200308602
 20
786.48374882543794
 40
12.110335000000001
 50
229.2278740000182
 51
41.834307999970314
  0
ARC
  8
_0-1_P-4B13
  6
CONTINUOUS
 62
    7
 10
824.82421700308714
 20
804.21427782543833
 40
14.906537000000002
 50
160.4409979999906
 51
263.75528600010261
  0
ARC
  8
_0-1_P-4B13
  6
CONTINUOUS
 62
    7
 10
824.06396300308688
 20
801.32752882543718
 40
18.305446
 50
161.95125500002629
 51
250.69164799995789
  0
ARC
  8
_0-1_P-4B13
  6
CONTINUOUS
 62
    7
 10
538.64294700308574
 20
902.48260282543561
 40
284.51690200000002
 50
340.39104700000991
 51
343.89151899996841
  0
ARC
  8
_0-1_P-4B13
  6
CONTINUOUS
 62
    7
 10
795.85827500308505
 20
829.94068782543764
 40
14.654475
 50
233.23193599996969
 51
25.450405999979335
  0
ARC
  8
_0-1_P-4B13
  6
CONTINUOUS
 62
    7
 10
901.38085600308614
 20
856.02410682543632
 40
87.376249999999999
 50
192.22318600003251
 51
213.9265419999978
  0
ARC
  8
_0-1_P-4B13
  6
CONTINUOUS
 62
    7
 10
795.47558400308571
 20
832.88648882543566
 40
15.770129000000001
 50
243.7034349999675
 51
340.24332300001078
  0
ARC
  8
_0-1_P-4B13
  6
CONTINUOUS
 62
    7
 10
10967.32516400309
 20
5797.0398108254376
 40
11298.430496000001
 50
206.04582899997072
 51
206.20035500001453
  0
ARC
  8
_0-1_P-4B13
  6
CONTINUOUS
 62
    7
 10
859.08245600308601
 20
838.20675482543811
 40
45.496851999999997
 50
188.02514699998582
 51
224.49508500004751
  0
ARC
  8
_0-1_P-4B13
  6
CONTINUOUS
 62
    7
 10
776.17761100308599
 20
824.45263582543703
 40
37.811022999999999
 50
336.21736400001282
 51
5.8925960000003821
  0
ARC
  8
_0-1_P-4B13
  6
CONTINUOUS
 62
    7
 10
792.69879448076699
 20
831.09866327309646
 40
17.178686336458671
 50
17.408303142856596
 51
46.500697412183406
  0
ARC
  8
_0-1_P-4B13
  6
CONTINUOUS
 62
    7
 10
793.88793800308576
 20
832.5797258254388
 40
31.970448999999999
 50
202.24270500001518
 51
274.07470500006548
  0
ARC
  8
_0-1_P-4B13
  6
CONTINUOUS
 62
    7
 10
785.9747300030881
 20
833.54411182543845
 40
21.001031999999999
 50
213.74242800000212
 51
249.6690859999681
  0
ARC
  8
_0-1_P-4B13
  6
CONTINUOUS
 62
    7
 10
785.01074100308779
 20
832.37920982543801
 40
17.854568
 50
212.20821699999732
 51
249.32250900003854
  0
ARC
  8
_0-1_P-4B13
  6
CONTINUOUS
 62
    7
 10
787.85058400308571
 20
826.36292882543785
 40
21.401081000000005
 50
208.08347999996641
 51
307.26897299998308
  0
ARC
  8
_0-1_P-4B13
  6
CONTINUOUS
 62
    7
 10
793.94577730534775
 20
807.81138716887654
 40
55.80948003800885
 50
155.01182620209781
 51
228.84069834135479
  0
ARC
  8
_0-1_P-4B13
  6
CONTINUOUS
 62
    7
 10
776.71142567769675
 20
816.83081804435642
 40
40.850604302044779
 50
99.056317630401495
 51
141.47227064315541
  0
ARC
  8
_0-1_P-4B13
  6
CONTINUOUS
 62
    7
 10
770.46055236684515
 20
871.92450521013598
 40
153.1522099981932
 50
35.897540530545761
 51
93.835422566430992
  0
ARC
  8
_0-1_P-4B13
  6
CONTINUOUS
 62
    7
 10
708.15717289987288
 20
864.96381624061905
 40
211.64378908518049
 50
8.5394501134082699
 51
19.335876076683238
  0
ARC
  8
_0-9_P-1A33
  6
CONTINUOUS
 62
    7
 10
759.84048622589307
 20
883.3830848165162
 40
10.66603223903579
 50
158.76346763816491
 51
192.25499765495007
  0
ARC
  8
_0-9_P-1A33
  6
CONTINUOUS
 62
    7
 10
758.74839815812311
 20
808.77626028598752
 40
139.0163788948426
 50
92.227511673382324
 51
205.4349970722958
  0
ARC
  8
_0-9_P-1A33
  6
CONTINUOUS
 62
    7
 10
758.74644285120485
 20
808.77696094736893
 40
145.01433054486961
 50
90.184956230097427
 51
205.4693704816076
  0
ARC
  8
_0-9_P-1A33
  6
CONTINUOUS
 62
    7
 10
738.72234126971307
 20
800.86809712575632
 40
117.54399187698822
 50
206.14632747473411
 51
247.2304137377796
  0
ARC
  8
_0-9_P-1A33
  6
CONTINUOUS
 62
    7
 10
731.13338098761096
 20
793.7548039721878
 40
113.62142074757971
 50
204.77167083790499
 51
250.73117773392659
  0
ARC
  8
_0-1_P-4B13
  6
CONTINUOUS
 62
    7
 10
791.91956520589383
 20
808.64621278071718
 40
57.927588302392081
 50
144.51038440561237
 51
193.95323851209838
  0
ARC
  8
_0-1_P-4B13
  6
CONTINUOUS
 62
    7
 10
794.68390473357476
 20
807.26146859984874
 40
60.309975537511455
 50
192.0429143531282
 51
228.30613467028331
  0
ARC
  8
_0-9_P-1A33
  6
CONTINUOUS
 62
    7
 10
713.77410338455684
 20
742.16353558571791
 40
53.759479418698668
 50
247.53286980110991
 51
310.1766431412446
  0
ARC
  8
_0-9_P-1A33
  6
CONTINUOUS
 62
    7
 10
752.97488889952774
 20
730.34462588528913
 40
16.843447646817609
 50
350.10693690730858
 51
38.681975877328746
  0
ARC
  8
_0-9_P-1A33
  6
CONTINUOUS
 62
    7
 10
712.41736536997178
 20
744.51815163458741
 40
60.983194715024169
 50
252.06489479387398
 51
301.02245048843639
  0
ARC
  8
_0-9_P-1A33
  6
CONTINUOUS
 62
    7
 10
771.64245997899388
 20
898.57564250835651
 40
41.200578513271857
 50
343.09708844696502
 51
55.713222761794654
  0
ARC
  8
_0-9_P-1A33
  6
CONTINUOUS
 62
    7
 10
746.92404375056276
 20
865.3098235807156
 40
82.627645672617206
 50
54.54594551231942
 51
85.542965036787905
  0
ARC
  8
_0-9_P-1A33
  6
CONTINUOUS
 62
    7
 10
754.31843800473371
 20
885.82982498288766
 40
68.075979065126447
 50
31.636765797053172
 51
86.665301361819886
  0
ARC
  8
_0-9_P-1A33
  6
CONTINUOUS
 62
    7
 10
779.82171876530401
 20
899.15672126814752
 40
39.424683556464622
 50
358.82351478951733
 51
34.589577141240483
  0
ARC
  8
_0-7_P-2CCF
  6
CONTINUOUS
 62
    7
 10
786.05588752826679
 20
868.83697766120895
 40
1.4999679999999991
 50
358.73147243434448
 51
178.73590643428483
  0
LINE
  8
_0-7_P-2CCF
  6
CONTINUOUS
 62
    7
 10
773.51987493664274
 20
849.83551678886579
 11
773.55897819375605
 21
869.11345114353765
  0
LINE
  8
_0-7_P-2CCF
  6
CONTINUOUS
 62
    7
 10
776.51916255839114
 20
849.76914842350743
 11
776.55825364173688
 21
869.04707401465566
  0
ARC
  8
_0-7_P-2CCF
  6
CONTINUOUS
 62
    7
 10
775.01952483440073
 20
849.80233698794848
 40
1.5000049999999989
 50
178.7321774343304
 51
358.73253743430661
  0
ARC
  8
_0-7_P-2CCF
  6
CONTINUOUS
 62
    7
 10
775.05861591774601
 20
869.08026257910763
 40
1.5000049999999989
 50
358.73147243434448
 51
178.7321774343304
  0
LINE
  8
_0-7_P-2CCF
  6
CONTINUOUS
 62
    7
 10
776.55825364173688
 20
869.04707401465566
 11
784.55632108092914
 21
868.87006721233774
  0
ARC
  8
_0-7_P-2CCF
  6
CONTINUOUS
 62
    7
 10
786.01686830580502
 20
849.55895224515928
 40
1.5000049999999989
 50
178.7321774343304
 51
1.208563434336952
  0
LINE
  8
_0-7_P-2CCF
  6
CONTINUOUS
 62
    7
 10
787.55552525225312
 20
868.80378909676801
 11
787.51651820356483
 21
849.52577244423821
  0
LINE
  8
_0-7_P-2CCF
  6
CONTINUOUS
 62
    7
 10
784.51722999758113
 20
849.59214162118599
 11
776.51916255839114
 21
849.76914842350743
  0
LINE
  8
_0-7_P-2CCF
  6
CONTINUOUS
 62
    7
 10
784.51722999758113
 20
849.59214162118599
 11
784.55632108092914
 21
868.87006721233774
  0
LINE
  8
_0-7_P-2CCF
  6
CONTINUOUS
 62
    7
 10
787.50815454763915
 20
849.39745814330672
 11
783.40304417020889
 21
849.61679988669857
  0
LINE
  8
_0-7_P-2CCF
  6
CONTINUOUS
 62
    7
 10
783.40304417020889
 20
849.61679988669857
 11
780.38188626531473
 21
849.68366172602691
  0
LINE
  8
_0-7_P-2CCF
  6
CONTINUOUS
 62
    7
 10
780.38188626531473
 20
849.68366172602691
 11
778.79706247520289
 21
849.71873577278893
  0
ARC
  8
_0-8_P-6578
  6
CONTINUOUS
 62
    7
 10
852.8957089580108
 20
686.51375257798645
 40
60.222886797922897
 50
84.482586815654443
 51
95.363824467992487
  0
ARC
  8
_0-8_P-6578
  6
CONTINUOUS
 62
    7
 10
870.94272875017305
 20
497.17045408984632
 40
24.643721478849013
 50
300.03611381727973
 51
310.27644014969235
  0
ARC
  8
_0-8_P-6578
  6
CONTINUOUS
 62
    7
 10
853.19339718263473
 20
695.43681369914702
 40
45.931672924251018
 50
83.317032023745256
 51
97.518847613329612
  0
ARC
  8
_0-8_P-6578
  6
CONTINUOUS
 62
    7
 10
847.23551837776176
 20
526.06382368371851
 40
67.221822943761396
 50
305.94703185718458
 51
347.2876475136369
  0
ARC
  8
_0-8_P-6578
  6
CONTINUOUS
 62
    7
 10
850.52353420391091
 20
526.34183398888854
 40
64.083304838861906
 50
346.39822761100788
 51
13.751290898109682
  0
ARC
  8
_0-8_P-6578
  6
CONTINUOUS
 62
    7
 10
840.83857209448706
 20
531.28703648356895
 40
70.139976680158611
 50
311.02140097592985
 51
349.17123782466183
  0
ARC
  8
_0-8_P-6578
  6
CONTINUOUS
 62
    7
 10
876.45691747067895
 20
526.83076872052698
 40
34.39664860995822
 50
345.31237299135182
 51
67.637683993383192
  0
ARC
  8
_0-6_P-3DDA
  6
CONTINUOUS
 62
    7
 10
600.5418020225311
 20
508.09853389603813
 40
5.2591833000000001
 50
159.99223302438011
 51
261.147298024375
  0
ARC
  8
_0-6_P-3DDA
  6
CONTINUOUS
 62
    7
 10
600.46871081533482
 20
509.41640765604825
 40
6.9693588000000002
 50
153.56047002449981
 51
254.55025002443338
  0
ARC
  8
_0-6_P-3DDA
  6
CONTINUOUS
 62
    7
 10
602.00521429187302
 20
529.81176978184885
 40
5.5728476999999987
 50
108.21374402452271
 51
164.3964110244427
  0
ARC
  8
_0-6_P-3DDA
  6
CONTINUOUS
 62
    7
 10
616.96487817707794
 20
531.19678617467798
 40
20.327460299999998
 50
179.67877502438131
 51
221.5341260244291
  0
ARC
  8
_0-6_P-3DDA
  6
CONTINUOUS
 62
    7
 10
614.67423013496773
 20
530.54626606643797
 40
19.571328000000001
 50
173.9854090244288
 51
219.7152540244299
  0
ARC
  8
_0-6_P-3DDA
  6
CONTINUOUS
 62
    7
 10
605.06080805861484
 20
521.06324415776908
 40
14.839073100000002
 50
48.159688024387222
 51
108.8625570244029
  0
ARC
  8
_0-6_P-3DDA
  6
CONTINUOUS
 62
    7
 10
602.27713411412788
 20
529.18995676225677
 40
7.8449381999999988
 50
86.398912024343247
 51
154.2594850245105
  0
ARC
  8
_0-6_P-3DDA
  6
CONTINUOUS
 62
    7
 10
602.90126250043704
 20
518.28043641965633
 40
18.7394517
 50
33.130922024443073
 51
90.401731024375778
  0
ARC
  8
_0-6_P-3DDA
  6
CONTINUOUS
 62
    7
 10
629.19945193492686
 20
523.53607035709865
 40
60.887653321740686
 50
96.40253736258758
 51
190.91669663931353
  0
ARC
  8
_0-6_P-3DDA
  6
CONTINUOUS
 62
    7
 10
629.22947926111283
 20
523.52961019259601
 40
55.515566341715193
 50
96.903126428534009
 51
190.76012173525069
  0
ARC
  8
_0-6_P-3DDA
  6
CONTINUOUS
 62
    7
 10
606.25106391717873
 20
507.85118346579839
 40
10.8459153
 50
114.52833602438319
 51
169.12229802441391
  0
ARC
  8
_0-6_P-3DDA
  6
CONTINUOUS
 62
    7
 10
608.36329844931697
 20
504.11015101761586
 40
16.4473965
 50
122.11569202438689
 51
149.25015102435339
  0
ARC
  8
_0-6_P-3DDA
  6
CONTINUOUS
 62
    7
 10
594.93502791662604
 20
507.60471005119689
 40
11.6255214
 50
253.62973202436581
 51
302.71138902433188
  0
ARC
  8
_0-6_P-3DDA
  6
CONTINUOUS
 62
    7
 10
596.06983484817601
 20
498.04544968635673
 40
5.1525684000000007
 50
262.0267250243835
 51
357.52511902437402
  0
ARC
  8
_0-6_P-3DDA
  6
CONTINUOUS
 62
    7
 10
601.91713144778396
 20
383.87983361406805
 40
5.2591833000000001
 50
115.65824002439101
 51
216.81380302440843
  0
ARC
  8
_0-6_P-3DDA
  6
CONTINUOUS
 62
    7
 10
592.71924094212
 20
392.46809351259799
 40
7.0238799000000007
 50
325.51267802434938
 51
11.862205024456893
  0
ARC
  8
_0-6_P-3DDA
  6
CONTINUOUS
 62
    7
 10
608.25146099574795
 20
389.95930293774654
 40
16.4473965
 50
227.5556490244268
 51
254.69003702440691
  0
ARC
  8
_0-6_P-3DDA
  6
CONTINUOUS
 62
    7
 10
607.31104975273502
 20
385.76736256109871
 40
10.8459153
 50
207.683705024403
 51
262.2778580243795
  0
ARC
  8
_0-6_P-3DDA
  6
CONTINUOUS
 62
    7
 10
602.22820274330479
 20
382.59711406270799
 40
6.9693588000000002
 50
122.25514202440689
 51
223.24547102441849
  0
ARC
  8
_0-6_P-3DDA
  6
CONTINUOUS
 62
    7
 10
609.99159707919989
 20
372.77538458321578
 40
14.839073100000002
 50
267.94285802434217
 51
328.6457950243265
  0
ARC
  8
_0-6_P-3DDA
  6
CONTINUOUS
 62
    7
 10
609.59595306648498
 20
363.51703408772664
 40
5.5728476999999987
 50
212.4087140244275
 51
268.59108402443582
  0
ARC
  8
_0-6_P-3DDA
  6
CONTINUOUS
 62
    7
 10
609.67654046686675
 20
364.19093234385582
 40
7.8449381999999988
 50
222.54556802443889
 51
290.40647602448598
  0
ARC
  8
_0-6_P-3DDA
  6
CONTINUOUS
 62
    7
 10
624.3170674474618
 20
366.5164360815179
 40
20.327460299999998
 50
155.2712990244529
 51
197.1269100244009
  0
ARC
  8
_0-6_P-3DDA
  6
CONTINUOUS
 62
    7
 10
621.93617576384895
 20
366.47684796965768
 40
19.571328000000001
 50
157.09033502442259
 51
202.82015302440939
  0
ARC
  8
_0-6_P-3DDA
  6
CONTINUOUS
 62
    7
 10
629.13911773193286
 20
411.62123104676721
 40
5.4967193999999999
 50
297.55648102438698
 51
6.1777390244639756
  0
ARC
  8
_0-6_P-3DDA
  6
CONTINUOUS
 62
    7
 10
637.83571814381594
 20
391.87939847144662
 40
16.091775899999998
 50
112.48315902442782
 51
141.01031102440032
  0
ARC
  8
_0-6_P-3DDA
  6
CONTINUOUS
 62
    7
 10
612.78697326517886
 20
404.06682322839697
 40
12.709750500000002
 50
350.65968602436629
 51
35.635881024442838
  0
ARC
  8
_0-6_P-3DDA
  6
CONTINUOUS
 62
    7
 10
625.20015203640378
 20
416.60376919804912
 40
25.874307900000005
 50
257.45769802437337
 51
318.33281002433307
  0
ARC
  8
_0-6_P-3DDA
  6
CONTINUOUS
 62
    7
 10
607.95663617038872
 20
417.95721059276912
 40
14.576661900000001
 50
307.31454102452301
 51
324.11345902435988
  0
ARC
  8
_0-6_P-3DDA
  6
CONTINUOUS
 62
    7
 10
607.68115681133486
 20
376.62478794944764
 40
18.930244500000001
 50
322.3220920244342
 51
51.05088002445077
  0
ARC
  8
_0-6_P-3DDA
  6
CONTINUOUS
 62
    7
 10
607.11970063256513
 20
374.81495688727591
 40
18.7394517
 50
286.40405302439802
 51
343.67491602448263
  0
ARC
  8
_0-6_P-3DDA
  6
CONTINUOUS
 62
    7
 10
597.2229554344708
 20
386.77462173847744
 40
12.882474000000002
 50
307.77693102432409
 51
64.650196024478049
  0
ARC
  8
_0-6_P-3DDA
  6
CONTINUOUS
 62
    7
 10
607.93001980943973
 20
417.19132733590595
 40
19.5593751
 50
256.31715202437761
 51
320.50548002450557
  0
ARC
  8
_0-6_P-3DDA
  6
CONTINUOUS
 62
    7
 10
591.93659317162474
 20
378.7617587466666
 40
23.0224428
 50
311.7708560244908
 51
45.221969024433349
  0
ARC
  8
_0-6_P-3DDA
  6
CONTINUOUS
 62
    7
 10
598.96845748613987
 20
374.87283216123615
 40
22.494689999999999
 50
326.62061702446471
 51
56.070304024413218
  0
ARC
  8
_0-6_P-3DDA
  6
CONTINUOUS
 62
    7
 10
593.35771438592701
 20
392.95588605843659
 40
7.6329801000000019
 50
325.38961202436167
 51
73.918353024399053
  0
ARC
  8
_0-6_P-3DDA
  6
CONTINUOUS
 62
    7
 10
621.71227427363692
 20
410.00182472325832
 40
2.0331449999999989
 50
46.309964024451439
 51
196.84593002446022
  0
ARC
  8
_0-6_P-3DDA
  6
CONTINUOUS
 62
    7
 10
600.43332482507412
 20
423.74390447929909
 40
23.868214200000001
 50
256.46360502440012
 51
313.2679380244133
  0
ARC
  8
_0-6_P-3DDA
  6
CONTINUOUS
 62
    7
 10
594.72950146774883
 20
392.21058370040919
 40
5.1525684000000007
 50
19.280228024457362
 51
114.77804802439272
  0
ARC
  8
_0-6_P-3DDA
  6
CONTINUOUS
 62
    7
 10
596.01831059447204
 20
388.91778653600704
 40
10.444932
 50
302.04423002442383
 51
77.413716024415208
  0
ARC
  8
_0-6_P-3DDA
  6
CONTINUOUS
 62
    7
 10
616.78400461047295
 20
491.91644864148839
 40
12.709750500000002
 50
341.16980702450462
 51
26.146125024436312
  0
ARC
  8
_0-6_P-3DDA
  6
CONTINUOUS
 62
    7
 10
627.04405273718476
 20
488.81551674544608
 40
2.0331449999999989
 50
179.96011102438686
 51
330.49482302439549
  0
ARC
  8
_0-6_P-3DDA
  6
CONTINUOUS
 62
    7
 10
616.17605703803292
 20
477.22278283482592
 40
14.576661900000001
 50
52.692065024409757
 51
69.491161024467587
  0
ARC
  8
_0-6_P-3DDA
  6
CONTINUOUS
 62
    7
 10
620.91944940925305
 20
492.0571206896675
 40
8.5792041000000001
 50
47.958334024412473
 51
118.8626920244118
  0
ARC
  8
_0-6_P-3DDA
  6
CONTINUOUS
 62
    7
 10
632.29182588081812
 20
483.50396550265577
 40
25.874307900000005
 50
58.47286402443811
 51
119.34804502447449
  0
ARC
  8
_0-6_P-3DDA
  6
CONTINUOUS
 62
    7
 10
637.23921939214506
 20
510.82565859292663
 40
16.091775899999998
 50
235.7954860244746
 51
264.32274802440088
  0
ARC
  8
_0-6_P-3DDA
  6
CONTINUOUS
 62
    7
 10
632.94505152644797
 20
478.94015276644859
 40
27.4944393
 50
92.081903024477853
 51
134.5138290244322
  0
ARC
  8
_0-6_P-3DDA
  6
CONTINUOUS
 62
    7
 10
644.08793633036203
 20
490.21205399973769
 40
4.0692437999999989
 50
176.98156102444563
 51
301.05592902446512
  0
ARC
  8
_0-6_P-3DDA
  6
CONTINUOUS
 62
    7
 10
634.62197413627791
 20
489.41254884010777
 40
5.4967193999999999
 50
10.628345024399691
 51
79.248988024479146
  0
ARC
  8
_0-6_P-3DDA
  6
CONTINUOUS
 62
    7
 10
633.48508283778301
 20
492.6587522706759
 40
14.252461200000003
 50
353.36670902446991
 51
90.086203024404881
  0
ARC
  8
_0-6_P-3DDA
  6
CONTINUOUS
 62
    7
 10
628.38400931992601
 20
489.52863825846725
 40
13.888401300000002
 50
1.3761710243720779
 51
114.8594360244209
  0
ARC
  8
_0-6_P-3DDA
  6
CONTINUOUS
 62
    7
 10
639.33450660013614
 20
496.01309367405702
 40
11.541531600000001
 50
306.42266802443049
 51
55.801495024457608
  0
ARC
  8
_0-6_P-3DDA
  6
CONTINUOUS
 62
    7
 10
630.4901972043599
 20
486.53813910436656
 40
24.575921100000002
 50
42.402877024431362
 51
111.67312502448291
  0
ARC
  8
_0-6_P-3DDA
  6
CONTINUOUS
 62
    7
 10
610.64707681761593
 20
469.50799661902784
 40
23.868214200000001
 50
63.537640024410784
 51
120.3419740243915
  0
ARC
  8
_0-6_P-3DDA
  6
CONTINUOUS
 62
    7
 10
616.83143609334093
 20
486.34088680900823
 40
10.9721943
 50
21.951870024447452
 51
124.747552024474
  0
ARC
  8
_0-6_P-3DDA
  6
CONTINUOUS
 62
    7
 10
635.55881669322207
 20
406.66515447538768
 40
11.541531600000001
 50
321.00392002446603
 51
70.383020024410811
  0
ARC
  8
_0-6_P-3DDA
  6
CONTINUOUS
 62
    7
 10
638.43199492749909
 20
413.59275020760833
 40
4.0692437999999989
 50
75.749909024479464
 51
199.8239060244307
  0
ARC
  8
_0-6_P-3DDA
  6
CONTINUOUS
 62
    7
 10
624.35277211421408
 20
413.17825446544884
 40
24.575921100000002
 50
265.13253502437317
 51
334.40285202448973
  0
ARC
  8
_0-6_P-3DDA
  6
CONTINUOUS
 62
    7
 10
618.558020659058
 20
425.68780080258875
 40
31.648157099999999
 50
247.0633930244029
 51
322.6272920244329
  0
ARC
  8
_0-6_P-3DDA
  6
CONTINUOUS
 62
    7
 10
614.71955844995773
 20
421.08526321242607
 40
25.705537199999998
 50
262.20517102449099
 51
337.58368502440987
  0
ARC
  8
_0-6_P-3DDA
  6
CONTINUOUS
 62
    7
 10
597.00038421592899
 20
518.84384742220573
 40
28.421726400000004
 50
193.92300502444084
 51
257.71706702443731
  0
ARC
  8
_0-6_P-3DDA
  6
CONTINUOUS
 62
    7
 10
597.00038421592899
 20
518.84384742220573
 40
23.021724599999999
 50
194.2807630244516
 51
256.58284602450061
  0
ARC
  8
_0-6_P-3DDA
  6
CONTINUOUS
 62
    7
 10
594.97210537007186
 20
496.93537824686791
 40
7.6329801000000019
 50
302.88728002450665
 51
51.416104024473832
  0
ARC
  8
_0-6_P-3DDA
  6
CONTINUOUS
 62
    7
 10
603.96204259996512
 20
516.71027238312672
 40
18.930244500000001
 50
325.75469902432701
 51
54.483432024450494
  0
ARC
  8
_0-6_P-3DDA
  6
CONTINUOUS
 62
    7
 10
594.21978068651288
 20
497.2177006487691
 40
7.0238799000000007
 50
4.9433600244030549
 51
51.293078024413205
  0
ARC
  8
_0-6_P-3DDA
  6
CONTINUOUS
 62
    7
 10
597.22064545875082
 20
498.99800235227667
 40
8.0822249999999993
 50
301.22613702438849
 51
65.916486024411867
  0
ARC
  8
_0-6_P-3DDA
  6
CONTINUOUS
 62
    7
 10
596.16538072839603
 20
514.24330815014764
 40
22.728252600000005
 50
287.44569802446722
 51
62.811018024392858
  0
ARC
  8
_0-6_P-3DDA
  6
CONTINUOUS
 62
    7
 10
594.80220151634876
 20
508.57177013831824
 40
17.8299162
 50
306.78007802444802
 51
64.944304024450986
  0
ARC
  8
_0-6_P-3DDA
  6
CONTINUOUS
 62
    7
 10
595.03670863041179
 20
504.77052077277767
 40
14.2903935
 50
309.4371450243591
 51
59.915400024411895
  0
ARC
  8
_0-6_P-3DDA
  6
CONTINUOUS
 62
    7
 10
597.1126343491901
 20
370.58783816784853
 40
30.036476700000001
 50
94.326549024444716
 51
163.41520302448194
  0
ARC
  8
_0-6_P-3DDA
  6
CONTINUOUS
 62
    7
 10
631.87926185707011
 20
372.03929770808827
 40
73.142378359448713
 50
239.17380017070556
 51
271.52799788143432
  0
ARC
  8
_0-6_P-3DDA
  6
CONTINUOUS
 62
    7
 10
631.74862430350004
 20
372.02716320851687
 40
67.718668834355483
 50
239.93002073010362
 51
271.76099011816973
  0
ARC
  8
_0-6_P-3DDA
  6
CONTINUOUS
 62
    7
 10
628.20001677375103
 20
524.10009071282911
 40
60.222886797922897
 50
84.636175532007499
 51
95.517413184345529
  0
ARC
  8
_0-6_P-3DDA
  6
CONTINUOUS
 62
    7
 10
610.15299698159015
 20
334.75679222468898
 40
24.643721478849013
 50
229.72355985030762
 51
239.96388618272013
  0
ARC
  8
_0-6_P-3DDA
  6
CONTINUOUS
 62
    7
 10
627.90232854912711
 20
533.02315183398605
 40
45.931672924251018
 50
82.481152386670402
 51
96.68296797625473
  0
ARC
  8
_0-6_P-3DDA
  6
CONTINUOUS
 62
    7
 10
633.86020735400007
 20
363.65016181855754
 40
67.221822943761396
 50
192.71235248636307
 51
234.05296814281547
  0
ARC
  8
_0-6_P-3DDA
  6
CONTINUOUS
 62
    7
 10
630.57219152785092
 20
363.92817212371665
 40
64.083304838861906
 50
166.24870910189031
 51
193.60177238899209
  0
ARC
  8
_0-6_P-3DDA
  6
CONTINUOUS
 62
    7
 10
640.25715363727477
 20
368.87337461840798
 40
70.139976680158611
 50
190.82876217533811
 51
228.97859902407021
  0
ARC
  8
_0-6_P-3DDA
  6
CONTINUOUS
 62
    7
 10
604.63880826108198
 20
364.417106855366
 40
34.39664860995822
 50
112.36231600661679
 51
194.68762700864821
  0
ARC
  8
_0-2_P-47EC
  6
CONTINUOUS
 62
    7
 10
834.04422030022215
 20
755.93619788534852
 40
1.4999679999999991
 50
15.902168886501631
 51
195.90660288644187
  0
LINE
  8
_0-2_P-47EC
  6
CONTINUOUS
 62
    7
 10
827.67654501890684
 20
734.08076747337691
 11
822.02268442751802
 21
752.51101821667908
  0
LINE
  8
_0-2_P-47EC
  6
CONTINUOUS
 62
    7
 10
830.56174604873786
 20
734.90280519474618
 11
824.90787641333691
 21
753.33304397117899
  0
ARC
  8
_0-2_P-47EC
  6
CONTINUOUS
 62
    7
 10
829.11915005582887
 20
734.49179231748712
 40
1.5000049999999989
 50
195.90287388648753
 51
15.903233886463783
  0
ARC
  8
_0-2_P-47EC
  6
CONTINUOUS
 62
    7
 10
823.46528042042473
 20
752.92203109392722
 40
1.5000049999999989
 50
15.902168886501631
 51
195.9028738864875
  0
LINE
  8
_0-2_P-47EC
  6
CONTINUOUS
 62
    7
 10
824.90787641333691
 20
753.33304397117899
 11
832.60172163778498
 21
755.52511145009703
  0
ARC
  8
_0-2_P-47EC
  6
CONTINUOUS
 62
    7
 10
839.69818806388594
 20
737.50588494797557
 40
1.5000049999999989
 50
195.90287388648753
 51
18.379259886494147
  0
LINE
  8
_0-2_P-47EC
  6
CONTINUOUS
 62
    7
 10
835.48681629312796
 20
756.34721076259666
 11
841.14079310081115
 21
737.9169097920967
  0
LINE
  8
_0-2_P-47EC
  6
CONTINUOUS
 62
    7
 10
838.25559127318502
 20
737.09487267366785
 11
830.56174604873786
 21
734.90280519474618
  0
LINE
  8
_0-2_P-47EC
  6
CONTINUOUS
 62
    7
 10
838.25559127318502
 20
737.09487267366785
 11
832.60172163778498
 21
755.52511145009703
  0
ARC
  8
_0-3_P-33DB
  6
CONTINUOUS
 62
    7
 10
660.46838240081615
 20
313.96981200967639
 40
1.4999679999999991
 50
14.869757484965758
 51
194.87419148490608
  0
LINE
  8
_0-3_P-33DB
  6
CONTINUOUS
 62
    7
 10
653.707949617748
 20
292.23266234449693
 11
648.38708317493911
 21
310.76179244673767
  0
LINE
  8
_0-3_P-33DB
  6
CONTINUOUS
 62
    7
 10
656.60749374979514
 20
293.00258105721878
 11
651.28661804882495
 21
311.53169935748883
  0
ARC
  8
_0-3_P-33DB
  6
CONTINUOUS
 62
    7
 10
655.15772631285381
 20
292.61762760184865
 40
1.5000049999999989
 50
194.8704624849517
 51
14.870822484927885
  0
ARC
  8
_0-3_P-33DB
  6
CONTINUOUS
 62
    7
 10
649.83685061187907
 20
311.14674590211871
 40
1.5000049999999989
 50
14.869757484965758
 51
194.8704624849517
  0
LINE
  8
_0-3_P-33DB
  6
CONTINUOUS
 62
    7
 10
651.28661804882495
 20
311.53169935748883
 11
659.01871095317802
 21
313.5847832545478
  0
ARC
  8
_0-3_P-33DB
  6
CONTINUOUS
 62
    7
 10
665.78935487788704
 20
295.44061779244657
 40
1.5000049999999989
 50
194.8704624849517
 51
17.346848484958251
  0
LINE
  8
_0-3_P-33DB
  6
CONTINUOUS
 62
    7
 10
661.91814983775475
 20
314.35476546505743
 11
667.23913157299694
 21
295.82558304977647
  0
LINE
  8
_0-3_P-33DB
  6
CONTINUOUS
 62
    7
 10
664.33958665414684
 20
295.05566495427774
 11
656.60749374979514
 21
293.00258105721878
  0
LINE
  8
_0-3_P-33DB
  6
CONTINUOUS
 62
    7
 10
664.33958665414684
 20
295.05566495427774
 11
659.01871095317802
 21
313.5847832545478
  0
LINE
  8
_0-3_P-33DB
  6
CONTINUOUS
 62
    7
 10
667.26676330311011
 20
295.70000041540698
 11
663.26245290959605
 21
294.76965624056902
  0
LINE
  8
_0-3_P-33DB
  6
CONTINUOUS
 62
    7
 10
663.26245290959605
 20
294.76965624056902
 11
660.34176315835794
 21
293.99413256659682
  0
LINE
  8
_0-3_P-33DB
  6
CONTINUOUS
 62
    7
 10
660.34176315835794
 20
293.99413256659682
 11
658.80964244603001
 21
293.58731226558666
  0
ARC
  8
_0-1_P-4B13
  6
CONTINUOUS
 62
    7
 10
791.97637763161583
 20
161.86750489815671
 40
214.16680425198422
 50
160.1090550098167
 51
180.26607583610382
  0
ARC
  8
_0-1_P-4B13
  6
CONTINUOUS
 62
    7
 10
783.35093012229481
 20
164.96722475357819
 40
211.17739176158864
 50
157.5234158870345
 51
183.13463371593929
  0
ARC
  8
_0-1_P-4B13
  6
CONTINUOUS
 62
    7
 10
713.29210712464874
 20
167.33789027246894
 40
135.63440741998059
 50
182.73201142152629
 51
259.1774933133085
  0
LINE
  8
_0-1_P-4B13
  6
CONTINUOUS
 62
    7
 10
595.42007632832883
 20
88.087014007967781
 11
582.08120806137777
 21
114.77022079660671
  0
ARC
  8
_0-1_P-4B13
  6
CONTINUOUS
 62
    7
 10
727.02578327284073
 20
239.40912909650794
 40
214.34944829403574
 50
270.72234191564053
 51
306.35442501697162
  0
ARC
  8
_0-1_P-4B13
  6
CONTINUOUS
 62
    7
 10
726.58388298780801
 20
232.47182604268889
 40
202.10728714090271
 50
258.94351301998267
 51
307.8473354785022
  0
ARC
  8
_0-1_P-4B13
  6
CONTINUOUS
 62
    7
 10
723.61773592428699
 20
228.3987502604468
 40
2.2344499999999989
 50
192.06924499997982
 51
24.701457000003487
  0
ARC
  8
_0-1_P-4B13
  6
CONTINUOUS
 62
    7
 10
722.74725292428502
 20
228.88315626044641
 40
3.3275669999999993
 50
215.56684500002521
 51
314.8361419999631
  0
ARC
  8
_0-1_P-4B13
  6
CONTINUOUS
 62
    7
 10
706.36944492428711
 20
235.12229126044619
 40
4.9675169999999991
 50
225.0133240000836
 51
40.536376000077702
  0
ARC
  8
_0-1_P-4B13
  6
CONTINUOUS
 62
    7
 10
704.8690789242869
 20
234.94158126044567
 40
5.1678009999999999
 50
228.65149300004549
 51
298.11070099992747
  0
ARC
  8
_0-1_P-4B13
  6
CONTINUOUS
 62
    7
 10
699.25714092428507
 20
228.59825926044866
 40
14.616853000000001
 50
41.852458000016838
 51
94.434341000063554
  0
ARC
  8
_0-1_P-4B13
  6
CONTINUOUS
 62
    7
 10
696.18267792428787
 20
217.79657726044749
 40
22.280925000000003
 50
55.855876000001388
 51
116.34211900008999
  0
ARC
  8
_0-1_P-4B13
  6
CONTINUOUS
 62
    7
 10
661.6065069242868
 20
247.06418626044612
 40
32.243656000000001
 50
3.6561410000266825
 51
52.073466999956828
  0
ARC
  8
_0-1_P-4B13
  6
CONTINUOUS
 62
    7
 10
667.55926492428671
 20
249.57608726044782
 40
22.149341000000003
 50
327.77132500001932
 51
60.063668000012981
  0
ARC
  8
_0-1_P-4B13
  6
CONTINUOUS
 62
    7
 10
651.48309392428609
 20
232.57970426044631
 40
26.137607000000003
 50
23.265292999967919
 51
60.14836300001253
  0
ARC
  8
_0-1_P-4B13
  6
CONTINUOUS
 62
    7
 10
661.09808392428386
 20
233.77707626044867
 40
13.568878
 50
36.067355999977138
 51
79.220244999988822
  0
ARC
  8
_0-1_P-4B13
  6
CONTINUOUS
 62
    7
 10
662.83380192428785
 20
244.55673926044619
 40
2.6729689999999988
 50
72.537042000077591
 51
228.53986000006782
  0
ARC
  8
_0-1_P-4B13
  6
CONTINUOUS
 62
    7
 10
662.40240492428802
 20
243.63056126044827
 40
3.311720999999999
 50
115.1252520000277
 51
228.31858899998059
  0
ARC
  8
_0-1_P-4B13
  6
CONTINUOUS
 62
    7
 10
673.71331792428509
 20
242.53766626044668
 40
1.8192159999999991
 50
205.11504300004009
 51
11.609268000009029
  0
ARC
  8
_0-1_P-4B13
  6
CONTINUOUS
 62
    7
 10
653.98431392428392
 20
236.03127326044702
 40
20.237431999999998
 50
13.064043999967879
 51
55.213811000098033
  0
ARC
  8
_0-1_P-4B13
  6
CONTINUOUS
 62
    7
 10
671.46380592428704
 20
261.7850112604574
 40
10.891336000000001
 50
146.51051799997134
 51
236.98817599992481
  0
ARC
  8
_0-1_P-4B13
  6
CONTINUOUS
 62
    7
 10
673.51641892428597
 20
263.32666726044772
 40
12.110335000000001
 50
49.227874000018211
 51
221.83430799997041
  0
ARC
  8
_0-1_P-4B13
  6
CONTINUOUS
 62
    7
 10
665.11993392428485
 20
245.59613826044733
 40
14.906537000000002
 50
340.44099799999071
 51
83.7552860001026
  0
ARC
  8
_0-1_P-4B13
  6
CONTINUOUS
 62
    7
 10
665.88018792428602
 20
248.48288726044845
 40
18.305446
 50
341.95125500002644
 51
70.691647999957965
  0
ARC
  8
_0-1_P-4B13
  6
CONTINUOUS
 62
    7
 10
951.3012039242858
 20
147.32781326044636
 40
284.51690200000002
 50
160.39104700000988
 51
163.89151899996827
  0
ARC
  8
_0-1_P-4B13
  6
CONTINUOUS
 62
    7
 10
694.08587592428785
 20
219.86972826044803
 40
14.654475
 50
53.231935999969693
 51
205.4504059999793
  0
ARC
  8
_0-1_P-4B13
  6
CONTINUOUS
 62
    7
 10
588.56329492428586
 20
193.78630926044571
 40
87.376249999999999
 50
12.22318600003255
 51
33.926541999997831
  0
ARC
  8
_0-1_P-4B13
  6
CONTINUOUS
 62
    7
 10
694.46856692428673
 20
216.92392726044633
 40
15.770129000000001
 50
63.70343499996747
 51
160.24332300001069
  0
ARC
  8
_0-1_P-4B13
  6
CONTINUOUS
 62
    7
 10
-9477.3810130757156
 20
-4747.2293947395519
 40
11298.430496000001
 50
26.045828999970649
 51
26.200355000014468
  0
ARC
  8
_0-1_P-4B13
  6
CONTINUOUS
 62
    7
 10
630.86169492428598
 20
211.60366126044752
 40
45.496851999999997
 50
8.0251469999858411
 51
44.495085000047496
  0
ARC
  8
_0-1_P-4B13
  6
CONTINUOUS
 62
    7
 10
713.76653992428783
 20
225.35778026044864
 40
37.811022999999999
 50
156.21736400001282
 51
185.8925960000004
  0
ARC
  8
_0-1_P-4B13
  6
CONTINUOUS
 62
    7
 10
697.24535644660591
 20
218.71175281278553
 40
17.178686336458671
 50
197.4083031428566
 51
226.50069741218351
  0
ARC
  8
_0-1_P-4B13
  6
CONTINUOUS
 62
    7
 10
696.05621292428714
 20
217.23069026044683
 40
31.970448999999999
 50
22.242705000015249
 51
94.074705000065535
  0
ARC
  8
_0-1_P-4B13
  6
CONTINUOUS
 62
    7
 10
703.9694209242848
 20
216.26630426044721
 40
21.001031999999999
 50
33.742428000002121
 51
69.66908599996809
  0
ARC
  8
_0-1_P-4B13
  6
CONTINUOUS
 62
    7
 10
704.93340992428512
 20
217.43120626044765
 40
17.854568
 50
32.208216999997319
 51
69.322509000038522
  0
ARC
  8
_0-1_P-4B13
  6
CONTINUOUS
 62
    7
 10
702.09356692428673
 20
223.44748726044782
 40
21.401081000000005
 50
28.083479999966428
 51
127.26897299998311
  0
ARC
  8
_0-1_P-4B13
  6
CONTINUOUS
 62
    7
 10
695.99837362202379
 20
241.99902891700913
 40
55.80948003800885
 50
335.01182620209778
 51
48.840698341354802
  0
ARC
  8
_0-1_P-4B13
  6
CONTINUOUS
 62
    7
 10
713.23272524967479
 20
232.97959804152558
 40
40.850604302044779
 50
279.05631763040151
 51
321.47227064315553
  0
ARC
  8
_0-1_P-4B13
  6
CONTINUOUS
 62
    7
 10
722.725553774128
 20
184.79621761876842
 40
159.87293282709771
 50
217.22257636829701
 51
272.51038672867872
  0
ARC
  8
_0-1_P-4B13
  6
CONTINUOUS
 62
    7
 10
781.78697802749775
 20
184.84659984526658
 40
211.64378908518049
 50
188.53945011340829
 51
199.33587607668321
  0
ARC
  8
_0-1_P-4B13
  6
CONTINUOUS
 62
    7
 10
698.02458572147907
 20
241.16420330516846
 40
57.927588302392081
 50
324.51038440561246
 51
13.953238512098523
  0
ARC
  8
_0-1_P-4B13
  6
CONTINUOUS
 62
    7
 10
695.26024619379677
 20
242.54894748604784
 40
60.309975537511455
 50
12.042914353128198
 51
48.306134670283349
  0
ARC
  8
_0-4_P-4AC1
  6
CONTINUOUS
 62
    7
 10
704.3009103684708
 20
182.24206764252813
 40
1.4999679999999991
 50
173.45534182164232
 51
353.4597758215827
  0
LINE
  8
_0-4_P-4AC1
  6
CONTINUOUS
 62
    7
 10
718.53110284159493
 20
200.01026251872821
 11
716.71944813469281
 21
180.81760274288897
  0
LINE
  8
_0-4_P-4AC1
  6
CONTINUOUS
 62
    7
 10
715.55062587519478
 20
200.35215146361588
 11
713.73898409633875
 21
181.15949929473572
  0
ARC
  8
_0-4_P-4AC1
  6
CONTINUOUS
 62
    7
 10
717.04085789437386
 20
200.18120318769797
 40
1.5000049999999989
 50
353.45604682162832
 51
173.45640682160447
  0
ARC
  8
_0-4_P-4AC1
  6
CONTINUOUS
 62
    7
 10
715.22921611551692
 20
180.98855101881782
 40
1.5000049999999989
 50
173.45534182164232
 51
353.45604682162838
  0
LINE
  8
_0-4_P-4AC1
  6
CONTINUOUS
 62
    7
 10
713.73898409633875
 20
181.15949929473572
 11
705.79108051783487
 21
182.07122451471875
  0
ARC
  8
_0-4_P-4AC1
  6
CONTINUOUS
 62
    7
 10
706.11248977038485
 20
201.43482582138674
 40
1.5000049999999989
 50
353.45604682162832
 51
175.9324328216349
  0
LINE
  8
_0-4_P-4AC1
  6
CONTINUOUS
 62
    7
 10
702.8106783492949
 20
182.41301591844604
 11
704.62224482316105
 21
201.60576649036733
  0
LINE
  8
_0-4_P-4AC1
  6
CONTINUOUS
 62
    7
 10
707.60272229669681
 20
201.26387668359888
 11
715.55062587519478
 21
200.35215146361588
  0
LINE
  8
_0-4_P-4AC1
  6
CONTINUOUS
 62
    7
 10
707.60272229669681
 20
201.26387668359888
 11
705.79108051783487
 21
182.07122451471875
  0
ARC
  8
_0-1_P-4B13
  6
CONTINUOUS
 62
    7
 10
723.39773003148412
 20
208.41712894699594
 40
185.87193619209449
 50
313.18009952202652
 51
348.80199817161889
  0
ARC
  8
_0-1_P-4B13
  6
CONTINUOUS
 62
    7
 10
726.23619066555284
 20
205.27456239302774
 40
188.485687673858
 50
312.7115563764271
 51
349.4936699670655
  0
ARC
  8
_0-a_P-5A90
  6
CONTINUOUS
 62
    7
 10
759.81791030004479
 20
715.89841042445914
 40
1.4999679999999991
 50
48.943308872911309
 51
228.94774287285159
  0
LINE
  8
_0-a_P-5A90
  6
CONTINUOUS
 62
    7
 10
766.39649857685481
 20
694.10553766144585
 11
751.60805447138591
 21
706.47251801184757
  0
LINE
  8
_0-a_P-5A90
  6
CONTINUOUS
 62
    7
 10
768.36689409688597
 20
696.36776499142798
 11
753.57844893483571
 21
708.73473037908843
  0
ARC
  8
_0-a_P-5A90
  6
CONTINUOUS
 62
    7
 10
767.38169686516585
 20
695.23665880780754
 40
1.5000049999999989
 50
228.94401387289719
 51
48.944373872873435
  0
ARC
  8
_0-a_P-5A90
  6
CONTINUOUS
 62
    7
 10
752.59325170311104
 20
707.603624195468
 40
1.5000049999999989
 50
48.943308872911309
 51
228.94401387289719
  0
LINE
  8
_0-a_P-5A90
  6
CONTINUOUS
 62
    7
 10
753.57844893483571
 20
708.73473037908843
 11
758.83283476527595
 21
714.76729564726702
  0
ARC
  8
_0-a_P-5A90
  6
CONTINUOUS
 62
    7
 10
774.60647815656785
 20
703.53143637278845
 40
1.5000049999999989
 50
228.94401387289719
 51
51.420399872903801
  0
LINE
  8
_0-a_P-5A90
  6
CONTINUOUS
 62
    7
 10
760.80310753176491
 20
717.02951660807594
 11
775.59167644487616
 21
704.6625575191465
  0
LINE
  8
_0-a_P-5A90
  6
CONTINUOUS
 62
    7
 10
773.62127992732485
 20
702.40033025959565
 11
768.36689409688597
 21
696.36776499142798
  0
LINE
  8
_0-a_P-5A90
  6
CONTINUOUS
 62
    7
 10
773.62127992732485
 20
702.40033025959565
 11
758.83283476527595
 21
714.76729564726702
  0
ARC
  8
_0-c_P-1721
  6
CONTINUOUS
 62
    7
 10
716.32934460147271
 20
291.70103953551734
 40
1.4999679999999991
 50
147.0702283352114
 51
327.07466233515191
  0
LINE
  8
_0-c_P-1721
  6
CONTINUOUS
 62
    7
 10
736.97336804076804
 20
301.29434049079646
 11
726.821173514576
 21
284.90613655167908
  0
LINE
  8
_0-c_P-1721
  6
CONTINUOUS
 62
    7
 10
734.455311824619
 20
302.92514516647861
 11
724.30313226026601
 21
286.53694229660687
  0
ARC
  8
_0-c_P-1721
  6
CONTINUOUS
 62
    7
 10
735.71433245176786
 20
302.10974229400745
 40
1.5000049999999989
 50
327.07093333519742
 51
147.07129333517364
  0
ARC
  8
_0-c_P-1721
  6
CONTINUOUS
 62
    7
 10
725.56215288741805
 20
285.7215394241357
 40
1.5000049999999989
 50
147.0702283352114
 51
327.07093333519742
  0
LINE
  8
_0-c_P-1721
  6
CONTINUOUS
 62
    7
 10
724.30313226026601
 20
286.53694229660687
 11
717.58835653204414
 21
290.88575835268784
  0
ARC
  8
_0-c_P-1721
  6
CONTINUOUS
 62
    7
 10
726.48151539795572
 20
308.08936509246632
 40
1.5000049999999989
 50
327.07093333519742
 51
149.54731933520392
  0
LINE
  8
_0-c_P-1721
  6
CONTINUOUS
 62
    7
 10
715.07032397432886
 20
292.51644240797759
 11
725.22247980896373
 21
308.90476689568823
  0
LINE
  8
_0-c_P-1721
  6
CONTINUOUS
 62
    7
 10
727.74053609639805
 20
307.27396122254868
 11
734.455311824619
 21
302.92514516647861
  0
LINE
  8
_0-c_P-1721
  6
CONTINUOUS
 62
    7
 10
727.74053609639805
 20
307.27396122254868
 11
717.58835653204414
 21
290.88575835268784
  0
LINE
  8
_0-c_P-1721
  6
CONTINUOUS
 62
    7
 10
731.21236300113196
 20
305.02543689376762
 11
732.54290145936511
 21
304.16371533453639
  0
ARC
  8
_0-b_P-6E6F
  6
CONTINUOUS
 62
    7
 10
720.28554474831299
 20
168.73333544834892
 40
11.853717106934042
 50
315.95685029472207
 51
359.09112077752752
  0
ARC
  8
_0-b_P-6E6F
  6
CONTINUOUS
 62
    7
 10
722.05434727946613
 20
169.66184239824719
 40
16.60109141897621
 50
303.80873355832517
 51
338.76860704455089
  0
ARC
  8
_0-b_P-6E6F
  6
CONTINUOUS
 62
    7
 10
718.50528786455016
 20
173.54633104595626
 40
16.628519657945208
 50
227.43292562515541
 51
308.27759332189987
  0
ARC
  8
_0-b_P-6E6F
  6
CONTINUOUS
 62
    7
 10
722.11190099441092
 20
175.37654756036864
 40
21.560371134010708
 50
224.24446172756791
 51
295.19913007045659
  0
ARC
  8
_0-b_P-6E6F
  6
CONTINUOUS
 62
    7
 10
747.94567294849003
 20
311.2470240893781
 40
5.8435370000000013
 50
163.07771084230461
 51
264.23277584229947
  0
ARC
  8
_0-b_P-6E6F
  6
CONTINUOUS
 62
    7
 10
747.78576099611792
 20
312.704834212469
 40
7.7437319999999996
 50
156.64594784242431
 51
257.63572784235805
  0
ARC
  8
_0-b_P-6E6F
  6
CONTINUOUS
 62
    7
 10
748.27073986237292
 20
335.4253889877582
 40
6.1920529999999996
 50
111.2992218424471
 51
167.4818888423672
  0
ARC
  8
_0-b_P-6E6F
  6
CONTINUOUS
 62
    7
 10
764.78565989228082
 20
337.85674822139839
 40
22.586067
 50
182.76425284230581
 51
224.6196038423536
  0
ARC
  8
_0-b_P-6E6F
  6
CONTINUOUS
 62
    7
 10
762.28309024982991
 20
336.99800059489644
 40
21.745920000000002
 50
177.0708868423533
 51
222.80073184235454
  0
ARC
  8
_0-b_P-6E6F
  6
CONTINUOUS
 62
    7
 10
752.1841397740609
 20
325.90164038854709
 40
16.487859
 50
51.245165842311771
 51
111.9480348423273
  0
ARC
  8
_0-b_P-6E6F
  6
CONTINUOUS
 62
    7
 10
748.60962338152012
 20
334.75174973837784
 40
8.7165979999999994
 50
89.484389842267746
 51
157.344962842435
  0
ARC
  8
_0-b_P-6E6F
  6
CONTINUOUS
 62
    7
 10
749.95455274528786
 20
322.68495958126732
 40
20.821612999999999
 50
36.216399842367629
 51
93.487208842300305
  0
ARC
  8
_0-b_P-6E6F
  6
CONTINUOUS
 62
    7
 10
754.29489433794697
 20
311.31403885331747
 40
12.051017000000002
 50
117.61381384230759
 51
172.20777584233841
  0
ARC
  8
_0-b_P-6E6F
  6
CONTINUOUS
 62
    7
 10
756.86215688730408
 20
307.2896869724791
 40
18.274885000000005
 50
125.2011698423113
 51
152.33562884227791
  0
ARC
  8
_0-b_P-6E6F
  6
CONTINUOUS
 62
    7
 10
741.75448873402274
 20
310.36380560445832
 40
12.917246000000002
 50
256.71520984229016
 51
305.79686684225658
  0
ARC
  8
_0-b_P-6E6F
  6
CONTINUOUS
 62
    7
 10
743.58526200782399
 20
299.82567123430636
 40
5.7250759999999996
 50
265.11220284230802
 51
0.6105968422985517
  0
ARC
  8
_0-b_P-6E6F
  6
CONTINUOUS
 62
    7
 10
766.93419453200613
 20
294.26438127885558
 40
14.121945
 50
344.25528484242921
 51
29.231602842360843
  0
ARC
  8
_0-b_P-6E6F
  6
CONTINUOUS
 62
    7
 10
778.50317730560892
 20
291.43751226328823
 40
2.2590499999999993
 50
183.0455888423115
 51
333.58030084232018
  0
ARC
  8
_0-b_P-6E6F
  6
CONTINUOUS
 62
    7
 10
767.13845110574584
 20
277.92539430257602
 40
16.196291000000002
 50
55.777542842334292
 51
72.5766388423921
  0
ARC
  8
_0-b_P-6E6F
  6
CONTINUOUS
 62
    7
 10
771.51405903891373
 20
294.66778286261615
 40
9.5324489999999997
 50
51.04381184233695
 51
121.9481698423363
  0
ARC
  8
_0-b_P-6E6F
  6
CONTINUOUS
 62
    7
 10
784.64324815596501
 20
285.85819432258722
 40
28.749231000000002
 50
61.558341842362651
 51
122.43352284239901
  0
ARC
  8
_0-b_P-6E6F
  6
CONTINUOUS
 62
    7
 10
788.49837219386791
 20
316.46750886923837
 40
17.879750999999999
 50
238.88096384239907
 51
267.40822584232552
  0
ARC
  8
_0-b_P-6E6F
  6
CONTINUOUS
 62
    7
 10
785.64094727886186
 20
280.83370938883672
 40
30.549377
 50
95.167380842402295
 51
137.5993068423567
  0
ARC
  8
_0-b_P-6E6F
  6
CONTINUOUS
 62
    7
 10
797.32985087983297
 20
294.00630348725826
 40
4.5213820000000009
 50
180.06703884237007
 51
304.14140684238981
  0
ARC
  8
_0-b_P-6E6F
  6
CONTINUOUS
 62
    7
 10
786.87517768807902
 20
292.55312748174765
 40
6.1074660000000005
 50
13.71382284232423
 51
82.334465842403674
  0
ARC
  8
_0-b_P-6E6F
  6
CONTINUOUS
 62
    7
 10
785.41965275180974
 20
296.08679810449757
 40
15.836068000000001
 50
356.4521868423945
 51
93.171680842329337
  0
ARC
  8
_0-b_P-6E6F
  6
CONTINUOUS
 62
    7
 10
779.94721044736707
 20
292.3088587785569
 40
15.431557
 50
4.4616488422966141
 51
117.94491384234541
  0
ARC
  8
_0-b_P-6E6F
  6
CONTINUOUS
 62
    7
 10
791.70897971579006
 20
300.15827390958657
 40
12.823924
 50
309.50814584235502
 51
58.886972842382107
  0
ARC
  8
_0-b_P-6E6F
  6
CONTINUOUS
 62
    7
 10
782.46287757585196
 20
289.116862247276
 40
27.306579000000003
 50
45.488354842355903
 51
114.75860284240741
  0
ARC
  8
_0-b_P-6E6F
  6
CONTINUOUS
 62
    7
 10
761.46543869814786
 20
269.03516786751788
 40
26.520238000000003
 50
66.623117842335276
 51
123.42745184231589
  0
ARC
  8
_0-b_P-6E6F
  6
CONTINUOUS
 62
    7
 10
742.43372006099708
 20
298.5283953443577
 40
8.4810890000000008
 50
305.97275784243118
 51
54.501581842398267
  0
ARC
  8
_0-b_P-6E6F
  6
CONTINUOUS
 62
    7
 10
751.22539446500878
 20
321.00630337518669
 40
21.033605000000005
 50
328.84017684225159
 51
57.568909842375014
  0
ARC
  8
_0-b_P-6E6F
  6
CONTINUOUS
 62
    7
 10
741.58213086147498
 20
298.79663835810788
 40
7.8043110000000002
 50
8.0288378423275901
 51
54.37855584233774
  0
ARC
  8
_0-b_P-6E6F
  6
CONTINUOUS
 62
    7
 10
744.80511811568294
 20
300.95135457378638
 40
8.9802500000000016
 50
304.31161484231302
 51
69.001963842336323
  0
ARC
  8
_0-b_P-6E6F
  6
CONTINUOUS
 62
    7
 10
742.72253527548401
 20
317.80291566129745
 40
25.253613999999999
 50
290.5311758423918
 51
65.89649584231735
  0
ARC
  8
_0-b_P-6E6F
  6
CONTINUOUS
 62
    7
 10
741.54928145015174
 20
311.42881527863574
 40
19.811018000000004
 50
309.86555584237271
 51
68.029781842375442
  0
ARC
  8
_0-b_P-6E6F
  6
CONTINUOUS
 62
    7
 10
742.03680606374974
 20
307.22535266658815
 40
15.878215000000003
 50
312.52262284228379
 51
63.000877842336301
  0
ARC
  8
_0-b_P-6E6F
  6
CONTINUOUS
 62
    7
 10
727.58691393281015
 20
167.51343947504574
 40
10.66603223903579
 50
338.76346763816491
 51
12.254997654950152
  0
ARC
  8
_0-b_P-6E6F
  6
CONTINUOUS
 62
    7
 10
728.67900200058011
 20
242.12026400557804
 40
139.0163788948426
 50
272.22751167338231
 51
25.434997072295822
  0
ARC
  8
_0-b_P-6E6F
  6
CONTINUOUS
 62
    7
 10
728.68095730749883
 20
242.11956334420756
 40
145.01433054486961
 50
270.18495623009738
 51
25.469370481607676
  0
ARC
  8
_0-b_P-6E6F
  6
CONTINUOUS
 62
    7
 10
748.70505888899106
 20
250.02842716579835
 40
117.54399187698822
 50
26.14632747473409
 51
67.230413737779671
  0
ARC
  8
_0-b_P-6E6F
  6
CONTINUOUS
 62
    7
 10
756.29401917109271
 20
257.14172031937778
 40
113.62142074757971
 50
24.771670837904999
 51
70.731177733926657
  0
ARC
  8
_0-b_P-6E6F
  6
CONTINUOUS
 62
    7
 10
773.65329677414593
 20
308.73298870584767
 40
53.759479418698668
 50
67.532869801109896
 51
130.17664314124448
  0
ARC
  8
_0-b_P-6E6F
  6
CONTINUOUS
 62
    7
 10
734.45251125917594
 20
320.55189840627645
 40
16.843447646817609
 50
170.10693690730849
 51
218.6819758773288
  0
ARC
  8
_0-b_P-6E6F
  6
CONTINUOUS
 62
    7
 10
775.01003478873099
 20
306.37837265697817
 40
60.983194715024169
 50
72.064894793874032
 51
121.02245048843641
  0
ARC
  8
_0-b_P-6E6F
  6
CONTINUOUS
 62
    7
 10
715.78494017971116
 20
152.32088178320913
 40
41.200578513271857
 50
163.0970884469649
 51
235.71322276179467
  0
ARC
  8
_0-b_P-6E6F
  6
CONTINUOUS
 62
    7
 10
740.50335640814092
 20
185.58670071084634
 40
82.627645672617206
 50
234.54594551231952
 51
265.5429650367879
  0
ARC
  8
_0-b_P-6E6F
  6
CONTINUOUS
 62
    7
 10
733.10896215397088
 20
165.06669930867793
 40
68.075979065126447
 50
211.6367657970533
 51
266.66530136181996
  0
ARC
  8
_0-b_P-6E6F
  6
CONTINUOUS
 62
    7
 10
707.60568139339875
 20
151.73980302341803
 40
39.424683556464622
 50
178.82351478951742
 51
214.58957714124054
  0
ARC
  8
_0-d_P-4E91
  6
CONTINUOUS
 62
    7
 10
720.78773016396281
 20
355.78115494024672
 40
1.4999679999999991
 50
45.617430800522598
 51
225.62186480046296
  0
LINE
  8
_0-d_P-4E91
  6
CONTINUOUS
 62
    7
 10
726.09092624539198
 20
333.6433312373083
 11
712.04485958198893
 21
346.84743262039774
  0
LINE
  8
_0-d_P-4E91
  6
CONTINUOUS
 62
    7
 10
728.18924601843901
 20
335.78743597539869
 11
714.14317743216998
 21
348.99152248224709
  0
ARC
  8
_0-d_P-4E91
  6
CONTINUOUS
 62
    7
 10
727.14008709334712
 20
334.71539104447584
 40
1.5000049999999989
 50
225.61813580050847
 51
45.618495800484716
  0
ARC
  8
_0-d_P-4E91
  6
CONTINUOUS
 62
    7
 10
713.094018507074
 20
347.91947755132782
 40
1.5000049999999989
 50
45.617430800522598
 51
225.61813580050847
  0
LINE
  8
_0-d_P-4E91
  6
CONTINUOUS
 62
    7
 10
714.14317743216998
 20
348.99152248224709
 11
719.73869223230486
 21
354.70909436998767
  0
ARC
  8
_0-d_P-4E91
  6
CONTINUOUS
 62
    7
 10
734.83392073541108
 20
342.57705266586709
 40
1.5000049999999989
 50
225.61813580050847
 51
48.094521800515103
  0
LINE
  8
_0-d_P-4E91
  6
CONTINUOUS
 62
    7
 10
721.83688908905378
 20
356.853199871166
 11
735.88308158337395
 21
343.64911247303826
  0
LINE
  8
_0-d_P-4E91
  6
CONTINUOUS
 62
    7
 10
733.78476081857207
 20
341.50500786312841
 11
728.18924601843901
 21
335.78743597539869
  0
LINE
  8
_0-d_P-4E91
  6
CONTINUOUS
 62
    7
 10
733.78476081857207
 20
341.50500786312841
 11
719.73869223230486
 21
354.70909436998767
  0
LINE
  8
_0-d_P-4E91
  6
CONTINUOUS
 62
    7
 10
733.00526710530175
 20
340.7085107577077
 11
730.89163979484192
 21
338.54877809268874
  0
LINE
  8
_0-d_P-4E91
  6
CONTINUOUS
 62
    7
 10
730.89163979484192
 20
338.54877809268874
 11
729.78288383090512
 21
337.41583641418765
  0
LINE
  8
_0-1_P-4B13
  6
CONTINUOUS
 62
    7
 10
764.490873192658
 20
494.87191454780623
 11
762.77087142269374
 21
496.22539341501761
  0
ARC
  8
_0-1_P-4B13
  6
CONTINUOUS
 62
    7
 10
740.54645507306486
 20
500.75102529974902
 40
13
 50
209.31658236623321
 51
330.68341763376691
  0
ARC
  8
_0-1_P-4B13
  6
CONTINUOUS
 62
    7
 10
755.39569747798214
 20
506.90178289482719
 40
13
 50
254.31658236605429
 51
15.683417633856397
  0
ARC
  8
_0-1_P-4B13
  6
CONTINUOUS
 62
    7
 10
761.54645507306486
 20
521.75102529974902
 40
13
 50
299.31658236617488
 51
60.683417633825051
  0
ARC
  8
_0-1_P-4B13
  6
CONTINUOUS
 62
    7
 10
755.39569747798214
 20
536.60026770465629
 40
13
 50
344.31658236614368
 51
105.68341763394571
  0
ARC
  8
_0-1_P-4B13
  6
CONTINUOUS
 62
    7
 10
740.54645507306486
 20
542.75102529974902
 40
13
 50
29.31658236623316
 51
150.68341763376679
  0
ARC
  8
_0-1_P-4B13
  6
CONTINUOUS
 62
    7
 10
740.54645507306486
 20
542.75102529974902
 40
10
 50
61.391998002621321
 51
118.60800199737871
  0
ARC
  8
_0-1_P-4B13
  6
CONTINUOUS
 62
    7
 10
725.69721266814713
 20
536.60026770465629
 40
13
 50
74.316582366054249
 51
195.68341763385641
  0
ARC
  8
_0-1_P-4B13
  6
CONTINUOUS
 62
    7
 10
719.54645507306486
 20
521.75102529974902
 40
13
 50
119.3165823661749
 51
240.68341763382509
  0
ARC
  8
_0-1_P-4B13
  6
CONTINUOUS
 62
    7
 10
725.69721266814713
 20
506.90178289482719
 40
13
 50
164.31658236614359
 51
285.68341763394568
  0
CIRCLE
  8
_0-1_P-4B13
  6
CONTINUOUS
 62
    7
 10
740.54645507306486
 20
521.75102529974902
 40
5.5
  0
ARC
  8
_0-1_P-4B13
  6
CONTINUOUS
 62
    7
 10
617.03369412068287
 20
248.96058957550849
 40
299.95272958436101
 50
66.68723380203464
 51
70.815668468040812
  0
ARC
  8
_0-1_P-4B13
  6
CONTINUOUS
 62
    7
 10
617.03369412068287
 20
794.54146102397863
 40
299.95272958436101
 50
289.06823860188467
 51
293.3127661979654
  0
ARC
  8
_0-1_P-4B13
  6
CONTINUOUS
 62
    7
 10
864.05921602544777
 20
248.96058957550849
 40
299.95272958436101
 50
109.06879698579981
 51
113.31276619796532
  0
ARC
  8
_0-1_P-4B13
  6
CONTINUOUS
 62
    7
 10
864.05921602544777
 20
794.54146102397863
 40
299.95272958436101
 50
246.68723380203471
 51
250.88552493800191
  0
ARC
  8
_0-1_P-4B13
  6
CONTINUOUS
 62
    7
 10
1013.336890797299
 20
398.23826434735747
 40
299.95272958436101
 50
156.68723380226729
 51
160.94582255168331
  0
ARC
  8
_0-1_P-4B13
  6
CONTINUOUS
 62
    7
 10
467.7560193488298
 20
398.23826434735747
 40
299.95272958436101
 50
19.05810179343047
 51
23.312766197732671
  0
ARC
  8
_0-1_P-4B13
  6
CONTINUOUS
 62
    7
 10
1013.336890797299
 20
645.26378625212601
 40
299.95272958436101
 50
199.19388341558201
 51
203.31276619773271
  0
ARC
  8
_0-1_P-4B13
  6
CONTINUOUS
 62
    7
 10
1013.336890797299
 20
645.26378625212601
 40
296.9527295843609
 50
199.57943596551368
 51
202.35251433027648
  0
ARC
  8
_0-1_P-4B13
  6
CONTINUOUS
 62
    7
 10
467.7560193488298
 20
645.26378625212601
 40
299.95272958436101
 50
336.68723380226731
 51
340.86607705993049
  0
ARC
  8
_0-1_P-4B13
  6
CONTINUOUS
 62
    7
 10
467.7560193488298
 20
645.26378625212601
 40
296.9527295843609
 50
337.64748566972338
 51
340.42056403448629
  0
ARC
  8
_0-1_P-4B13
  6
CONTINUOUS
 62
    7
 10
740.54645507306486
 20
533.09208364113874
 40
2
 50
202.35251433027651
 51
337.64748566972338
  0
ARC
  8
_0-1_P-4B13
  6
CONTINUOUS
 62
    7
 10
739.04737792773994
 20
546.96626356820707
 40
5.6255984051904617
 50
125.77903980154811
 51
192.47625736315251
  0
ARC
  8
_0-1_P-4B13
  6
CONTINUOUS
 62
    7
 10
742.04553221838978
 20
546.96626356820707
 40
5.6255984051904617
 50
347.52374263684737
 51
54.220960198451834
  0
ARC
  8
_0-1_P-4B13
  6
CONTINUOUS
 62
    7
 10
725.70825199646106
 20
536.57361640852832
 40
10
 50
106.39199800262222
 51
163.60800199729539
  0
ARC
  8
_0-1_P-4B13
  6
CONTINUOUS
 62
    7
 10
846.11275051231314
 20
801.95305177954651
 40
296.9527295843609
 50
244.57943596547631
 51
247.35251433033596
  0
ARC
  8
_0-1_P-4B13
  6
CONTINUOUS
 62
    7
 10
460.32881662543605
 20
416.1691178926776
 40
296.9527295843609
 50
22.647485669736174
 51
25.420564034372479
  0
ARC
  8
_0-1_P-4B13
  6
CONTINUOUS
 62
    7
 10
732.53815514234384
 20
529.74371326264736
 40
2
 50
247.35251433033596
 51
22.647485669736163
  0
ARC
  8
_0-1_P-4B13
  6
CONTINUOUS
 62
    7
 10
721.66762081753404
 20
538.49423235748691
 40
5.6255984051904617
 50
170.77903980155691
 51
237.47625736323701
  0
ARC
  8
_0-1_P-4B13
  6
CONTINUOUS
 62
    7
 10
723.78763604749702
 20
540.61424758745852
 40
5.6255984051904617
 50
32.523742636914797
 51
99.220960198562707
  0
ARC
  8
_0-1_P-4B13
  6
CONTINUOUS
 62
    7
 10
719.58414569751176
 20
521.71333467529621
 40
10
 50
151.3919980027502
 51
208.6080019972498
  0
ARC
  8
_0-1_P-4B13
  6
CONTINUOUS
 62
    7
 10
617.07138474512794
 20
794.50377039952582
 40
296.9527295843609
 50
289.57943596557152
 51
292.35251433030055
  0
ARC
  8
_0-1_P-4B13
  6
CONTINUOUS
 62
    7
 10
617.07138474512794
 20
248.92289895105566
 40
296.9527295843609
 50
67.647485669699378
 51
70.420564034428409
  0
ARC
  8
_0-1_P-4B13
  6
CONTINUOUS
 62
    7
 10
729.24308735611476
 20
521.71333467529621
 40
2
 50
292.35251433030061
 51
67.647485669699392
  0
ARC
  8
_0-1_P-4B13
  6
CONTINUOUS
 62
    7
 10
715.36890742905098
 20
520.21425752996583
 40
5.6255984051904617
 50
215.77903980154821
 51
282.47625736324011
  0
ARC
  8
_0-1_P-4B13
  6
CONTINUOUS
 62
    7
 10
715.36890742905098
 20
523.21241182061567
 40
5.6255984051904617
 50
77.523742636759877
 51
144.22096019845179
  0
ARC
  8
_0-1_P-4B13
  6
CONTINUOUS
 62
    7
 10
725.76155458872972
 20
506.87513159869559
 40
10
 50
196.39199800270464
 51
253.6080019973777
  0
ARC
  8
_0-1_P-4B13
  6
CONTINUOUS
 62
    7
 10
460.3821192177038
 20
627.27963011454631
 40
296.9527295843609
 50
334.57943596562751
 51
337.35251433026377
  0
ARC
  8
_0-1_P-4B13
  6
CONTINUOUS
 62
    7
 10
846.16605310458181
 20
241.49569622766649
 40
296.9527295843609
 50
112.64748566966399
 51
115.42056403452369
  0
ARC
  8
_0-1_P-4B13
  6
CONTINUOUS
 62
    7
 10
732.59145773461205
 20
513.70503474457655
 40
2
 50
337.35251433026377
 51
112.64748566966395
  0
ARC
  8
_0-1_P-4B13
  6
CONTINUOUS
 62
    7
 10
723.84093863976386
 20
502.83450041976903
 40
5.6255984051904617
 50
260.77903980143731
 51
327.47625736308521
  0
ARC
  8
_0-1_P-4B13
  6
CONTINUOUS
 62
    7
 10
721.72092340980089
 20
504.95451564972609
 40
5.6255984051904617
 50
122.5237426367629
 51
189.22096019844307
  0
ARC
  8
_0-1_P-4B13
  6
CONTINUOUS
 62
    7
 10
740.62183632196002
 20
500.75102529974902
 40
10
 50
241.39199800262128
 51
298.60800199737872
  0
ARC
  8
_0-1_P-4B13
  6
CONTINUOUS
 62
    7
 10
467.83140059772677
 20
398.23826434735747
 40
296.9527295843609
 50
19.57943596551376
 51
22.35251433027652
  0
ARC
  8
_0-1_P-4B13
  6
CONTINUOUS
 62
    7
 10
1013.4122720461951
 20
398.23826434735747
 40
296.9527295843609
 50
157.64748566972349
 51
160.4205640344862
  0
ARC
  8
_0-1_P-4B13
  6
CONTINUOUS
 62
    7
 10
740.62183632196093
 20
510.40996695834838
 40
2
 50
22.35251433027652
 51
157.64748566972352
  0
ARC
  8
_0-1_P-4B13
  6
CONTINUOUS
 62
    7
 10
742.12091346728494
 20
496.53578703128733
 40
5.6255984051904617
 50
305.77903980154815
 51
12.476257363152536
  0
ARC
  8
_0-1_P-4B13
  6
CONTINUOUS
 62
    7
 10
739.1227591766351
 20
496.53578703128733
 40
5.6255984051904617
 50
167.5237426368474
 51
234.22096019845176
  0
ARC
  8
_0-1_P-4B13
  6
CONTINUOUS
 62
    7
 10
755.46003939856382
 20
506.9284341909588
 40
10
 50
286.39199800262213
 51
343.60800199729539
  0
ARC
  8
_0-1_P-4B13
  6
CONTINUOUS
 62
    7
 10
635.05554088271174
 20
241.54899881993697
 40
296.9527295843609
 50
64.579435965476307
 51
67.352514330335978
  0
ARC
  8
_0-1_P-4B13
  6
CONTINUOUS
 62
    7
 10
1020.8394747695897
 20
627.33293270681679
 40
296.9527295843609
 50
202.6474856697362
 51
205.42056403437246
  0
ARC
  8
_0-1_P-4B13
  6
CONTINUOUS
 62
    7
 10
748.63013625268104
 20
513.75833733684703
 40
2
 50
67.352514330335978
 51
202.6474856697362
  0
ARC
  8
_0-1_P-4B13
  6
CONTINUOUS
 62
    7
 10
759.50067057749311
 20
505.00781824199657
 40
5.6255984051904617
 50
350.77903980155691
 51
57.47625736323711
  0
ARC
  8
_0-1_P-4B13
  6
CONTINUOUS
 62
    7
 10
757.38065534753014
 20
502.88780301203587
 40
5.6255984051904617
 50
212.52374263691479
 51
279.22096019856269
  0
ARC
  8
_0-1_P-4B13
  6
CONTINUOUS
 62
    7
 10
761.58414569751312
 20
521.78871592419819
 40
10
 50
331.3919980027502
 51
28.608001997249744
  0
ARC
  8
_0-1_P-4B13
  6
CONTINUOUS
 62
    7
 10
864.09690664989694
 20
248.99828019995766
 40
296.9527295843609
 50
109.57943596557162
 51
112.35251433030061
  0
ARC
  8
_0-1_P-4B13
  6
CONTINUOUS
 62
    7
 10
864.09690664989694
 20
794.5791516484278
 40
296.9527295843609
 50
247.64748566969939
 51
250.42056403442839
  0
ARC
  8
_0-1_P-4B13
  6
CONTINUOUS
 62
    7
 10
751.92520403891103
 20
521.78871592419819
 40
2
 50
112.35251433030061
 51
247.64748566969939
  0
ARC
  8
_0-1_P-4B13
  6
CONTINUOUS
 62
    7
 10
765.7993839659739
 20
523.28779306951765
 40
5.6255984051904617
 50
35.779039801548151
 51
102.47625736324011
  0
ARC
  8
_0-1_P-4B13
  6
CONTINUOUS
 62
    7
 10
765.7993839659739
 20
520.28963877886781
 40
5.6255984051904617
 50
257.52374263675989
 51
324.22096019845179
  0
ARC
  8
_0-1_P-4B13
  6
CONTINUOUS
 62
    7
 10
755.40673680629698
 20
536.62691900079881
 40
10
 50
16.3919980027046
 51
73.608001997377755
  0
ARC
  8
_0-1_P-4B13
  6
CONTINUOUS
 62
    7
 10
1020.7861721773211
 20
416.22242048493717
 40
296.9527295843609
 50
154.57943596562751
 51
157.35251433026377
  0
ARC
  8
_0-1_P-4B13
  6
CONTINUOUS
 62
    7
 10
635.00223829044307
 20
802.00635437182791
 40
296.9527295843609
 50
292.64748566966409
 51
295.42056403452369
  0
ARC
  8
_0-1_P-4B13
  6
CONTINUOUS
 62
    7
 10
748.57683366041283
 20
529.79701585490693
 40
2
 50
157.3525143302638
 51
292.64748566966409
  0
ARC
  8
_0-1_P-4B13
  6
CONTINUOUS
 62
    7
 10
757.32735275526102
 20
540.66755017972901
 40
5.6255984051904617
 50
80.779039801437307
 51
147.47625736308521
  0
ARC
  8
_0-1_P-4B13
  6
CONTINUOUS
 62
    7
 10
759.44736798522399
 20
538.54753494975739
 40
5.6255984051904617
 50
302.5237426367629
 51
9.2209601984431693
  0
ARC
  8
_0-1_P-4B13
  6
CONTINUOUS
 62
    7
 10
758.64016748501399
 20
538.9902094316385
 40
4.4284205559315071
 50
291.15586166742844
 51
347.62360529839168
  0
LINE
  8
_0-1_P-4B13
  6
CONTINUOUS
 62
    7
 10
759.39827721092479
 20
534.36791767654722
 11
751.29913534496609
 21
530.65010174623603
  0
ARC
  8
_0-1_P-4B13
  6
CONTINUOUS
 62
    7
 10
756.96487119656194
 20
538.22822124810773
 40
5.5705262507269193
 50
12.97149585337606
 51
81.96869461502601
  0
LINE
  8
_0-1_P-4B13
  6
CONTINUOUS
 62
    7
 10
754.20348630394301
 20
542.1807679600679
 11
749.74610175670978
 21
533.76789164827642
  0
ARC
  8
_0-1_P-4B13
  6
CONTINUOUS
 62
    7
 10
741.13783154440898
 20
546.76621796886684
 40
4.4284205559315071
 50
336.15586166732282
 51
32.623605298477052
  0
LINE
  8
_0-1_P-4B13
  6
CONTINUOUS
 62
    7
 10
744.94234991712801
 20
544.03382865229651
 11
741.84428463744598
 21
535.67797766155854
  0
ARC
  8
_0-1_P-4B13
  6
CONTINUOUS
 62
    7
 10
740.49202519010305
 20
545.04279759105702
 40
5.5705262507269193
 50
57.971495853580223
 51
126.96869461496571
  0
LINE
  8
_0-1_P-4B13
  6
CONTINUOUS
 62
    7
 10
735.74455862408195
 20
545.88507619099619
 11
738.54151367373197
 21
536.78442746193832
  0
ARC
  8
_0-1_P-4B13
  6
CONTINUOUS
 62
    7
 10
723.2633427469591
 20
539.88866590590624
 40
4.4284205559315071
 50
21.155861667312429
 51
77.623605298417104
  0
LINE
  8
_0-1_P-4B13
  6
CONTINUOUS
 62
    7
 10
727.88563450204492
 20
540.64677563181613
 11
731.60345043235975
 21
532.54763376585834
  0
ARC
  8
_0-1_P-4B13
  6
CONTINUOUS
 62
    7
 10
724.02533093048305
 20
538.21336961745692
 40
5.5705262507269193
 50
102.97149585357721
 51
171.9686946150961
  0
ARC
  8
_0-1_P-4B13
  6
CONTINUOUS
 62
    7
 10
715.48733420972212
 20
522.38632996530578
 40
4.4284205559315071
 50
66.155861667254058
 51
122.62360529844102
  0
LINE
  8
_0-1_P-4B13
  6
CONTINUOUS
 62
    7
 10
718.21972352628973
 20
526.19084833802845
 11
726.57557451703178
 21
523.09278305833868
  0
ARC
  8
_0-1_P-4B13
  6
CONTINUOUS
 62
    7
 10
717.21075458753603
 20
521.74052361099893
 40
5.5705262507269193
 50
147.97149585354427
 51
216.96869461505946
  0
LINE
  8
_0-1_P-4B13
  6
CONTINUOUS
 62
    7
 10
716.36847598759095
 20
516.99305704497601
 11
725.469124716652
 21
519.79001209462876
  0
ARC
  8
_0-1_P-4B13
  6
CONTINUOUS
 62
    7
 10
722.36488627268409
 20
504.51184116785589
 40
4.4284205559315071
 50
111.15586166742838
 51
167.6236052983916
  0
LINE
  8
_0-1_P-4B13
  6
CONTINUOUS
 62
    7
 10
721.60677654677283
 20
509.13413292293626
 11
729.7059184127329
 21
512.85194885324745
  0
ARC
  8
_0-1_P-4B13
  6
CONTINUOUS
 62
    7
 10
724.04018256113613
 20
505.27382935137575
 40
5.5705262507269193
 50
192.9714958533761
 51
261.96869461502598
  0
LINE
  8
_0-1_P-4B13
  6
CONTINUOUS
 62
    7
 10
726.80156745375689
 20
501.32128263941559
 11
731.25895200098785
 21
509.73415895121798
  0
ARC
  8
_0-1_P-4B13
  6
CONTINUOUS
 62
    7
 10
739.86722221328773
 20
496.73583263061664
 40
4.4284205559315071
 50
156.1558616673228
 51
212.623605298477
  0
LINE
  8
_0-1_P-4B13
  6
CONTINUOUS
 62
    7
 10
736.06270384057007
 20
499.46822194718698
 11
739.1607691202521
 21
507.82407293792858
  0
ARC
  8
_0-1_P-4B13
  6
CONTINUOUS
 62
    7
 10
740.51302856759503
 20
498.45925300843737
 40
5.5705262507269193
 50
237.97149585358022
 51
306.96869461496578
  0
LINE
  8
_0-1_P-4B13
  6
CONTINUOUS
 62
    7
 10
745.26049513361613
 20
497.61697440848729
 11
742.46354008396474
 21
506.7176231375488
  0
ARC
  8
_0-1_P-4B13
  6
CONTINUOUS
 62
    7
 10
757.74171101073807
 20
503.61338469357725
 40
4.4284205559315071
 50
201.15586166731242
 51
257.62360529841709
  0
LINE
  8
_0-1_P-4B13
  6
CONTINUOUS
 62
    7
 10
753.11941925565407
 20
502.85527496766736
 11
749.40160332534015
 21
510.95441683362878
  0
ARC
  8
_0-1_P-4B13
  6
CONTINUOUS
 62
    7
 10
756.97972282721685
 20
505.28868098203748
 40
5.5705262507269193
 50
282.97149585357721
 51
351.96869461509613
  0
ARC
  8
_0-1_P-4B13
  6
CONTINUOUS
 62
    7
 10
765.51771954797596
 20
521.11572063417771
 40
4.4284205559315071
 50
246.15586166725407
 51
302.62360529844096
  0
LINE
  8
_0-1_P-4B13
  6
CONTINUOUS
 62
    7
 10
762.78533023140699
 20
517.31120226146595
 11
754.42947924066812
 21
520.40926754114844
  0
ARC
  8
_0-1_P-4B13
  6
CONTINUOUS
 62
    7
 10
763.79429917016296
 20
521.76152698848819
 40
5.5705262507269193
 50
327.97149585354441
 51
36.968694615059597
  0
LINE
  8
_0-1_P-4B13
  6
CONTINUOUS
 62
    7
 10
764.63657777010712
 20
526.50899355451838
 11
755.53592904104698
 21
523.71203850485836
  0
LINE
  8
_0-1_P-4B13
  6
CONTINUOUS
 62
    7
 10
762.09510033467586
 20
506.67185181002787
 11
751.81634193331001
 21
511.78552292435779
  0
LINE
  8
_0-1_P-4B13
  6
CONTINUOUS
 62
    7
 10
719.20296549968907
 20
535.4785807065964
 11
730.60216629356
 21
530.99803874222562
  0
ARC
  8
_0-1_P-4B13
  6
CONTINUOUS
 62
    7
 10
344.90201558326993
 20
38.067246411137603
 40
618.67978487883988
 50
27.858162990991541
 51
47.669236867526791
  0
ARC
  8
_0-8_P-6578
  6
CONTINUOUS
 62
    7
 10
863.58610767525806
 20
603.90476203726575
 40
143.49922210059782
 50
226.98886064975244
 51
263.46968127914658
  0
ARC
  8
_0-8_P-6578
  6
CONTINUOUS
 62
    7
 10
865.22947220196011
 20
603.90476203726575
 40
138.25167575466119
 50
225.48374435691582
 51
262.49963367754503
  0
ARC
  8
_0-1_P-4B13
  6
CONTINUOUS
 62
    7
 10
1888.4827106081029
 20
1471.5405751152286
 40
1485.7878976193731
 50
210.77045428032039
 51
218.36249134190871
  0
ARC
  8
_0-6_P-3DDA
  6
CONTINUOUS
 62
    7
 10
617.50961805650604
 20
441.49110017210842
 40
143.49922210059782
 50
46.49691224095524
 51
83.469681279147011
  0
ARC
  8
_0-6_P-3DDA
  6
CONTINUOUS
 62
    7
 10
615.86625352980309
 20
441.49110017210842
 40
138.25167575466119
 50
45.311492076561059
 51
82.499633677545731
  0
ARC
  8
_0-9_P-1A33
  6
CONTINUOUS
 62
    7
 10
777.27028653992511
 20
902.77898245612596
 40
37.467683633093003
 50
285.9261811296098
 51
334.4115476223505
  0
ARC
  8
_0-9_P-1A33
  6
CONTINUOUS
 62
    7
 10
778.11853814616506
 20
900.45640029082642
 40
41.173610155591803
 50
283.22558965963043
 51
357.06369361388801
  0
ARC
  8
_0-1_P-4B13
  6
CONTINUOUS
 62
    7
 10
779.58497109583095
 20
815.83201523623575
 40
42.374134059825828
 50
30.792746032421096
 51
79.189719364725448
  0
ARC
  8
_0-9_P-1A33
  6
CONTINUOUS
 62
    7
 10
776.26661493824577
 20
886.75276670035601
 40
21.4337948673348
 50
191.85031958405162
 51
262.7228893766495
  0
ARC
  8
_0-9_P-1A33
  6
CONTINUOUS
 62
    7
 10
776.26661493824577
 20
886.75276670035601
 40
27.433794867334804
 50
191.85031958405162
 51
264.29473066696448
  0
ARC
  8
_0-1_P-4B13
  6
CONTINUOUS
 62
    7
 10
779.58497109583095
 20
815.83201523623575
 40
42.374134059825828
 50
98.207131048498468
 51
102.68316152728111
  0
ARC
  8
_0-1_P-4B13
  6
CONTINUOUS
 62
    7
 10
778.952194605567
 20
812.29914480390653
 40
40.38722631760659
 50
97.722833664197495
 51
151.79534379068522
  0
ARC
  8
_0-1_P-4B13
  6
CONTINUOUS
 62
    7
 10
778.952194605567
 20
812.29914480390653
 40
40.38722631760659
 50
50.71653620431367
 51
77.750594338800141
  0
ARC
  8
_0-0_0
  6
CONTINUOUS
 62
    7
 10
743.91988060804294
 20
746.70862792799255
 40
13.443056935689558
 50
67.329810021291621
 51
104.42323625751744
  0
ARC
  8
_0-9_P-1A33
  6
CONTINUOUS
 62
    7
 10
727.88713374075814
 20
739.19432874490667
 40
43.303531476304677
 50
298.36013157357922
 51
306.90124314868336
  0
ARC
  8
_0-9_P-1A33
  6
CONTINUOUS
 62
    7
 10
717.19149431798587
 20
748.48124963740702
 40
62.222036054522448
 50
295.36514361012939
 51
310.70999987432009
  0
ARC
  8
_0-8_P-6578
  6
CONTINUOUS
 62
    7
 10
863.58610767525806
 20
603.90476203726575
 40
143.49922210059782
 50
137.36092735872228
 51
201.74288545845579
  0
ARC
  8
_0-8_P-6578
  6
CONTINUOUS
 62
    7
 10
865.22947220196011
 20
603.90476203726575
 40
138.25167575466119
 50
137.69440930768729
 51
200.75536304098736
  0
ARC
  8
_0-9_P-1A33
  6
CONTINUOUS
 62
    7
 10
744.15000781806884
 20
731.45766903342883
 40
30.640494882598411
 50
319.3758173010275
 51
10.757599871159183
  0
ARC
  8
_0-9_P-1A33
  6
CONTINUOUS
 62
    7
 10
727.88713374075814
 20
739.19432874490667
 40
43.303531476304677
 50
325.54570057535039
 51
344.26478793061978
  0
ARC
  8
_0-1_P-4B13
  6
CONTINUOUS
 62
    7
 10
808.13340676430107
 20
882.92630176223611
 40
132.89466133380941
 50
263.63418548809307
 51
276.22471253167504
  0
ARC
  8
_0-1_P-4B13
  6
CONTINUOUS
 62
    7
 10
807.6395028526299
 20
846.38296244332741
 40
96.914007264239928
 50
287.1827789116183
 51
341.15367595608927
  0
ARC
  8
_0-1_P-4B13
  6
CONTINUOUS
 62
    7
 10
802.88429090296677
 20
851.11119215289727
 40
109.450620366148
 50
288.82228438323034
 51
334.56804696251328
  0
ARC
  8
_0-8_P-6578
  6
CONTINUOUS
 62
    7
 10
863.58610767525806
 20
603.90476203726575
 40
143.49922210059782
 50
96.530318720853003
 51
99.91096853380003
  0
ARC
  8
_0-8_P-6578
  6
CONTINUOUS
 62
    7
 10
865.22947220196011
 20
603.90476203726575
 40
138.25167575466119
 50
97.500366322454269
 51
100.29444879390914
  0
ARC
  8
_0-8_P-6578
  6
CONTINUOUS
 62
    7
 10
863.58610767525806
 20
603.90476203726575
 40
143.49922210059782
 50
105.51802332788961
 51
131.7436772612231
  0
ARC
  8
_0-8_P-6578
  6
CONTINUOUS
 62
    7
 10
865.22947220196011
 20
603.90476203726575
 40
138.25167575466119
 50
106.11096583940564
 51
131.86595962901274
  0
ARC
  8
_0-1_P-4B13
  6
CONTINUOUS
 62
    7
 10
809.30605084361014
 20
866.79197526970893
 40
123.1000611457529
 50
261.14389294769552
 51
277.06257012636593
  0
ARC
  8
_0-1_P-4B13
  6
CONTINUOUS
 62
    7
 10
798.12096680579089
 20
813.56910353161584
 40
62.895603712899685
 50
245.82523000443146
 51
265.69401287215214
  0
ARC
  8
_0-1_P-4B13
  6
CONTINUOUS
 62
    7
 10
796.44726921294387
 20
803.77115632875575
 40
59.021688726190447
 50
242.73808434470624
 51
266.66028154489425
  0
ARC
  8
_0-1_P-4B13
  6
CONTINUOUS
 62
    7
 10
798.12096680579089
 20
813.56910353161584
 40
62.895603712899685
 50
229.42923063973828
 51
233.04715343525353
  0
ARC
  8
_0-1_P-4B13
  6
CONTINUOUS
 62
    7
 10
796.44726921294387
 20
803.77115632875575
 40
59.021688726190447
 50
224.25611591275998
 51
229.1002369629021
  0
ARC
  8
_0-9_P-1A33
  6
CONTINUOUS
 62
    7
 10
744.05356969264176
 20
727.93937002649909
 40
31.579695999999998
 50
66.826104653354065
 51
80.802544842361783
  0
ARC
  8
_0-9_P-1A33
  6
CONTINUOUS
 62
    7
 10
744.05356969264176
 20
727.93937002649909
 40
25.579694000000003
 50
68.713978267705841
 51
79.66832384242521
  0
ARC
  8
_0-9_P-1A33
  6
CONTINUOUS
 62
    7
 10
744.05356969264176
 20
727.93937002649909
 40
25.579694000000003
 50
30.369291496849513
 51
36.770612739761177
  0
ARC
  8
_0-9_P-1A33
  6
CONTINUOUS
 62
    7
 10
744.05356969264176
 20
727.93937002649909
 40
31.579695999999998
 50
17.00848284236536
 51
41.123483394703548
  0
ARC
  8
_0-0_0
  6
CONTINUOUS
 62
    7
 10
881.06519701966454
 20
694.57764019432466
 40
42.081768799497404
 50
271.96197194695287
 51
282.45593740999755
  0
ARC
  8
_0-0_0
  6
CONTINUOUS
 62
    7
 10
610.42471032442131
 20
614.33911035911126
 40
124.79467997858285
 50
261.02391243420152
 51
264.55817820900938
  0
ARC
  8
_0-6_P-3DDA
  6
CONTINUOUS
 62
    7
 10
615.86625352980309
 20
441.49110017210842
 40
138.25167575466119
 50
321.29793656739622
 51
20.028603959759103
  0
ARC
  8
_0-6_P-3DDA
  6
CONTINUOUS
 62
    7
 10
617.50961805650604
 20
441.49110017210842
 40
143.49922210059782
 50
320.68143627782285
 51
21.215911638405558
  0
ARC
  8
_0-b_P-6E6F
  6
CONTINUOUS
 62
    7
 10
770.23590584071871
 20
302.41527465415857
 40
62.222036054522448
 50
115.36514361012929
 51
130.76057643171174
  0
ARC
  8
_0-b_P-6E6F
  6
CONTINUOUS
 62
    7
 10
759.54026641794599
 20
311.70219554665891
 40
43.303531476304677
 50
118.3601315735791
 51
127.36896884321166
  0
ARC
  8
_0-b_P-6E6F
  6
CONTINUOUS
 62
    7
 10
759.54026641794599
 20
311.70219554665891
 40
43.303531476304677
 50
145.9705961498623
 51
164.2647879306198
  0
ARC
  8
_0-b_P-6E6F
  6
CONTINUOUS
 62
    7
 10
743.27739234063392
 20
319.43885525813675
 40
30.640494882598411
 50
139.42989525236567
 51
190.75759987115921
  0
ARC
  8
_0-0_0
  6
CONTINUOUS
 62
    7
 10
744.56464242891661
 20
318.85126780619532
 40
27.777397543877072
 50
257.02143979652197
 51
274.73160648243373
  0
ARC
  8
_0-b_P-6E6F
  6
CONTINUOUS
 62
    7
 10
743.37383046606192
 20
322.95715426506649
 40
25.579694000000003
 50
234.06333134450995
 51
234.086110624219
  0
ARC
  8
_0-b_P-6E6F
  6
CONTINUOUS
 62
    7
 10
743.37383046606192
 20
322.95715426506649
 40
25.579694000000003
 50
251.71242250654012
 51
259.6683238424252
  0
ARC
  8
_0-b_P-6E6F
  6
CONTINUOUS
 62
    7
 10
743.37383046606192
 20
322.95715426506649
 40
31.579695999999998
 50
249.11421063622399
 51
260.80254484236178
  0
ARC
  8
_0-1_P-4B13
  6
CONTINUOUS
 62
    7
 10
693.49688171442904
 20
246.03925975712627
 40
59.021688726190447
 50
44.256115912760002
 51
50.568815211468724
  0
ARC
  8
_0-1_P-4B13
  6
CONTINUOUS
 62
    7
 10
691.82318412158111
 20
236.24131255426619
 40
62.895603712899685
 50
49.429230639738293
 51
54.463154239022707
  0
ARC
  8
_0-b_P-6E6F
  6
CONTINUOUS
 62
    7
 10
743.37383046606192
 20
322.95715426506649
 40
25.579694000000003
 50
210.36929149684951
 51
219.92648183325079
  0
ARC
  8
_0-b_P-6E6F
  6
CONTINUOUS
 62
    7
 10
743.37383046606192
 20
322.95715426506649
 40
31.579695999999998
 50
197.00848284236531
 51
223.49153151580506
  0
ARC
  8
_0-1_P-4B13
  6
CONTINUOUS
 62
    7
 10
693.49688171442904
 20
246.03925975712627
 40
59.021688726190447
 50
64.190222177922934
 51
86.660281544894275
  0
ARC
  8
_0-1_P-4B13
  6
CONTINUOUS
 62
    7
 10
691.82318412158111
 20
236.24131255426619
 40
62.895603712899685
 50
67.254145832536935
 51
85.694012872152285
  0
ARC
  8
_0-1_P-4B13
  6
CONTINUOUS
 62
    7
 10
681.81074416307092
 20
166.88411432364589
 40
132.89466133380941
 50
83.634185488093038
 51
96.675346706934249
  0
ARC
  8
_0-1_P-4B13
  6
CONTINUOUS
 62
    7
 10
682.63385507838984
 20
213.66050406341671
 40
92.556784589548954
 50
79.444092015160621
 51
101.13728914525579
  0
ARC
  8
_0-6_P-3DDA
  6
CONTINUOUS
 62
    7
 10
617.50961805650604
 20
441.49110017210842
 40
143.49922210059782
 50
289.05516851165072
 51
315.08941595684792
  0
ARC
  8
_0-6_P-3DDA
  6
CONTINUOUS
 62
    7
 10
615.86625352980309
 20
441.49110017210842
 40
138.25167575466119
 50
289.82621214617677
 51
315.49226154624256
  0
ARC
  8
_0-6_P-3DDA
  6
CONTINUOUS
 62
    7
 10
615.86625352980309
 20
441.49110017210842
 40
138.25167575466119
 50
277.50036632245479
 51
284.02215413463034
  0
ARC
  8
_0-6_P-3DDA
  6
CONTINUOUS
 62
    7
 10
617.50961805650604
 20
441.49110017210842
 40
143.49922210059782
 50
276.53031872085342
 51
283.46416173601926
  0
ARC
  8
_0-1_P-4B13
  6
CONTINUOUS
 62
    7
 10
681.31329001380982
 20
203.09581463763607
 40
102.3838783569078
 50
107.10251688938025
 51
155.40903790318669
  0
ARC
  8
_0-1_P-4B13
  6
CONTINUOUS
 62
    7
 10
682.30464807474209
 20
203.42745364255825
 40
96.914007264239928
 50
107.78114890899072
 51
161.1536759560893
  0
ARC
  8
_0-b_P-6E6F
  6
CONTINUOUS
 62
    7
 10
711.16078522045791
 20
164.14375759120594
 40
21.4337948673348
 50
90.407095279187914
 51
90.535864288506758
  0
ARC
  8
_0-b_P-6E6F
  6
CONTINUOUS
 62
    7
 10
710.15711361877902
 20
148.11754183543599
 40
37.467683633093003
 50
100.94100796680435
 51
154.41154762235044
  0
ARC
  8
_0-b_P-6E6F
  6
CONTINUOUS
 62
    7
 10
709.30886201253907
 20
150.44012400073916
 40
41.173610155591803
 50
97.910734633990231
 51
177.06369361388789
  0
ARC
  8
_0-1_P-4B13
  6
CONTINUOUS
 62
    7
 10
710.35917983154195
 20
233.97840084964628
 40
42.374134059825828
 50
210.79274603242121
 51
260.99603403123075
  0
ARC
  8
_0-1_P-4B13
  6
CONTINUOUS
 62
    7
 10
710.99195632180499
 20
237.51127128197911
 40
40.38722631760659
 50
230.71653620431368
 51
260.39430506032068
  0
ARC
  8
_0-1_P-4B13
  6
CONTINUOUS
 62
    7
 10
710.99195632180499
 20
237.51127128197911
 40
40.38722631760659
 50
280.45676721087278
 51
331.79534379068525
  0
ARC
  8
_0-1_P-4B13
  6
CONTINUOUS
 62
    7
 10
710.35917983154195
 20
233.97840084964628
 40
42.374134059825828
 50
280.11316828773892
 51
282.68316152728107
  0
ARC
  8
_0-b_P-6E6F
  6
CONTINUOUS
 62
    7
 10
711.16078522045791
 20
164.14375759120594
 40
27.433794867334804
 50
11.850319584051688
 51
76.293100159515362
  0
ARC
  8
_0-b_P-6E6F
  6
CONTINUOUS
 62
    7
 10
711.16078522045791
 20
164.14375759120594
 40
21.4337948673348
 50
11.850319584051688
 51
73.941403804752682
  0
ENDSEC
  0
EOF
