  0
SECTION
  2
HEADER
  9
$ACADVER
  1
AC1009
  9
$INSBASE
 10
0
 20
0
 30
0
  9
$EXTMIN
 10
0
 20
0
  9
$EXTMAX
 10
2100
 20
1485
  9
$LIMMIN
 10
0
 20
0
  9
$LIMMAX
 10
2100
 20
1485
  9
$LTSCALE
 40
5
  0
ENDSEC
  0
SECTION
  2
TABLES
  0
TABLE
  2
LTYPE
 70
     9
  0
LTYPE
  2
CONTINUOUS
 70
    64
  3
実線
 72
    65
 73
     0
 40
0.0
  0
LTYPE
  2
DASHED1
 70
    64
  3
--  --  --  --  --  --  --  --  
 72
    65
 73
     2
 40
2.5
 49
1.25
 49
-1.25
  0
LTYPE
  2
DASHED2
 70
    64
  3
----    ----    ----    ----    
 72
    65
 73
     2
 40
5.0
 49
2.5
 49
-2.5
  0
LTYPE
  2
DASHED3
 70
    64
  3
------  ------  ------  ------  
 72
    65
 73
     2
 40
5.0
 49
3.75
 49
-1.25
  0
LTYPE
  2
CENTER1
 70
    64
  3
----- - ----- - ----- - ----- - 
 72
    65
 73
     4
 40
10.0
 49
6.25
 49
-1.25
 49
1.25
 49
-1.25
  0
LTYPE
  2
CENTER2
 70
    64
  3
----------  --  ----------  --  
 72
    65
 73
     4
 40
20.0
 49
12.5
 49
-2.5
 49
2.5
 49
-2.5
  0
LTYPE
  2
PHANTOM1
 70
    64
  3
--- - - --- - - --- - - --- - - 
 72
    65
 73
     6
 40
10.0
 49
3.25
 49
-1.25
 49
1.25
 49
-1.25
 49
1.25
 49
-1.25
  0
LTYPE
  2
PHANTOM2
 70
    64
  3
--------  -  -  --------  -  -  
 72
    65
 73
     6
 40
20.0
 49
10.0
 49
-2.5
 49
1.25
 49
-2.5
 49
1.25
 49
-2.5
  0
LTYPE
  2
DOT
 70
    64
  3
-   -   -   -   -   -   -   -   
 72
    65
 73
     2
 40
2.5
 49
0.625
 49
-1.875
  0
LTYPE
  2
DUMMY
 70
    64
  3
ダミー
 72
    65
 73
     0
 40
0.0
  0
LTYPE
  2
RAND1
 70
    64
  3
ランダム線1
 72
    65
 73
     4
 40
10.0
 49
1.0
 49
-2.0
 49
3.0
 49
-4.0
  0
LTYPE
  2
RAND2
 70
    64
  3
ランダム線2
 72
    65
 73
     4
 40
14.0
 49
2.0
 49
-3.0
 49
4.0
 49
-5.0
  0
LTYPE
  2
RAND3
 70
    64
  3
ランダム線3
 72
    65
 73
     4
 40
18.0
 49
3.0
 49
-4.0
 49
5.0
 49
-6.0
  0
LTYPE
  2
RAND4
 70
    64
  3
ランダム線4
 72
    65
 73
     4
 40
22.0
 49
4.0
 49
-5.0
 49
6.0
 49
-7.0
  0
LTYPE
  2
RAND5
 70
    64
  3
ランダム線5
 72
    65
 73
     4
 40
26.0
 49
5.0
 49
-6.0
 49
7.0
 49
-8.0
  0
LTYPE
  2
LONG1
 70
    64
  3
----------  --  ----------  --  
 72
    65
 73
     4
 40
40.0
 49
32.5
 49
-2.5
 49
2.5
 49
-2.5
  0
LTYPE
  2
LONG2
 70
    64
  3
--------  -  -  --------  -  -  
 72
    65
 73
     6
 40
40.0
 49
30.0
 49
-2.5
 49
1.25
 49
-2.5
 49
1.25
 49
-2.5
  0
LTYPE
  2
LONG3
 70
    64
  3
+++++++++++++++..+++++++++++++++
 72
    65
 73
     2
 40
40.0
 49
37.5
 49
-2.5
  0
LTYPE
  2
LONG4
 70
    64
  3
+++++++++++++++..+++++++++++++++
 72
    65
 73
     2
 40
80.0
 49
75.0
 49
-5.0
  0
LTYPE
  2
LONG5
 70
    64
  3
----------  --  ----------  --  
 72
    65
 73
     4
 40
60.0
 49
37.5
 49
-7.5
 49
7.5
 49
-7.5
  0
LTYPE
  2
dashed
 70
   64
  3
-------   -------------   ------
 72
   65
 73
    2
 40
7.5
 49
6
 49
-1.5
  0
LTYPE
  2
dashed_spaced
 70
   64
  3
----        --------        ----
 72
   65
 73
    2
 40
12
 49
6
 49
-6
  0
LTYPE
  2
long_dashed_dotted
 70
   64
  3
------------- --- --------------
 72
   65
 73
    4
 40
15.25
 49
12
 49
-1.5
 49
0.25
 49
-1.5
  0
LTYPE
  2
long_dashed_double-dotted
 70
   64
  3
----------- --- --- ------------
 72
   65
 73
    6
 40
17
 49
12
 49
-1.5
 49
0.25
 49
-1.5
 49
0.25
 49
-1.5
  0
LTYPE
  2
long_dashed_triplicate-dotted
 70
   64
  3
--------- --- --- --- ----------
 72
   65
 73
    8
 40
18.75
 49
12
 49
-1.5
 49
0.25
 49
-1.5
 49
0.25
 49
-1.5
 49
0.25
 49
-1.5
  0
LTYPE
  2
dotted
 70
   64
  3
   -       -       -       -    
 72
   65
 73
    2
 40
1.75
 49
0.25
 49
-1.5
  0
LTYPE
  2
chain
 70
   64
  3
-------------- -- --------------
 72
   65
 73
    4
 40
18.5
 49
12
 49
-1.5
 49
3.5
 49
-1.5
  0
LTYPE
  2
chain_double_dash
 70
   64
  3
------------ -- -- -------------
 72
   65
 73
    6
 40
23.5
 49
12
 49
-1.5
 49
3.5
 49
-1.5
 49
3.5
 49
-1.5
  0
LTYPE
  2
dashed_dotted
 70
   64
  3
-----------     -     ----------
 72
   65
 73
    4
 40
9.25
 49
6
 49
-1.5
 49
0.25
 49
-1.5
  0
LTYPE
  2
double-dashed_dotted
 70
   64
  3
------   -----------   -   -----
 72
   65
 73
    6
 40
16.75
 49
6
 49
-1.5
 49
6
 49
-1.5
 49
0.25
 49
-1.5
  0
LTYPE
  2
dashed_double-dotted
 70
   64
  3
---------    -    -    ---------
 72
   65
 73
    6
 40
11
 49
6
 49
-1.5
 49
0.25
 49
-1.5
 49
0.25
 49
-1.5
  0
LTYPE
  2
double-dashed_double-dotted
 70
   64
  3
-----   ---------   -   -   ----
 72
   65
 73
    8
 40
18.5
 49
6
 49
-1.5
 49
6
 49
-1.5
 49
0.25
 49
-1.5
 49
0.25
 49
-1.5
  0
LTYPE
  2
dashed_triplicate-dotted
 70
   64
  3
-------    -    -    -    ------
 72
   65
 73
    8
 40
12.75
 49
6
 49
-1.5
 49
0.25
 49
-1.5
 49
0.25
 49
-1.5
 49
0.25
 49
-1.5
  0
LTYPE
  2
double-dashed_triplicate-dotted
 70
   64
  3
-----  ---------  -  -  -  -----
 72
   65
 73
   10
 40
20.25
 49
6
 49
-1.5
 49
6
 49
-1.5
 49
0.25
 49
-1.5
 49
0.25
 49
-1.5
 49
0.25
 49
-1.5
  0
LTYPE
  2
undefined
 70
   64
  3
--------------------------------
 72
   65
 73
    0
 40
0
  0
LTYPE
  2
BORDER
 70
   64
  3
----     --------     -     ----
 72
   65
 73
    6
 40
1.76
 49
0.5
 49
-0.25
 49
0.5
 49
-0.25
 49
0.01
 49
-0.25
  0
LTYPE
  2
BORDER2
 70
   64
  3
----     --------     -     ----
 72
   65
 73
    6
 40
0.885
 49
0.25
 49
-0.125
 49
0.25
 49
-0.125
 49
0.01
 49
-0.125
  0
LTYPE
  2
BORDERX2
 70
   64
  3
----     --------     -     ----
 72
   65
 73
    6
 40
3.5099999999999998
 49
1
 49
-0.5
 49
1
 49
-0.5
 49
0.01
 49
-0.5
  0
LTYPE
  2
CENTER
 70
   64
  3
----------    ----    ----------
 72
   65
 73
    4
 40
2
 49
1.25
 49
-0.25
 49
0.25
 49
-0.25
  0
LTYPE
  2
CENTER2_21
 70
   64
  3
----------    ----    ----------
 72
   65
 73
    4
 40
1.125
 49
0.75
 49
-0.125
 49
0.125
 49
-0.125
  0
LTYPE
  2
CENTERX2
 70
   64
  3
----------    ----    ----------
 72
   65
 73
    4
 40
4
 49
2.5
 49
-0.5
 49
0.5
 49
-0.5
  0
LTYPE
  2
DASHDOT
 70
   64
  3
--------        -        -------
 72
   65
 73
    4
 40
1.01
 49
0.5
 49
-0.25
 49
0.01
 49
-0.25
  0
LTYPE
  2
DASHDOT2
 70
   64
  3
--------        -        -------
 72
   65
 73
    4
 40
0.51
 49
0.25
 49
-0.125
 49
0.01
 49
-0.125
  0
LTYPE
  2
DASHDOTX2
 70
   64
  3
--------        -        -------
 72
   65
 73
    4
 40
2.0099999999999998
 49
1
 49
-0.5
 49
0.01
 49
-0.5
  0
LTYPE
  2
DASHED
 70
   64
  3
------     -----------     -----
 72
   65
 73
    2
 40
0.75
 49
0.5
 49
-0.25
  0
LTYPE
  2
DASHED2_27
 70
   64
  3
------     -----------     -----
 72
   65
 73
    2
 40
0.375
 49
0.25
 49
-0.125
  0
LTYPE
  2
DASHEDX2
 70
   64
  3
------     -----------     -----
 72
   65
 73
    2
 40
1.5
 49
1
 49
-0.5
  0
LTYPE
  2
DIVIDE
 70
   64
  3
------      -      -      ------
 72
   65
 73
    6
 40
1.27
 49
0.5
 49
-0.25
 49
0.01
 49
-0.25
 49
0.01
 49
-0.25
  0
LTYPE
  2
DIVIDE2
 70
   64
  3
------      -      -      ------
 72
   65
 73
    6
 40
0.645
 49
0.25
 49
-0.125
 49
0.01
 49
-0.125
 49
0.01
 49
-0.125
  0
LTYPE
  2
DIVIDEX2
 70
   64
  3
------      -      -      ------
 72
   65
 73
    6
 40
2.5199999999999996
 49
1
 49
-0.5
 49
0.01
 49
-0.5
 49
0.01
 49
-0.5
  0
LTYPE
  2
DOT_32
 70
   64
  3
-               -               
 72
   65
 73
    2
 40
0.26
 49
0.01
 49
-0.25
  0
ENDTAB
  0
TABLE
  2
STYLE
  5
3
100
AcDbSymbolTable
 70
     1
  0
STYLE
  5
10
100
AcDbSymbolTableRecord
100
AcDbTextStyleTableRecord
  2
STANDARD
 70
     0
 40
0.0
 41
1.0
 50
0.0
 71
     0
 42
0.2
  3
txt
  4
bigfont.shx
  0
STYLE
  5
26
100
AcDbSymbolTableRecord
100
AcDbTextStyleTableRecord
  2
TATEGAKI
 70
    68
 40
0.0
 41
1.0
 50
0.0
 71
     0
 42
1.0
  3
txt
  4
bigfont.shx
  0
ENDTAB
  0
TABLE
  2
LAYER
 70
    2
  0
LAYER
  2
_0-0_0
 70
   64
 62
    7
  6
CONTINUOUS
  0
LAYER
  2
ADD_LINE
 70
   64
 62
    7
  6
CONTINUOUS
  0
ENDTAB
  0
ENDSEC
  0
SECTION
  2
BLOCKS
  0
ENDSEC
  0
SECTION
  2
ENTITIES
  0
ARC
  8
_0-0_0
  6
CONTINUOUS
 62
    7
 10
859.47173120403193
 20
947.42247259642863
 40
146.2595552363743
 50
321.94859804610519
 51
3.6989044697063607
  0
ARC
  8
_0-0_0
  6
CONTINUOUS
 62
    7
 10
859.47173120403193
 20
947.42247259642863
 40
140.2595552363743
 50
321.94859804610519
 51
3.6989044697063607
  0
ARC
  8
_0-0_0
  6
CONTINUOUS
 62
    7
 10
933.26619870046102
 20
940.06991305618374
 40
10.891336000000001
 50
56.510591000004233
 51
146.9882250000058
  0
ARC
  8
_0-0_0
  6
CONTINUOUS
 62
    7
 10
934.80783970046105
 20
938.01742305618393
 40
12.110335000000001
 50
319.22787900000759
 51
131.83468599999787
  0
ARC
  8
_0-0_0
  6
CONTINUOUS
 62
    7
 10
916.03791170046122
 20
948.69991805618372
 40
2.6729689999999988
 50
342.53712900000443
 51
138.53986900001499
  0
ARC
  8
_0-0_0
  6
CONTINUOUS
 62
    7
 10
915.11173370046095
 20
949.1313140561839
 40
3.311720999999999
 50
25.127271999999291
 51
138.31858399999521
  0
ARC
  8
_0-0_0
  6
CONTINUOUS
 62
    7
 10
914.01883870046049
 20
937.8204010561841
 40
1.8192159999999991
 50
115.11461499999811
 51
281.60973800000301
  0
ARC
  8
_0-0_0
  6
CONTINUOUS
 62
    7
 10
896.83895270046094
 20
897.76730105618367
 40
37.811022999999999
 50
66.21727699999488
 51
95.892632000017727
  0
ARC
  8
_0-0_0
  6
CONTINUOUS
 62
    7
 10
818.80900070046096
 20
660.23251505618407
 40
284.51690200000002
 50
70.391042000016242
 51
73.891513999981385
  0
ARC
  8
_0-0_0
  6
CONTINUOUS
 62
    7
 10
905.25823370046112
 20
950.43575705618377
 40
13.568878
 50
306.06716999999662
 51
349.21975900000501
  0
ARC
  8
_0-0_0
  6
CONTINUOUS
 62
    7
 10
883.08483270046111
 20
980.67208505618385
 40
45.496851999999997
 50
278.02514499999438
 51
314.49510399999201
  0
ARC
  8
_0-0_0
  6
CONTINUOUS
 62
    7
 10
904.06089170046073
 20
960.050625056184
 40
26.137607000000003
 50
293.26529199998663
 51
330.14833999999291
  0
ARC
  8
_0-0_0
  6
CONTINUOUS
 62
    7
 10
907.51246070046022
 20
957.54940505618367
 40
20.237431999999998
 50
283.06404900000848
 51
325.21377500000432
  0
ARC
  8
_0-0_0
  6
CONTINUOUS
 62
    7
 10
917.07732570046062
 20
946.41378505618366
 40
14.906537000000002
 50
250.4409889999821
 51
353.75527700000129
  0
ARC
  8
_0-0_0
  6
CONTINUOUS
 62
    7
 10
919.96404370046093
 20
945.653653056184
 40
18.305446
 50
251.95136199998601
 51
340.69169400000862
  0
ARC
  8
_0-0_0
  6
CONTINUOUS
 62
    7
 10
865.26749670046115
 20
1022.9705460561842
 40
87.376249999999999
 50
282.22314300001648
 51
303.92650699999803
  0
ARC
  8
_0-0_0
  6
CONTINUOUS
 62
    7
 10
-4075.7472462995393
 20
11088.913023056175
 40
11298.430496000001
 50
296.04583400000809
 51
296.20036000000107
  0
ARC
  8
_0-0_0
  6
CONTINUOUS
 62
    7
 10
900.07944670046072
 20
912.27657805618367
 40
14.616853000000001
 50
311.85244899999202
 51
4.4343490000006422
  0
ARC
  8
_0-0_0
  6
CONTINUOUS
 62
    7
 10
906.42273870046097
 20
906.66476205618346
 40
5.1678009999999999
 50
138.65126899999359
 51
208.11213499999664
  0
ARC
  8
_0-0_0
  6
CONTINUOUS
 62
    7
 10
899.87993770046103
 20
887.91610505618394
 40
2.2344499999999989
 50
102.06923400000382
 51
294.70050599998649
  0
ARC
  8
_0-0_0
  6
CONTINUOUS
 62
    7
 10
900.36432770046076
 20
888.78658805618397
 40
3.3275669999999993
 50
125.56683999999321
 51
224.83762899999601
  0
ARC
  8
_0-0_0
  6
CONTINUOUS
 62
    7
 10
906.6034487004606
 20
905.1642740561839
 40
4.9675169999999991
 50
135.01207600000771
 51
310.53662699999359
  0
ARC
  8
_0-0_0
  6
CONTINUOUS
 62
    7
 10
887.74749170046107
 20
907.56442005618385
 40
21.001031999999999
 50
303.7424190000084
 51
339.66910500001018
  0
ARC
  8
_0-0_0
  6
CONTINUOUS
 62
    7
 10
888.91236270046079
 20
906.60043105618399
 40
17.854568
 50
302.20827700001638
 51
339.32215899999971
  0
ARC
  8
_0-0_0
  6
CONTINUOUS
 62
    7
 10
888.71183170046152
 20
915.47750605618364
 40
31.970448999999999
 50
292.24281199999649
 51
4.0747020000008076
  0
ARC
  8
_0-0_0
  6
CONTINUOUS
 62
    7
 10
884.22419813879628
 20
849.8859331018698
 40
1.4999679999999991
 50
325.32133450952023
 51
145.32576850953069
  0
LINE
  8
_0-0_0
  6
CONTINUOUS
 62
    7
 10
863.47874227464445
 20
841.87062879661437
 11
873.944631637616
 21
856.9978732766067
  0
LINE
  8
_0-0_0
  6
CONTINUOUS
 62
    7
 10
865.96574456310691
 20
840.19248016679046
 11
876.41172902604978
 21
855.29097854872191
  0
ARC
  8
_0-0_0
  6
CONTINUOUS
 62
    7
 10
864.73184958482648
 20
841.04616711212327
 40
1.5000049999999989
 50
145.32203950952251
 51
325.32239950953112
  0
ARC
  8
_0-0_0
  6
CONTINUOUS
 62
    7
 10
875.17818033183346
 20
856.14442591266413
 40
1.5000049999999989
 50
325.32133450952023
 51
145.32203950952251
  0
ARC
  8
_0-0_0
  6
CONTINUOUS
 62
    7
 10
913.13301833687547
 20
891.25630616188255
 40
58.300594494875533
 50
163.8757028411375
 51
222.7045387736753
  0
ARC
  8
_0-0_0
  6
CONTINUOUS
 62
    7
 10
913.13301833687547
 20
891.25630616188255
 40
52.30059449487554
 50
163.8757028411375
 51
221.2287287784354
  0
LINE
  8
_0-0_0
  6
CONTINUOUS
 62
    7
 10
876.41172902604978
 20
855.29097854872191
 11
882.99065442324661
 21
850.73925856744142
  0
ARC
  8
_0-0_0
  6
CONTINUOUS
 62
    7
 10
891.3509007004609
 20
917.44784305618384
 40
14.654475
 50
323.23236399999359
 51
115.45040100001847
  0
ARC
  8
_0-0_0
  6
CONTINUOUS
 62
    7
 10
918.54538870046099
 20
949.92733505618378
 40
32.243656000000001
 50
273.65611899999521
 51
322.0734179999933
  0
ARC
  8
_0-0_0
  6
CONTINUOUS
 62
    7
 10
888.40508470046075
 20
917.06515205618371
 40
15.770129000000001
 50
333.70386399999938
 51
70.243469000016631
  0
ARC
  8
_0-0_0
  6
CONTINUOUS
 62
    7
 10
921.05722970046031
 20
943.97457605618365
 40
22.149341000000003
 50
237.77137099999726
 51
330.06370100000117
  0
ARC
  8
_0-0_0
  6
CONTINUOUS
 62
    7
 10
889.27773470046077
 20
915.3511630561834
 40
22.280925000000003
 50
325.85567599999831
 51
26.342122000005709
  0
ARC
  8
_0-0_0
  6
CONTINUOUS
 62
    7
 10
894.92864370046107
 20
909.44027505618408
 40
21.401081000000005
 50
298.08352599998659
 51
37.268902999997977
  0
ARC
  8
_0-0_0
  6
CONTINUOUS
 62
    7
 10
903.94609826538556
 20
892.88843969791651
 40
49.03165927509324
 50
114.30272717726821
 51
162.72638052123693
  0
ARC
  8
_0-0_0
  6
CONTINUOUS
 62
    7
 10
899.84434435483195
 20
895.19772919793002
 40
38.441872175569593
 50
112.6288586506107
 51
164.19788666638331
  0
ARC
  8
_0-0_0
  6
CONTINUOUS
 62
    7
 10
873.77787241126498
 20
834.7875514037911
 40
1.5000049999999989
 50
145.32203950952251
 51
327.79842550953322
  0
ARC
  8
_0-0_0
  6
CONTINUOUS
 62
    7
 10
919.74151590160375
 20
905.37963912008638
 40
72.997719080422641
 50
238.35774504548209
 51
318.77488189995626
  0
ARC
  8
_0-0_0
  6
CONTINUOUS
 62
    7
 10
919.74764974119637
 20
905.39683624802944
 40
67.014550890404237
 50
238.63307071797624
 51
318.47635947989488
  0
LINE
  8
_0-0_0
  6
CONTINUOUS
 62
    7
 10
885.45774683301318
 20
849.03248573792769
 11
875.0493889291414
 21
833.98819944535217
  0
LINE
  8
_0-0_0
  6
CONTINUOUS
 62
    7
 10
872.54432367623963
 20
835.64099976690034
 11
865.9653982790428
 21
840.19271974818048
  0
LINE
  8
_0-0_0
  6
CONTINUOUS
 62
    7
 10
872.52445710200391
 20
835.61154476695276
 11
882.99065442324661
 21
850.73925856744142
  0
ARC
  8
_0-0_0
  6
CONTINUOUS
 62
    7
 10
857.31535349073283
 20
942.44439495013978
 40
148.81095206296419
 50
5.5583546531654422
 51
96.333659401436933
  0
ARC
  8
_0-0_0
  6
CONTINUOUS
 62
    7
 10
857.31535349073283
 20
942.44439495013978
 40
142.81095206296419
 50
5.7324898709890926
 51
96.333659401436904
  0
ARC
  8
_0-0_0
  6
CONTINUOUS
 62
    7
 10
851.00073052509345
 20
892.31102488513284
 40
195.12514186390351
 50
122.10324448477679
 51
231.00043384496766
  0
ARC
  8
_0-0_0
  6
CONTINUOUS
 62
    7
 10
851.01037877906549
 20
892.30530244229521
 40
189.13511689936394
 50
122.10479908554052
 51
230.90279808958411
  0
ARC
  8
_0-0_0
  6
CONTINUOUS
 62
    7
 10
855.21190553506301
 20
899.25844216448422
 40
191.62390788936921
 50
94.283626684058987
 51
124.3706994535075
  0
ARC
  8
_0-0_0
  6
CONTINUOUS
 62
    7
 10
855.21190553506301
 20
899.25844216448422
 40
185.62390788936909
 50
94.283626684058987
 51
124.3706994535075
  0
ARC
  8
_0-0_0
  6
CONTINUOUS
 62
    7
 10
852.51513683841495
 20
799.28432647420277
 40
2.9852678330947775
 50
24.215240243125589
 51
122.5553886676088
  0
ARC
  8
_0-0_0
  6
CONTINUOUS
 62
    7
 10
857.13129787188677
 20
797.16061015888374
 40
7.7620371615583128
 50
143.28973928951484
 51
237.29665584934813
  0
ARC
  8
_0-0_0
  6
CONTINUOUS
 62
    7
 10
852.02338070826272
 20
789.94614072860929
 40
1.1410775014597541
 50
266.7048340260834
 51
36.759715936926852
  0
ARC
  8
_0-0_0
  6
CONTINUOUS
 62
    7
 10
869.27307606538932
 20
812.67347996530498
 40
29.486106433181369
 50
208.0366541304266
 51
234.0389412025587
  0
ARC
  8
_0-0_0
  6
CONTINUOUS
 62
    7
 10
838.18518651052727
 20
796.71256125746424
 40
5.4808987754449419
 50
22.54441204760419
 51
66.146031105023738
  0
ARC
  8
_0-0_0
  6
CONTINUOUS
 62
    7
 10
858.32660083952533
 20
805.7502974920618
 40
27.148902488516242
 50
205.42754918823005
 51
256.21853338584719
  0
ARC
  8
_0-0_0
  6
CONTINUOUS
 62
    7
 10
851.39424197924427
 20
804.30827351406595
 40
24.929635630106404
 50
271.06869311323231
 51
295.49865077425142
  0
ARC
  8
_0-0_0
  6
CONTINUOUS
 62
    7
 10
885.47953992615987
 20
762.37464835904711
 40
30.380763554859712
 50
140.23626223991104
 51
203.5051514652038
  0
LINE
  8
_0-0_0
  6
CONTINUOUS
 62
    7
 10
857.61963927970442
 20
750.25783636987001
 11
859.1211137369487
 21
748.26103938672998
  0
LINE
  8
_0-0_0
  6
CONTINUOUS
 62
    7
 10
859.1211137369487
 20
748.26103938672998
 11
860.81003130257045
 21
746.67168636430745
  0
LINE
  8
_0-0_0
  6
CONTINUOUS
 62
    7
 10
860.81003130257045
 20
746.67168636430745
 11
862.06669592453807
 21
745.66425301292395
  0
LINE
  8
_0-0_0
  6
CONTINUOUS
 62
    7
 10
862.06669592453807
 20
745.66425301292395
 11
862.9556969668954
 21
745.41149618104657
  0
LINE
  8
_0-0_0
  6
CONTINUOUS
 62
    7
 10
862.9556969668954
 20
745.41149618104657
 11
864.01953409212638
 21
745.34453445663291
  0
LINE
  8
_0-0_0
  6
CONTINUOUS
 62
    7
 10
864.01953409212638
 20
745.34453445663291
 11
864.85898162369665
 21
745.6638797961715
  0
LINE
  8
_0-0_0
  6
CONTINUOUS
 62
    7
 10
864.85898162369665
 20
745.6638797961715
 11
865.63310533151935
 21
746.27824610464461
  0
LINE
  8
_0-0_0
  6
CONTINUOUS
 62
    7
 10
865.63310533151935
 20
746.27824610464461
 11
866.08280955050191
 21
746.96436716281778
  0
LINE
  8
_0-0_0
  6
CONTINUOUS
 62
    7
 10
866.08280955050191
 20
746.96436716281778
 11
866.65295799901344
 21
747.36198879567485
  0
LINE
  8
_0-0_0
  6
CONTINUOUS
 62
    7
 10
866.65295799901344
 20
747.36198879567485
 11
869.2743209261954
 21
746.76348198957828
  0
LINE
  8
_0-0_0
  6
CONTINUOUS
 62
    7
 10
869.2743209261954
 20
746.76348198957828
 11
870.41999846236706
 21
746.21079302483531
  0
LINE
  8
_0-0_0
  6
CONTINUOUS
 62
    7
 10
870.41999846236706
 20
746.21079302483531
 11
871.50034626752586
 21
745.95312985726525
  0
LINE
  8
_0-0_0
  6
CONTINUOUS
 62
    7
 10
871.50034626752586
 20
745.95312985726525
 11
872.16496737269608
 21
746.08669190387002
  0
LINE
  8
_0-0_0
  6
CONTINUOUS
 62
    7
 10
872.16496737269608
 20
746.08669190387002
 11
872.85557186526773
 21
746.195804454935
  0
ARC
  8
_0-0_0
  6
CONTINUOUS
 62
    7
 10
869.59357915352712
 20
750.14611455314127
 40
5.1230367850804805
 50
309.54852065169632
 51
358.28954970104479
  0
ARC
  8
_0-0_0
  6
CONTINUOUS
 62
    7
 10
891.02627377798456
 20
750.67438806286543
 40
16.32615828028085
 50
139.96190720133961
 51
182.3912882122662
  0
ARC
  8
_0-0_0
  6
CONTINUOUS
 62
    7
 10
870.81531924100318
 20
765.51609425381366
 40
8.8483494393773459
 50
330.63382688372582
 51
33.987683662286159
  0
ARC
  8
_0-0_0
  6
CONTINUOUS
 62
    7
 10
885.31194656875414
 20
776.19804216141131
 40
9.1739834372105662
 50
134.7852795086242
 51
218.69704946243436
  0
ARC
  8
_0-0_0
  6
CONTINUOUS
 62
    7
 10
890.90902906101178
 20
785.2415558614781
 40
12.32269745584283
 50
191.85850413778911
 51
260.2128245973675
  0
ARC
  8
_0-0_0
  6
CONTINUOUS
 62
    7
 10
883.03578543834647
 20
776.23810800145986
 40
6.5764926884100934
 50
331.48148068046657
 51
50.393087708984318
  0
LINE
  8
_0-0_0
  6
CONTINUOUS
 62
    7
 10
853.04297178890522
 20
789.59567345934659
 11
850.41067018847912
 21
790.96348153850943
  0
LINE
  8
_0-0_0
  6
CONTINUOUS
 62
    7
 10
850.41067018847912
 20
790.96348153850943
 11
847.36671168980763
 21
794.2366777949776
  0
LINE
  8
_0-0_0
  6
CONTINUOUS
 62
    7
 10
847.36671168980763
 20
794.2366777949776
 11
846.14791563115034
 21
795.90909772188741
  0
LINE
  8
_0-0_0
  6
CONTINUOUS
 62
    7
 10
846.14791563115034
 20
795.90909772188741
 11
845.3205387357599
 21
798.2057253420179
  0
LINE
  8
_0-0_0
  6
CONTINUOUS
 62
    7
 10
845.3205387357599
 20
798.2057253420179
 11
843.80255950585422
 21
800.39321894007787
  0
LINE
  8
_0-0_0
  6
CONTINUOUS
 62
    7
 10
843.80255950585422
 20
800.39321894007787
 11
842.12699308191247
 21
801.73645481288361
  0
LINE
  8
_0-0_0
  6
CONTINUOUS
 62
    7
 10
842.12699308191247
 20
801.73645481288361
 11
840.29071696043559
 21
802.18002639832378
  0
LINE
  8
_0-0_0
  6
CONTINUOUS
 62
    7
 10
840.29071696043559
 20
802.18002639832378
 11
838.58528280762016
 21
803.96008569214075
  0
ARC
  8
_0-0_0
  6
CONTINUOUS
 62
    7
 10
844.42901001431721
 20
809.02385230805578
 40
8.3359774301055456
 50
193.44635919529142
 51
241.11034362575964
  0
ARC
  8
_0-0_0
  6
CONTINUOUS
 62
    7
 10
835.34895792527607
 20
806.85291932841119
 40
0.9999999850988389
 50
13.446258563685534
 51
150.31409707724447
  0
ARC
  8
_0-0_0
  6
CONTINUOUS
 62
    7
 10
847.27468416544696
 20
800.05451731078267
 40
14.727389116177122
 50
150.31415171875943
 51
203.8763312654556
  0
LINE
  8
_0-0_0
  6
CONTINUOUS
 62
    7
 10
838.58528280762016
 20
803.96008569214075
 11
837.85354693629131
 21
804.84021045035797
  0
LINE
  8
_0-0_0
  6
CONTINUOUS
 62
    7
 10
837.85354693629131
 20
804.84021045035797
 11
837.58584716712051
 21
805.16253348377006
  0
LINE
  8
_0-0_0
  6
CONTINUOUS
 62
    7
 10
837.58584716712051
 20
805.16253348377006
 11
837.29948849750599
 21
805.73706583977707
  0
LINE
  8
_0-0_0
  6
CONTINUOUS
 62
    7
 10
837.29948849750599
 20
805.73706583977707
 11
837.14225287144927
 21
806.26047233882502
  0
LINE
  8
_0-0_0
  6
CONTINUOUS
 62
    7
 10
837.14225287144927
 20
806.26047233882502
 11
837.00261113546048
 21
806.64217082213088
  0
LINE
  8
_0-0_0
  6
CONTINUOUS
 62
    7
 10
837.00261113546048
 20
806.64217082213088
 11
836.92322466376538
 21
807.11578259864712
  0
LINE
  8
_0-0_0
  6
CONTINUOUS
 62
    7
 10
836.92322466376538
 20
807.11578259864712
 11
835.6373404333749
 21
807.84875184344048
  0
ARC
  8
_0-0_0
  6
CONTINUOUS
 62
    7
 10
887.70603050728937
 20
775.79627617527331
 40
10.823148566139512
 50
143.810937364697
 51
214.06538890324319
  0
ARC
  8
_0-0_0
  6
CONTINUOUS
 62
    7
 10
868.70151111738778
 20
808.38749624856882
 40
15.599602466827591
 50
210.33525867294532
 51
326.25327822934514
  0
ARC
  8
_0-0_0
  6
CONTINUOUS
 62
    7
 10
898.85706910658655
 20
789.95948609543257
 40
14.495789311888972
 50
182.224549634254
 51
216.65842924049679
  0
ARC
  8
_0-0_0
  6
CONTINUOUS
 62
    7
 10
894.36466721543752
 20
789.7849787940761
 40
9.9999998509883898
 50
148.91090301416023
 51
182.22452231349183
  0
LINE
  8
_0-0_0
  6
CONTINUOUS
 62
    7
 10
885.80100377178212
 20
794.94867311383268
 11
886.81079133816525
 21
796.62334318582282
  0
ARC
  8
_0-0_0
  6
CONTINUOUS
 62
    7
 10
865.13674252177111
 20
800.95293902796686
 40
14.265332963089152
 50
185.28373672198049
 51
275.20812584462868
  0
LINE
  8
_0-0_0
  6
CONTINUOUS
 62
    7
 10
867.16717913707726
 20
787.16365798067829
 11
869.27127951494356
 21
787.57737056495966
  0
LINE
  8
_0-0_0
  6
CONTINUOUS
 62
    7
 10
869.83197081972207
 20
787.80874723649265
 11
870.41863585542671
 21
788.01566259795447
  0
LINE
  8
_0-0_0
  6
CONTINUOUS
 62
    7
 10
871.24157270706917
 20
788.52570938065003
 11
871.91565095597298
 21
788.82551638857888
  0
LINE
  8
_0-0_0
  6
CONTINUOUS
 62
    7
 10
872.57322818142427
 20
789.31603665419573
 11
873.34735188924697
 21
789.93040296266815
  0
LINE
  8
_0-0_0
  6
CONTINUOUS
 62
    7
 10
873.80095010617765
 20
790.20416190990079
 11
874.4616616496603
 21
790.75007908115322
  0
LINE
  8
_0-0_0
  6
CONTINUOUS
 62
    7
 10
875.86421965728732
 20
791.82399944432279
 11
877.08803792761842
 21
793.12447499643849
  0
LINE
  8
_0-0_0
  6
CONTINUOUS
 62
    7
 10
879.11122292620405
 20
795.48265000712593
 11
880.79422187219961
 21
797.63551520780072
  0
ARC
  8
_0-0_0
  6
CONTINUOUS
 62
    7
 10
858.57194293539123
 20
797.05106476178628
 40
8.3188656521012536
 50
172.30946454447147
 51
243.01657599856685
  0
ARC
  8
_0-0_0
  6
CONTINUOUS
 62
    7
 10
867.81045876114774
 20
806.90643992087928
 40
16.36571287563871
 50
205.39949077113309
 51
296.7599886384719
  0
ARC
  8
_0-0_0
  6
CONTINUOUS
 62
    7
 10
857.02478553508968
 20
803.29618293680016
 40
21.915059716775119
 50
170.42053474836069
 51
304.77647921447669
  0
ARC
  8
_0-0_0
  6
CONTINUOUS
 62
    7
 10
860.38681649639329
 20
803.88160937302143
 40
20.425899201245624
 50
186.93407435000515
 51
289.61135555877331
  0
ARC
  8
_0-0_0
  6
CONTINUOUS
 62
    7
 10
884.0788006985116
 20
764.92194628092022
 40
24.774230587866452
 50
127.0201740450298
 51
223.3220983985338
  0
LINE
  8
_0-0_0
  6
CONTINUOUS
 62
    7
 10
869.24974957697543
 20
784.79517411497284
 11
872.05800581752726
 21
786.9984069187102
  0
LINE
  8
_0-0_0
  6
CONTINUOUS
 62
    7
 10
872.91954273854913
 20
787.70566487364988
 11
876.08303644868897
 21
790.85907349357569
  0
LINE
  8
_0-0_0
  6
CONTINUOUS
 62
    7
 10
877.01546624650916
 20
791.84991272360833
 11
877.84398180767653
 21
792.93857356486239
  0
LINE
  8
_0-0_0
  6
CONTINUOUS
 62
    7
 10
880.45550689706943
 20
796.49462829198058
 11
880.4389844026116
 21
796.68533939161216
  0
ARC
  8
_0-0_0
  6
CONTINUOUS
 62
    7
 10
896.9604576415918
 20
766.73289506165804
 40
27.910098613648145
 50
146.23387867086689
 51
216.16660097873452
  0
ARC
  8
_0-0_0
  6
CONTINUOUS
 62
    7
 10
893.77767560765903
 20
765.82468112989147
 40
29.913747341726022
 50
127.28409255456232
 51
218.57869594450969
  0
LINE
  8
_0-0_0
  6
CONTINUOUS
 62
    7
 10
880.19806061700422
 20
789.08847512539739
 11
879.25300448073074
 21
787.8759634130497
  0
LINE
  8
_0-0_0
  6
CONTINUOUS
 62
    7
 10
879.25300448073074
 20
787.8759634130497
 11
878.36064957895985
 21
786.14677489222106
  0
LINE
  8
_0-0_0
  6
CONTINUOUS
 62
    7
 10
878.36064957895985
 20
786.14677489222106
 11
877.99836822965119
 21
785.55355729504515
  0
LINE
  8
_0-0_0
  6
CONTINUOUS
 62
    7
 10
876.62160894473175
 20
782.52866960462018
 11
875.0921067155997
 21
779.70591606490029
  0
LINE
  8
_0-0_0
  6
CONTINUOUS
 62
    7
 10
875.0921067155997
 20
779.70591606490029
 11
874.86121928801879
 21
778.05486905597934
  0
LINE
  8
_0-0_0
  6
CONTINUOUS
 62
    7
 10
874.86121928801879
 20
778.05486905597934
 11
874.68471189925253
 21
776.87812623631419
  0
LINE
  8
_0-0_0
  6
CONTINUOUS
 62
    7
 10
874.68471189925253
 20
776.87812623631419
 11
874.43341013732152
 21
775.83013096696106
  0
LINE
  8
_0-0_0
  6
CONTINUOUS
 62
    7
 10
874.43341013732152
 20
775.83013096696106
 11
873.90724023928158
 21
774.28180974689769
  0
LINE
  8
_0-0_0
  6
CONTINUOUS
 62
    7
 10
872.88626231169474
 20
769.81280705178187
 11
872.14720980561992
 21
765.48720054566263
  0
LINE
  8
_0-0_0
  6
CONTINUOUS
 62
    7
 10
872.14720980561992
 20
765.48720054566263
 11
871.9272699121808
 21
763.06684502131918
  0
LINE
  8
_0-0_0
  6
CONTINUOUS
 62
    7
 10
871.9272699121808
 20
763.06684502131918
 11
871.88383524945323
 21
761.82325378764619
  0
LINE
  8
_0-0_0
  6
CONTINUOUS
 62
    7
 10
871.56552870140786
 20
760.07931996049501
 11
871.37957007617274
 21
758.73632735126932
  0
LINE
  8
_0-0_0
  6
CONTINUOUS
 62
    7
 10
887.64505222701416
 20
774.19852016780908
 11
886.30802202077632
 21
774.75612029648175
  0
LINE
  8
_0-0_0
  6
CONTINUOUS
 62
    7
 10
885.012751422164
 20
775.56634730385804
 11
884.20726584584884
 21
776.32434125037571
  0
LINE
  8
_0-0_0
  6
CONTINUOUS
 62
    7
 10
884.20726584584884
 20
776.32434125037571
 11
882.72622128669525
 21
777.71809348024146
  0
LINE
  8
_0-0_0
  6
CONTINUOUS
 62
    7
 10
882.72622128669525
 20
777.71809348024146
 11
881.72789264990342
 21
779.41655206743565
  0
LINE
  8
_0-0_0
  6
CONTINUOUS
 62
    7
 10
881.11933845317992
 20
780.7482489085811
 11
880.29028275347798
 21
782.0538955309745
  0
LINE
  8
_0-0_0
  6
CONTINUOUS
 62
    7
 10
880.29028275347798
 20
782.0538955309745
 11
879.86360261208233
 21
783.21443408880953
  0
LINE
  8
_0-0_0
  6
CONTINUOUS
 62
    7
 10
879.86360261208233
 20
783.21443408880953
 11
879.82908120534375
 21
784.53137863733957
  0
LINE
  8
_0-0_0
  6
CONTINUOUS
 62
    7
 10
879.82908120534375
 20
784.53137863733957
 11
879.69768944167242
 21
785.58918657807919
  0
LINE
  8
_0-0_0
  6
CONTINUOUS
 62
    7
 10
879.69768944167242
 20
785.58918657807919
 11
880.25299635809347
 21
787.16847883729906
  0
LINE
  8
_0-0_0
  6
CONTINUOUS
 62
    7
 10
880.25299635809347
 20
787.16847883729906
 11
881.1414476054415
 21
789.31001765453846
  0
LINE
  8
_0-0_0
  6
CONTINUOUS
 62
    7
 10
881.1414476054415
 20
789.31001765453846
 11
882.02990260199897
 21
791.45157311454557
  0
LINE
  8
_0-0_0
  6
CONTINUOUS
 62
    7
 10
882.02990260199897
 20
791.45157311454557
 11
884.10209131636293
 21
795.63194160293347
  0
LINE
  8
_0-0_0
  6
CONTINUOUS
 62
    7
 10
885.50198074218656
 20
777.90841472035311
 11
884.71859421179829
 21
779.05433309680222
  0
LINE
  8
_0-0_0
  6
CONTINUOUS
 62
    7
 10
884.71859421179829
 20
779.05433309680222
 11
883.92257543569031
 21
779.97858381917456
  0
LINE
  8
_0-0_0
  6
CONTINUOUS
 62
    7
 10
883.49978554303334
 20
780.72674362330019
 11
882.89511943699267
 21
781.64608318174169
  0
LINE
  8
_0-0_0
  6
CONTINUOUS
 62
    7
 10
882.89511943699267
 20
781.64608318174169
 11
882.67629889638158
 21
782.61099248972096
  0
LINE
  8
_0-0_0
  6
CONTINUOUS
 62
    7
 10
882.67629889638158
 20
782.61099248972096
 11
882.55047993496987
 21
784.24741931725646
  0
LINE
  8
_0-0_0
  6
CONTINUOUS
 62
    7
 10
882.55047993496987
 20
784.24741931725646
 11
882.40256567684071
 21
785.49593835762789
  0
LINE
  8
_0-0_0
  6
CONTINUOUS
 62
    7
 10
882.40256567684071
 20
785.49593835762789
 11
882.70991503426956
 21
788.00916888567019
  0
LINE
  8
_0-0_0
  6
CONTINUOUS
 62
    7
 10
875.32310611376261
 20
758.76188405657001
 11
875.69485426327901
 21
759.5213584296007
  0
LINE
  8
_0-0_0
  6
CONTINUOUS
 62
    7
 10
875.69485426327901
 20
759.5213584296007
 11
875.9493118142467
 21
760.62475276264638
  0
LINE
  8
_0-0_0
  6
CONTINUOUS
 62
    7
 10
875.9493118142467
 20
760.62475276264638
 11
876.59983550350319
 21
761.47221943274405
  0
LINE
  8
_0-0_0
  6
CONTINUOUS
 62
    7
 10
876.59983550350319
 20
761.47221943274405
 11
876.87469773234682
 21
761.9725502116911
  0
LINE
  8
_0-0_0
  6
CONTINUOUS
 62
    7
 10
876.87469773234682
 20
761.9725502116911
 11
877.22047215093653
 21
762.75648589479249
  0
LINE
  8
_0-0_0
  6
CONTINUOUS
 62
    7
 10
877.22047215093653
 20
762.75648589479249
 11
877.5048070872532
 21
763.42306862135638
  0
LINE
  8
_0-0_0
  6
CONTINUOUS
 62
    7
 10
877.47733330944357
 20
764.38307159364297
 11
877.36245222570005
 21
765.25017809122483
  0
LINE
  8
_0-0_0
  6
CONTINUOUS
 62
    7
 10
877.36245222570005
 20
765.25017809122483
 11
877.14363543429783
 21
766.21510404197261
  0
LINE
  8
_0-0_0
  6
CONTINUOUS
 62
    7
 10
877.14363543429783
 20
766.21510404197261
 11
876.79175773138809
 21
767.24686875025316
  0
LINE
  8
_0-0_0
  6
CONTINUOUS
 62
    7
 10
876.79175773138809
 20
767.24686875025316
 11
876.08482722358247
 21
769.25497547406076
  0
LINE
  8
_0-0_0
  6
CONTINUOUS
 62
    7
 10
876.08482722358247
 20
769.25497547406076
 11
875.86600668297137
 21
770.21988478204003
  0
LINE
  8
_0-0_0
  6
CONTINUOUS
 62
    7
 10
875.86600668297137
 20
770.21988478204003
 11
875.63067921164247
 21
771.375512175945
  0
LINE
  8
_0-0_0
  6
CONTINUOUS
 62
    7
 10
875.63067921164247
 20
771.375512175945
 11
875.58670066117031
 21
772.52621176315097
  0
LINE
  8
_0-0_0
  6
CONTINUOUS
 62
    7
 10
862.82429929595821
 20
746.46930895002345
 11
861.85734809140001
 21
746.79541426852086
  0
LINE
  8
_0-0_0
  6
CONTINUOUS
 62
    7
 10
861.85734809140001
 20
746.79541426852086
 11
861.17230674461325
 21
747.26490878972061
  0
LINE
  8
_0-0_0
  6
CONTINUOUS
 62
    7
 10
861.17230674461325
 20
747.26490878972061
 11
860.38892021422498
 21
748.41082716617007
  0
LINE
  8
_0-0_0
  6
CONTINUOUS
 62
    7
 10
859.36851184445686
 20
749.72138495249385
 11
859.06228774712076
 21
750.59341442853702
  0
LINE
  8
_0-0_0
  6
CONTINUOUS
 62
    7
 10
859.06228774712076
 20
750.59341442853702
 11
858.20576417687391
 21
752.85905919497952
  0
LINE
  8
_0-0_0
  6
CONTINUOUS
 62
    7
 10
858.20576417687391
 20
752.85905919497952
 11
857.77203640654989
 21
754.37653932905835
  0
LINE
  8
_0-0_0
  6
CONTINUOUS
 62
    7
 10
856.28617326764697
 20
762.8977509852831
 11
856.4444890141192
 21
763.27423572137366
  0
LINE
  8
_0-0_0
  6
CONTINUOUS
 62
    7
 10
856.4444890141192
 20
763.27423572137366
 11
856.50444401324876
 21
764.32713732642026
  0
LINE
  8
_0-0_0
  6
CONTINUOUS
 62
    7
 10
856.50444401324876
 20
764.32713732642026
 11
856.58647874535632
 21
765.76793973233737
  0
LINE
  8
_0-0_0
  6
CONTINUOUS
 62
    7
 10
857.03228305912546
 20
766.86642772968969
 11
856.88436505178686
 21
768.11493012729272
  0
LINE
  8
_0-0_0
  6
CONTINUOUS
 62
    7
 10
856.88436505178686
 20
768.11493012729272
 11
857.08128086763793
 21
768.68862603562764
  0
LINE
  8
_0-0_0
  6
CONTINUOUS
 62
    7
 10
857.68930083309272
 20
769.75123182989194
 11
858.04620745051807
 21
771.69237682928633
  0
LINE
  8
_0-0_0
  6
CONTINUOUS
 62
    7
 10
858.04620745051807
 20
771.69237682928633
 11
858.37546153270694
 21
772.66700214101456
  0
LINE
  8
_0-0_0
  6
CONTINUOUS
 62
    7
 10
858.37546153270694
 20
772.66700214101456
 11
858.65979056175775
 21
773.33358969581604
  0
LINE
  8
_0-0_0
  6
CONTINUOUS
 62
    7
 10
858.65979056175775
 20
773.33358969581604
 11
859.2969437963842
 21
774.42714988646981
  0
LINE
  8
_0-0_0
  6
CONTINUOUS
 62
    7
 10
859.2969437963842
 20
774.42714988646981
 11
859.20248670346496
 21
774.69121645901498
  0
LINE
  8
_0-0_0
  6
CONTINUOUS
 62
    7
 10
859.20248670346496
 20
774.69121645901498
 11
859.80659710723103
 21
776.16617737792751
  0
LINE
  8
_0-0_0
  6
CONTINUOUS
 62
    7
 10
859.80659710723103
 20
776.16617737792751
 11
860.07442136361988
 21
777.02346154764871
  0
LINE
  8
_0-0_0
  6
CONTINUOUS
 62
    7
 10
860.07442136361988
 20
777.02346154764871
 11
860.72808527817415
 21
777.92632029514516
  0
LINE
  8
_0-0_0
  6
CONTINUOUS
 62
    7
 10
860.72808527817415
 20
777.92632029514516
 11
861.4565553804232
 21
778.7004218358552
  0
LINE
  8
_0-0_0
  6
CONTINUOUS
 62
    7
 10
861.4565553804232
 20
778.7004218358552
 11
862.76779652042705
 21
780.0938008489685
  0
LINE
  8
_0-0_0
  6
CONTINUOUS
 62
    7
 10
862.76779652042705
 20
780.0938008489685
 11
863.42535818213889
 21
780.58431412829179
  0
LINE
  8
_0-0_0
  6
CONTINUOUS
 62
    7
 10
863.42535818213889
 20
780.58431412829179
 11
864.19948188996159
 21
781.1986804367649
  0
ARC
  8
_0-0_0
  6
CONTINUOUS
 62
    7
 10
959.89907651155022
 20
737.49237086445316
 40
25.249997716397079
 50
77.479186409898745
 51
142.29925257682589
  0
ARC
  8
_0-0_0
  6
CONTINUOUS
 62
    7
 10
955.63575567509815
 20
714.36298494994821
 40
48.761016119107374
 50
13.305215157319049
 51
78.480819991309474
  0
ARC
  8
_0-0_0
  6
CONTINUOUS
 62
    7
 10
940.29662872889674
 20
711.80810554609582
 40
64.28485011629985
 50
312.34688330559288
 51
12.374847769713622
  0
ARC
  8
_0-0_0
  6
CONTINUOUS
 62
    7
 10
914.59770462901872
 20
736.44905793797591
 40
99.836462440543443
 50
245.01132933058426
 51
313.72149985720341
  0
ARC
  8
_0-0_0
  6
CONTINUOUS
 62
    7
 10
959.89907651155022
 20
737.49237086445316
 40
19.249995898455438
 50
77.328307531151509
 51
144.67962814408261
  0
ARC
  8
_0-0_0
  6
CONTINUOUS
 62
    7
 10
955.63575567509815
 20
714.36298494994821
 40
42.761016208514334
 50
13.370006331784634
 51
78.553438562542709
  0
ARC
  8
_0-0_0
  6
CONTINUOUS
 62
    7
 10
940.29662872889674
 20
711.80810554609582
 40
58.284846391009602
 50
312.27679873451473
 51
12.326599313417491
  0
ARC
  8
_0-0_0
  6
CONTINUOUS
 62
    7
 10
914.59770462901872
 20
736.44905793797591
 40
93.83646252995041
 50
245.02421362866733
 51
313.76586876604256
  0
ARC
  8
_0-0_0
  6
CONTINUOUS
 62
    7
 10
867.64008297482803
 20
812.89922830988746
 40
25.249997716397079
 50
319.17981138145819
 51
23.999884378594015
  0
ARC
  8
_0-0_0
  6
CONTINUOUS
 62
    7
 10
845.8217902759435
 20
804.11820248411561
 40
48.761016119107197
 50
22.998250797180241
 51
47.019981423662429
  0
ARC
  8
_0-0_0
  6
CONTINUOUS
 62
    7
 10
845.82179027594293
 20
804.11820248411584
 40
48.761016119107374
 50
63.527525568194619
 51
88.173855631168934
  0
ARC
  8
_0-0_0
  6
CONTINUOUS
 62
    7
 10
846.3706492206353
 20
788.57745534810863
 40
64.28485011629985
 50
89.104223018772885
 51
149.1322011432656
  0
ARC
  8
_0-0_0
  6
CONTINUOUS
 62
    7
 10
875.63306352226505
 20
768.29637194731379
 40
99.836462440543443
 50
147.75758459166642
 51
216.46775767962663
  0
ARC
  8
_0-0_0
  6
CONTINUOUS
 62
    7
 10
867.64008297482803
 20
812.89922830988746
 40
19.249995898455438
 50
316.79944947457437
 51
24.150776917736817
  0
ARC
  8
_0-0_0
  6
CONTINUOUS
 62
    7
 10
845.82179027594009
 20
804.11820248411334
 40
42.761016208518299
 50
22.925632225924879
 51
45.844929431763603
  0
ARC
  8
_0-0_0
  6
CONTINUOUS
 62
    7
 10
845.82179027594293
 20
804.11820248411584
 40
42.761016208514334
 50
64.688549664228532
 51
88.109078117086881
  0
ARC
  8
_0-0_0
  6
CONTINUOUS
 62
    7
 10
846.3706492206353
 20
788.57745534810863
 40
58.284846391009602
 50
89.152485135452338
 51
149.20227888415542
  0
ARC
  8
_0-0_0
  6
CONTINUOUS
 62
    7
 10
875.63306352226505
 20
768.29637194731379
 40
93.83646252995041
 50
147.71321568282272
 51
216.45486228247552
  0
ARC
  8
_0-0_0
  6
CONTINUOUS
 62
    7
 10
947.02328870987003
 20
719.27616383403256
 40
2.9852678330947775
 50
334.92369794666939
 51
73.26383954096336
  0
ARC
  8
_0-0_0
  6
CONTINUOUS
 62
    7
 10
944.31678957004578
 20
723.5766171164546
 40
7.7620371615583128
 50
220.1824243616262
 51
314.18932000401639
  0
ARC
  8
_0-0_0
  6
CONTINUOUS
 62
    7
 10
937.82855132085899
 20
717.57308799190912
 40
1.1410775014597541
 50
60.719350186805642
 51
190.77427990895151
  0
ARC
  8
_0-0_0
  6
CONTINUOUS
 62
    7
 10
958.11725569251394
 20
737.63431493156668
 40
29.486106433181369
 50
223.44015138816107
 51
249.44240857820392
  0
ARC
  8
_0-0_0
  6
CONTINUOUS
 62
    7
 10
946.33865513901469
 20
704.73337001545246
 40
5.4808987754449419
 50
31.33303501870315
 51
74.93468139689287
  0
ARC
  8
_0-0_0
  6
CONTINUOUS
 62
    7
 10
952.67780479908083
 20
725.87983448792465
 40
27.148902488516242
 50
201.26053273788884
 51
252.05154254867642
  0
ARC
  8
_0-0_0
  6
CONTINUOUS
 62
    7
 10
952.15039483950193
 20
718.81874430739629
 40
24.929635630106404
 50
161.9804153494714
 51
186.41039008595149
  0
ARC
  8
_0-0_0
  6
CONTINUOUS
 62
    7
 10
906.13684345271736
 20
747.15580684514168
 40
30.380763554859712
 50
253.97391465853428
 51
317.24281071399355
  0
LINE
  8
_0-0_0
  6
CONTINUOUS
 62
    7
 10
897.74948617304744
 20
717.9557597737795
 11
895.57422850222906
 21
719.18454280449907
  0
LINE
  8
_0-0_0
  6
CONTINUOUS
 62
    7
 10
895.57422850222906
 20
719.18454280449907
 11
893.77856161638078
 21
720.65221106847946
  0
LINE
  8
_0-0_0
  6
CONTINUOUS
 62
    7
 10
893.77856161638078
 20
720.65221106847946
 11
892.61611972813341
 21
721.7670519588105
  0
LINE
  8
_0-0_0
  6
CONTINUOUS
 62
    7
 10
892.61611972813341
 20
721.7670519588105
 11
892.24980011992727
 21
722.61559871697102
  0
LINE
  8
_0-0_0
  6
CONTINUOUS
 62
    7
 10
892.24980011992727
 20
722.61559871697102
 11
892.0449389253622
 21
723.66166295674998
  0
LINE
  8
_0-0_0
  6
CONTINUOUS
 62
    7
 10
892.0449389253622
 20
723.66166295674998
 11
892.25230011788426
 21
724.53553383705196
  0
LINE
  8
_0-0_0
  6
CONTINUOUS
 62
    7
 10
892.25230011788426
 20
724.53553383705196
 11
892.76068227078554
 21
725.38304411409354
  0
LINE
  8
_0-0_0
  6
CONTINUOUS
 62
    7
 10
892.76068227078554
 20
725.38304411409354
 11
893.38242631165258
 21
725.91822380370388
  0
LINE
  8
_0-0_0
  6
CONTINUOUS
 62
    7
 10
893.38242631165258
 20
725.91822380370388
 11
893.70244927068825
 21
726.53527984570485
  0
LINE
  8
_0-0_0
  6
CONTINUOUS
 62
    7
 10
893.70244927068825
 20
726.53527984570485
 11
892.76781909889451
 21
729.05643583599033
  0
LINE
  8
_0-0_0
  6
CONTINUOUS
 62
    7
 10
892.76781909889451
 20
729.05643583599033
 11
892.07072682385046
 21
730.12043183886465
  0
LINE
  8
_0-0_0
  6
CONTINUOUS
 62
    7
 10
892.07072682385046
 20
730.12043183886465
 11
891.6746243817056
 21
731.15805326589282
  0
LINE
  8
_0-0_0
  6
CONTINUOUS
 62
    7
 10
891.6746243817056
 20
731.15805326589282
 11
891.72054863159246
 21
731.83440882263187
  0
LINE
  8
_0-0_0
  6
CONTINUOUS
 62
    7
 10
891.72054863159246
 20
731.83440882263187
 11
891.73882903779258
 21
732.53333905896761
  0
ARC
  8
_0-0_0
  6
CONTINUOUS
 62
    7
 10
896.08012695917637
 20
729.81327948940805
 40
5.1230367850804805
 50
99.189530083065648
 51
147.93055230221154
  0
ARC
  8
_0-0_0
  6
CONTINUOUS
 62
    7
 10
893.81413388089186
 20
751.13239407308913
 40
16.32615828028085
 50
275.08777449634698
 51
317.51717258275346
  0
ARC
  8
_0-0_0
  6
CONTINUOUS
 62
    7
 10
911.16030667873758
 20
733.02524705245389
 40
8.8483494393773459
 50
63.491382461449
 51
126.8452392400159
  0
ARC
  8
_0-0_0
  6
CONTINUOUS
 62
    7
 10
919.86445389315008
 20
748.78895223701636
 40
9.1739834372105662
 50
238.7820277603405
 51
322.69381393584121
  0
ARC
  8
_0-0_0
  6
CONTINUOUS
 62
    7
 10
928.10248408916095
 20
755.51555024654726
 40
12.32269745584283
 50
197.26623811125961
 51
265.62056198592251
  0
ARC
  8
_0-0_0
  6
CONTINUOUS
 62
    7
 10
920.20043792236322
 20
746.53735834550946
 40
6.5764926884100934
 50
47.085992075120316
 51
125.9976127640121
  0
LINE
  8
_0-0_0
  6
CONTINUOUS
 62
    7
 10
937.34834700853412
 20
718.538385418291
 11
939.04715400711723
 21
716.10652926692285
  0
LINE
  8
_0-0_0
  6
CONTINUOUS
 62
    7
 10
939.04715400711723
 20
716.10652926692285
 11
942.68872545279692
 21
713.51451934773559
  0
LINE
  8
_0-0_0
  6
CONTINUOUS
 62
    7
 10
942.68872545279692
 20
713.51451934773559
 11
944.50556445503423
 21
712.52378171233261
  0
LINE
  8
_0-0_0
  6
CONTINUOUS
 62
    7
 10
944.50556445503423
 20
712.52378171233261
 11
946.89034377963253
 21
712.00237173070013
  0
LINE
  8
_0-0_0
  6
CONTINUOUS
 62
    7
 10
946.89034377963253
 20
712.00237173070013
 11
949.25680941249368
 21
710.78203901115012
  0
LINE
  8
_0-0_0
  6
CONTINUOUS
 62
    7
 10
949.25680941249368
 20
710.78203901115012
 11
950.80672155433092
 21
709.29557983317977
  0
LINE
  8
_0-0_0
  6
CONTINUOUS
 62
    7
 10
950.80672155433092
 20
709.29557983317977
 11
951.48554307965014
 21
707.5326654084995
  0
LINE
  8
_0-0_0
  6
CONTINUOUS
 62
    7
 10
951.48554307965014
 20
707.5326654084995
 11
953.47244155660292
 21
706.07342814273943
  0
ARC
  8
_0-0_0
  6
CONTINUOUS
 62
    7
 10
957.73248120871472
 20
712.52657280359301
 40
8.3359774301055456
 50
216.36877457817479
 51
264.03272400389153
  0
ARC
  8
_0-0_0
  6
CONTINUOUS
 62
    7
 10
956.76191684208732
 20
703.24118662249009
 40
0.9999999850988389
 50
307.16490757475327
 51
84.032903182676321
  0
ARC
  8
_0-0_0
  6
CONTINUOUS
 62
    7
 10
948.46903997640368
 20
714.18053849112596
 40
14.727389116177122
 50
253.60275022618509
 51
307.16490757475327
  0
LINE
  8
_0-0_0
  6
CONTINUOUS
 62
    7
 10
953.47244155660292
 20
706.07342814273943
 11
954.4403268277182
 21
705.46248091936434
  0
LINE
  8
_0-0_0
  6
CONTINUOUS
 62
    7
 10
954.4403268277182
 20
705.46248091936434
 11
954.79474217195616
 21
705.23901949613662
  0
LINE
  8
_0-0_0
  6
CONTINUOUS
 62
    7
 10
954.79474217195616
 20
705.23901949613662
 11
955.40166212554823
 21
705.02987653842627
  0
LINE
  8
_0-0_0
  6
CONTINUOUS
 62
    7
 10
955.40166212554823
 20
705.02987653842627
 11
955.94108871900517
 21
704.94211452250966
  0
LINE
  8
_0-0_0
  6
CONTINUOUS
 62
    7
 10
955.94108871900517
 20
704.94211452250966
 11
956.33770383970273
 21
704.85334740004532
  0
LINE
  8
_0-0_0
  6
CONTINUOUS
 62
    7
 10
956.33770383970273
 20
704.85334740004532
 11
956.8176374127745
 21
704.8362833389092
  0
LINE
  8
_0-0_0
  6
CONTINUOUS
 62
    7
 10
956.8176374127745
 20
704.8362833389092
 11
957.71173226868029
 21
703.65673385516516
  0
ARC
  8
_0-0_0
  6
CONTINUOUS
 62
    7
 10
919.15448194661849
 20
751.11036589487537
 40
10.823148566139512
 50
243.41367551295937
 51
313.66812875903503
  0
ARC
  8
_0-0_0
  6
CONTINUOUS
 62
    7
 10
953.94213035398195
 20
736.50974984821062
 40
15.599602466827591
 50
131.22579472457889
 51
247.14380062059874
  0
ARC
  8
_0-0_0
  6
CONTINUOUS
 62
    7
 10
931.74571896839609
 20
764.0100693228793
 40
14.495789311888972
 50
240.82064968983769
 51
275.25453698005208
  0
ARC
  8
_0-0_0
  6
CONTINUOUS
 62
    7
 10
932.15744590312056
 20
759.53317685547279
 40
9.9999998509883898
 50
275.25454039511601
 51
308.56816993973251
  0
LINE
  8
_0-0_0
  6
CONTINUOUS
 62
    7
 10
938.39190098317999
 20
751.71451969019836
 11
939.92088524310532
 21
752.93369286152949
  0
ARC
  8
_0-0_0
  6
CONTINUOUS
 62
    7
 10
947.03482824856621
 20
732.00759667867817
 40
14.265332963089152
 50
182.27094027909493
 51
272.19534306211193
  0
LINE
  8
_0-0_0
  6
CONTINUOUS
 62
    7
 10
933.09857435222739
 20
732.22588467798289
 11
933.23488676208171
 21
734.36593343028437
  0
LINE
  8
_0-0_0
  6
CONTINUOUS
 62
    7
 10
933.3913123172249
 20
734.95197197993684
 11
933.52010584321306
 21
735.56057555271298
  0
LINE
  8
_0-0_0
  6
CONTINUOUS
 62
    7
 10
933.9186964687832
 20
736.44289890224047
 11
934.12821812256311
 21
737.15027195132745
  0
LINE
  8
_0-0_0
  6
CONTINUOUS
 62
    7
 10
934.52895955291638
 20
737.86608565510971
 11
935.03732989128707
 21
738.71360558862636
  0
LINE
  8
_0-0_0
  6
CONTINUOUS
 62
    7
 10
935.24972178425003
 20
739.19897687189848
 11
935.70499818204041
 21
739.92514083497542
  0
LINE
  8
_0-0_0
  6
CONTINUOUS
 62
    7
 10
936.5872091705404
 20
741.4555377188517
 11
937.71733536430872
 21
742.83822768550397
  0
LINE
  8
_0-0_0
  6
CONTINUOUS
 62
    7
 10
939.79209879716336
 20
745.15115161795222
 11
941.70757609216537
 21
747.10005058109243
  0
ARC
  8
_0-0_0
  6
CONTINUOUS
 62
    7
 10
944.02065887893855
 20
724.99075822225234
 40
8.3188656521012536
 50
214.46249610157349
 51
285.16960840944949
  0
ARC
  8
_0-0_0
  6
CONTINUOUS
 62
    7
 10
952.58965827006307
 20
735.43347889955965
 40
16.36571287563871
 50
160.71909797581753
 51
252.07959584314784
  0
ARC
  8
_0-0_0
  6
CONTINUOUS
 62
    7
 10
950.41401535942725
 20
724.26964184109977
 40
21.915059716775119
 50
152.70258690924911
 51
287.05855186593408
  0
ARC
  8
_0-0_0
  6
CONTINUOUS
 62
    7
 10
950.55685057941503
 20
727.67927340316703
 40
20.425899201245624
 50
167.86771056494308
 51
270.54498494352549
  0
ARC
  8
_0-0_0
  6
CONTINUOUS
 62
    7
 10
908.84480157943472
 20
746.09854791020427
 40
24.774230587866452
 50
234.1569722075044
 51
330.45889890888878
  0
LINE
  8
_0-0_0
  6
CONTINUOUS
 62
    7
 10
930.4791509991253
 20
733.98243356826117
 11
932.29810794356126
 21
737.05357759530909
  0
LINE
  8
_0-0_0
  6
CONTINUOUS
 62
    7
 10
932.88721822425487
 20
737.99985734866277
 11
935.60202757518141
 21
741.54689336511285
  0
LINE
  8
_0-0_0
  6
CONTINUOUS
 62
    7
 10
936.46307610376709
 20
742.60037143494276
 11
937.4346259376091
 21
743.56353249768654
  0
LINE
  8
_0-0_0
  6
CONTINUOUS
 62
    7
 10
940.62049425262614
 20
746.61570612246408
 11
940.81172368567479
 21
746.62415859169016
  0
ARC
  8
_0-0_0
  6
CONTINUOUS
 62
    7
 10
908.96360385720527
 20
759.10634108590398
 40
27.910098613648145
 50
241.31246685254132
 51
311.24518745286377
  0
ARC
  8
_0-0_0
  6
CONTINUOUS
 62
    7
 10
908.47740636213075
 20
755.83242651822286
 40
29.913747341726022
 50
238.9003898160139
 51
330.19498722953597
  0
LINE
  8
_0-0_0
  6
CONTINUOUS
 62
    7
 10
933.31086549938277
 20
745.39645135684952
 11
932.23168459946805
 21
744.30160553537678
  0
LINE
  8
_0-0_0
  6
CONTINUOUS
 62
    7
 10
932.23168459946805
 20
744.30160553537678
 11
930.63336002431811
 21
743.19176438005218
  0
LINE
  8
_0-0_0
  6
CONTINUOUS
 62
    7
 10
930.63336002431811
 20
743.19176438005218
 11
930.09233445476866
 21
742.75534235222369
  0
LINE
  8
_0-0_0
  6
CONTINUOUS
 62
    7
 10
927.27238222119524
 20
740.99656635360009
 11
924.67273463473873
 21
739.11265061892993
  0
LINE
  8
_0-0_0
  6
CONTINUOUS
 62
    7
 10
924.67273463473873
 20
739.11265061892993
 11
923.06578752750852
 21
738.66882441752432
  0
LINE
  8
_0-0_0
  6
CONTINUOUS
 62
    7
 10
923.06578752750852
 20
738.66882441752432
 11
921.92202957222321
 21
738.34065115987767
  0
LINE
  8
_0-0_0
  6
CONTINUOUS
 62
    7
 10
921.92202957222321
 20
738.34065115987767
 11
920.91567586047631
 21
737.95507617756118
  0
LINE
  8
_0-0_0
  6
CONTINUOUS
 62
    7
 10
920.91567586047631
 20
737.95507617756118
 11
919.44900323596698
 21
737.23184648567201
  0
LINE
  8
_0-0_0
  6
CONTINUOUS
 62
    7
 10
915.15091889215455
 20
735.63785001647477
 11
910.9582933386281
 21
734.34204579369509
  0
LINE
  8
_0-0_0
  6
CONTINUOUS
 62
    7
 10
910.9582933386281
 20
734.34204579369509
 11
908.58716724655153
 21
733.80894122437883
  0
LINE
  8
_0-0_0
  6
CONTINUOUS
 62
    7
 10
908.58716724655153
 20
733.80894122437883
 11
907.35981092429142
 21
733.60400025623505
  0
LINE
  8
_0-0_0
  6
CONTINUOUS
 62
    7
 10
905.67214534574305
 20
733.06141639304838
 11
904.36478033009109
 21
732.70221382852299
  0
LINE
  8
_0-0_0
  6
CONTINUOUS
 62
    7
 10
917.57824795488546
 20
750.84193713730531
 11
918.30513487839994
 21
749.58885680908816
  0
LINE
  8
_0-0_0
  6
CONTINUOUS
 62
    7
 10
919.27706676799914
 20
748.41007132946186
 11
920.13346665190113
 21
747.71010245395075
  0
LINE
  8
_0-0_0
  6
CONTINUOUS
 62
    7
 10
920.13346665190113
 20
747.71010245395075
 11
921.70813092723563
 21
746.42306820414262
  0
LINE
  8
_0-0_0
  6
CONTINUOUS
 62
    7
 10
921.70813092723563
 20
746.42306820414262
 11
923.52209969028991
 21
745.6543323345544
  0
LINE
  8
_0-0_0
  6
CONTINUOUS
 62
    7
 10
924.92167594852333
 20
745.22427584112677
 11
926.32412244594093
 21
744.5722175818845
  0
LINE
  8
_0-0_0
  6
CONTINUOUS
 62
    7
 10
926.32412244594093
 20
744.5722175818845
 11
927.53031630828673
 21
744.30023973598156
  0
LINE
  8
_0-0_0
  6
CONTINUOUS
 62
    7
 10
927.53031630828673
 20
744.30023973598156
 11
928.84056337765344
 21
744.43743087821815
  0
LINE
  8
_0-0_0
  6
CONTINUOUS
 62
    7
 10
928.84056337765344
 20
744.43743087821815
 11
929.90647310080362
 21
744.44484470826922
  0
LINE
  8
_0-0_0
  6
CONTINUOUS
 62
    7
 10
929.90647310080362
 20
744.44484470826922
 11
931.40004866359504
 21
745.2009896825748
  0
LINE
  8
_0-0_0
  6
CONTINUOUS
 62
    7
 10
931.40004866359504
 20
745.2009896825748
 11
933.40772538664851
 21
746.36063924423706
  0
LINE
  8
_0-0_0
  6
CONTINUOUS
 62
    7
 10
933.40772538664851
 20
746.36063924423706
 11
935.4154021097014
 21
747.52028880589921
  0
LINE
  8
_0-0_0
  6
CONTINUOUS
 62
    7
 10
935.4154021097014
 20
747.52028880589921
 11
939.29049288761803
 21
750.11898176323314
  0
LINE
  8
_0-0_0
  6
CONTINUOUS
 62
    7
 10
921.53554075003512
 20
749.2000025516096
 11
922.77367040915976
 21
748.57241892008904
  0
LINE
  8
_0-0_0
  6
CONTINUOUS
 62
    7
 10
922.77367040915976
 20
748.57241892008904
 11
923.79366553889781
 21
747.90348900793163
  0
LINE
  8
_0-0_0
  6
CONTINUOUS
 62
    7
 10
924.59050941139651
 20
747.58168128468571
 11
925.5807217071964
 21
747.10182604139527
  0
LINE
  8
_0-0_0
  6
CONTINUOUS
 62
    7
 10
925.5807217071964
 20
747.10182604139527
 11
926.56591511708541
 21
747.01046073865984
  0
LINE
  8
_0-0_0
  6
CONTINUOUS
 62
    7
 10
926.56591511708541
 20
747.01046073865984
 11
928.20478404850746
 21
747.09871228192685
  0
LINE
  8
_0-0_0
  6
CONTINUOUS
 62
    7
 10
928.20478404850746
 20
747.09871228192685
 11
929.46193501923744
 21
747.11456892472893
  0
LINE
  8
_0-0_0
  6
CONTINUOUS
 62
    7
 10
929.46193501923744
 20
747.11456892472893
 11
931.91377958263047
 21
747.7464311558266
  0
LINE
  8
_0-0_0
  6
CONTINUOUS
 62
    7
 10
903.87681583853805
 20
736.61553907932921
 11
904.58143881197998
 21
737.0829785995063
  0
LINE
  8
_0-0_0
  6
CONTINUOUS
 62
    7
 10
904.58143881197998
 20
737.0829785995063
 11
905.64233930569515
 21
737.47889418464285
  0
LINE
  8
_0-0_0
  6
CONTINUOUS
 62
    7
 10
905.64233930569515
 20
737.47889418464285
 11
906.39790757299011
 21
738.23417784999856
  0
LINE
  8
_0-0_0
  6
CONTINUOUS
 62
    7
 10
906.39790757299011
 20
738.23417784999856
 11
906.85820501474666
 21
738.57183040151597
  0
LINE
  8
_0-0_0
  6
CONTINUOUS
 62
    7
 10
906.85820501474666
 20
738.57183040151597
 11
907.59046001734532
 21
739.01670489857054
  0
LINE
  8
_0-0_0
  6
CONTINUOUS
 62
    7
 10
907.59046001734532
 20
739.01670489857054
 11
908.21436451946965
 21
739.38538675696566
  0
LINE
  8
_0-0_0
  6
CONTINUOUS
 62
    7
 10
909.1697847518941
 20
739.48310793762812
 11
910.0444650419962
 21
739.48206929845344
  0
LINE
  8
_0-0_0
  6
CONTINUOUS
 62
    7
 10
910.0444650419962
 20
739.48206929845344
 11
911.02965845188521
 21
739.39070399571756
  0
LINE
  8
_0-0_0
  6
CONTINUOUS
 62
    7
 10
911.02965845188521
 20
739.39070399571756
 11
912.09843841421957
 21
739.17611605995387
  0
LINE
  8
_0-0_0
  6
CONTINUOUS
 62
    7
 10
912.09843841421957
 20
739.17611605995387
 11
914.18148484245592
 21
738.7365920871872
  0
LINE
  8
_0-0_0
  6
CONTINUOUS
 62
    7
 10
914.18148484245592
 20
738.7365920871872
 11
915.16667825234492
 21
738.64522678445167
  0
LINE
  8
_0-0_0
  6
CONTINUOUS
 62
    7
 10
915.16667825234492
 20
738.64522678445167
 11
916.34308928075257
 21
738.56232360741672
  0
LINE
  8
_0-0_0
  6
CONTINUOUS
 62
    7
 10
916.34308928075257
 20
738.56232360741672
 11
917.48973894622623
 21
738.66849725730458
  0
LINE
  8
_0-0_0
  6
CONTINUOUS
 62
    7
 10
893.31572165760917
 20
722.62300289054701
 11
893.76490838385905
 21
721.70672561942854
  0
LINE
  8
_0-0_0
  6
CONTINUOUS
 62
    7
 10
893.76490838385905
 20
721.70672561942854
 11
894.31958718593023
 21
721.08863309630863
  0
LINE
  8
_0-0_0
  6
CONTINUOUS
 62
    7
 10
894.31958718593023
 20
721.08863309630863
 11
895.5577168450543
 21
720.46104946478772
  0
LINE
  8
_0-0_0
  6
CONTINUOUS
 62
    7
 10
896.98993436188061
 20
719.61992619315265
 11
897.89440930045203
 21
719.42980322863593
  0
LINE
  8
_0-0_0
  6
CONTINUOUS
 62
    7
 10
897.89440930045203
 20
719.42980322863593
 11
900.25226421576349
 21
718.8754758065312
  0
LINE
  8
_0-0_0
  6
CONTINUOUS
 62
    7
 10
900.25226421576349
 20
718.8754758065312
 11
901.81329672958213
 21
718.64295826572732
  0
LINE
  8
_0-0_0
  6
CONTINUOUS
 62
    7
 10
910.45542468773249
 20
718.27889398165996
 11
910.80810071989163
 21
718.4848735889783
  0
LINE
  8
_0-0_0
  6
CONTINUOUS
 62
    7
 10
910.80810071989163
 20
718.4848735889783
 11
911.84422760910252
 21
718.68136208789667
  0
LINE
  8
_0-0_0
  6
CONTINUOUS
 62
    7
 10
911.84422760910252
 20
718.68136208789667
 11
913.26210574454194
 21
718.95023798886155
  0
LINE
  8
_0-0_0
  6
CONTINUOUS
 62
    7
 10
914.29321158978723
 20
719.53523789933979
 11
915.55036256051721
 21
719.5510945421421
  0
LINE
  8
_0-0_0
  6
CONTINUOUS
 62
    7
 10
915.55036256051721
 20
719.5510945421421
 11
916.09353893484922
 21
719.82100692422546
  0
LINE
  8
_0-0_0
  6
CONTINUOUS
 62
    7
 10
917.06795900787483
 20
720.5621662211546
 11
918.94613458507138
 21
721.16869467363642
  0
LINE
  8
_0-0_0
  6
CONTINUOUS
 62
    7
 10
918.94613458507138
 20
721.16869467363642
 11
919.86960936424339
 21
721.62200982538582
  0
LINE
  8
_0-0_0
  6
CONTINUOUS
 62
    7
 10
919.86960936424339
 20
721.62200982538582
 11
920.49351386636772
 21
721.99069168378162
  0
LINE
  8
_0-0_0
  6
CONTINUOUS
 62
    7
 10
920.49351386636772
 20
721.99069168378162
 11
921.49484653414902
 21
722.76477807765775
  0
LINE
  8
_0-0_0
  6
CONTINUOUS
 62
    7
 10
921.49484653414902
 20
722.76477807765775
 11
921.76894524329839
 21
722.70547856291967
  0
LINE
  8
_0-0_0
  6
CONTINUOUS
 62
    7
 10
921.76894524329839
 20
722.70547856291967
 11
923.15272927875867
 21
723.49643660971185
  0
LINE
  8
_0-0_0
  6
CONTINUOUS
 62
    7
 10
923.15272927875867
 20
723.49643660971185
 11
923.96786321393051
 21
723.8735709373326
  0
LINE
  8
_0-0_0
  6
CONTINUOUS
 62
    7
 10
923.96786321393051
 20
723.8735709373326
 11
924.77796644866316
 21
724.63920486198344
  0
LINE
  8
_0-0_0
  6
CONTINUOUS
 62
    7
 10
924.77796644866316
 20
724.63920486198344
 11
925.45065578338381
 21
725.46222869677263
  0
LINE
  8
_0-0_0
  6
CONTINUOUS
 62
    7
 10
925.45065578338381
 20
725.46222869677263
 11
926.66151010494332
 21
726.94368813973654
  0
LINE
  8
_0-0_0
  6
CONTINUOUS
 62
    7
 10
926.66151010494332
 20
726.94368813973654
 11
927.06225153529772
 21
727.6595018435188
  0
LINE
  8
_0-0_0
  6
CONTINUOUS
 62
    7
 10
927.06225153529772
 20
727.6595018435188
 11
927.57062403172426
 21
728.50700030602991
  0
ARC
  8
_0-0_0
  6
CONTINUOUS
 62
    7
 10
847.08913467757384
 20
974.90379783553544
 40
48.534301562161595
 50
309.48208635579169
 51
94.125081472990658
  0
ARC
  8
_0-0_0
  6
CONTINUOUS
 62
    7
 10
846.9776290734444
 20
974.75819742040494
 40
42.671655858401209
 50
309.700864484997
 51
93.981828658027894
  0
ARC
  8
_0-0_0
  6
CONTINUOUS
 62
    7
 10
850.89497136552609
 20
957.62947889822328
 40
17.331378364810149
 50
81.412185161664766
 51
190.96387229633208
  0
ARC
  8
_0-0_0
  6
CONTINUOUS
 62
    7
 10
850.88800670581975
 20
957.62575617139998
 40
11.326923953630082
 50
81.012646337811546
 51
191.74381293624711
  0
ARC
  8
_0-0_0
  6
CONTINUOUS
 62
    7
 10
851.45759086129033
 20
962.6843327323337
 40
12.250793885492042
 50
351.82394992322793
 51
80.483756496517231
  0
ARC
  8
_0-0_0
  6
CONTINUOUS
 62
    7
 10
851.21525014608778
 20
962.35180009515477
 40
6.6208045136571636
 50
354.61772563630979
 51
77.418401552761509
  0
ARC
  8
_0-0_0
  6
CONTINUOUS
 62
    7
 10
860.70900156251412
 20
961.43631663885174
 40
2.9170369733906871
 50
174.20661424997891
 51
350.24533403443451
  0
ARC
  8
_0-0_0
  6
CONTINUOUS
 62
    7
 10
861.80720623916386
 20
961.264341958008
 40
28.774515436837831
 50
193.9383050630602
 51
304.1233639239104
  0
ARC
  8
_0-0_0
  6
CONTINUOUS
 62
    7
 10
861.99901021734945
 20
961.43413226928328
 40
23.02727498749681
 50
195.39685003298399
 51
302.09921718838808
  0
ARC
  8
_0-0_0
  6
CONTINUOUS
 62
    7
 10
850.69793232695361
 20
898.50979228318147
 40
125.0043732913776
 50
93.256069713570454
 51
168.60516369025373
  0
ARC
  8
_0-0_0
  6
CONTINUOUS
 62
    7
 10
850.69793232695361
 20
898.50979228318147
 40
119.0043732913776
 50
93.256069713570454
 51
168.60516369025373
  0
ARC
  8
_0-0_0
  6
CONTINUOUS
 62
    7
 10
980.31270652158128
 20
595.09247313542653
 40
8.7217719999999996
 50
355.68962681711338
 51
38.834886817116555
  0
ARC
  8
_0-0_0
  6
CONTINUOUS
 62
    7
 10
977.23741043338805
 20
594.5801364817122
 40
11.773273
 50
310.34578581710758
 51
359.3031518171212
  0
ARC
  8
_0-0_0
  6
CONTINUOUS
 62
    7
 10
978.74038768044102
 20
599.84027269867477
 40
16.358231713286735
 50
215.16957014152933
 51
264.31142850917041
  0
ARC
  8
_0-0_0
  6
CONTINUOUS
 62
    7
 10
978.37811707969479
 20
594.47016867870923
 40
10.980009000000003
 50
263.414880817106
 51
306.17696381710698
  0
ARC
  8
_0-0_0
  6
CONTINUOUS
 62
    7
 10
964.0149637691195
 20
849.46140648047412
 40
245.06366691208012
 50
271.36536275961578
 51
272.8388553927353
  0
ARC
  8
_0-0_0
  6
CONTINUOUS
 62
    7
 10
967.99500479437825
 20
651.0166736435699
 40
46.586472383380368
 50
254.14440143453044
 51
272.28731388723259
  0
ARC
  8
_0-0_0
  6
CONTINUOUS
 62
    7
 10
943.85311653447388
 20
576.86607396966645
 40
25.427510312513792
 50
32.205775706950739
 51
71.333947355403353
  0
ARC
  8
_0-0_0
  6
CONTINUOUS
 62
    7
 10
976.24865824425342
 20
588.38163865997456
 40
16.317127172762611
 50
48.284576663791277
 51
90.338532473195912
  0
ARC
  8
_0-0_0
  6
CONTINUOUS
 62
    7
 10
802.13514389756426
 20
365.6807238017617
 40
146.2595552363743
 50
141.94859804611539
 51
183.69890446971939
  0
ARC
  8
_0-0_0
  6
CONTINUOUS
 62
    7
 10
802.13514389756426
 20
365.6807238017617
 40
140.2595552363743
 50
141.94859804611539
 51
183.69890446971939
  0
ARC
  8
_0-0_0
  6
CONTINUOUS
 62
    7
 10
728.34067640113517
 20
373.03328334200643
 40
10.891336000000001
 50
236.5105910000043
 51
326.98822499999488
  0
ARC
  8
_0-0_0
  6
CONTINUOUS
 62
    7
 10
726.79903540113514
 20
375.08577334200652
 40
12.110335000000001
 50
139.22787900000759
 51
311.83468600000208
  0
ARC
  8
_0-0_0
  6
CONTINUOUS
 62
    7
 10
745.56896340113497
 20
364.40327834200673
 40
2.6729689999999988
 50
162.53712899999204
 51
318.53986900002485
  0
ARC
  8
_0-0_0
  6
CONTINUOUS
 62
    7
 10
746.49514140113524
 20
363.97188234200655
 40
3.311720999999999
 50
205.12727200001112
 51
318.31858400000488
  0
ARC
  8
_0-0_0
  6
CONTINUOUS
 62
    7
 10
747.58803640113513
 20
375.28279534200635
 40
1.8192159999999991
 50
295.11461499996898
 51
101.60973800000301
  0
ARC
  8
_0-0_0
  6
CONTINUOUS
 62
    7
 10
764.76792240113525
 20
415.33589534200644
 40
37.811022999999999
 50
246.21727700002401
 51
275.89263199999181
  0
ARC
  8
_0-0_0
  6
CONTINUOUS
 62
    7
 10
842.79787440113523
 20
652.87068134200638
 40
284.51690200000002
 50
250.3910420000185
 51
253.89151400000821
  0
ARC
  8
_0-0_0
  6
CONTINUOUS
 62
    7
 10
756.3486414011345
 20
362.66743934200656
 40
13.568878
 50
126.06716999999659
 51
169.21975900000487
  0
ARC
  8
_0-0_0
  6
CONTINUOUS
 62
    7
 10
778.52204240113451
 20
332.4311113420066
 40
45.496851999999997
 50
98.025144999994367
 51
134.49510400001509
  0
ARC
  8
_0-0_0
  6
CONTINUOUS
 62
    7
 10
757.54598340113489
 20
353.05257134200644
 40
26.137607000000003
 50
113.2652920000104
 51
150.14834000000411
  0
ARC
  8
_0-0_0
  6
CONTINUOUS
 62
    7
 10
754.0944144011354
 20
355.55379134200666
 40
20.237431999999998
 50
103.064048999983
 51
145.21377499999889
  0
ARC
  8
_0-0_0
  6
CONTINUOUS
 62
    7
 10
744.529549401135
 20
366.68941134200651
 40
14.906537000000002
 50
70.440989000008841
 51
173.7552770000012
  0
ARC
  8
_0-0_0
  6
CONTINUOUS
 62
    7
 10
741.64283140113525
 20
367.44954334200645
 40
18.305446
 50
71.951362000012779
 51
160.69169400000851
  0
ARC
  8
_0-0_0
  6
CONTINUOUS
 62
    7
 10
796.33937840113504
 20
290.13265034200629
 40
87.376249999999999
 50
102.22314300001652
 51
123.92650700000161
  0
ARC
  8
_0-0_0
  6
CONTINUOUS
 62
    7
 10
5737.3541214011348
 20
-9775.8098266579964
 40
11298.430496000001
 50
116.04583399998171
 51
116.20035999997181
  0
ARC
  8
_0-0_0
  6
CONTINUOUS
 62
    7
 10
761.5274284011349
 20
400.8266183420065
 40
14.616853000000001
 50
131.85244899998773
 51
184.43434900000062
  0
ARC
  8
_0-0_0
  6
CONTINUOUS
 62
    7
 10
755.18413640113522
 20
406.43843434200642
 40
5.1678009999999999
 50
318.6512689999667
 51
28.112134999972852
  0
ARC
  8
_0-0_0
  6
CONTINUOUS
 62
    7
 10
761.72693740113516
 20
425.18709134200651
 40
2.2344499999999989
 50
282.06923400002927
 51
114.70050600001298
  0
ARC
  8
_0-0_0
  6
CONTINUOUS
 62
    7
 10
761.24254740113486
 20
424.31660834200636
 40
3.3275669999999993
 50
305.56683999999336
 51
44.837628999996156
  0
ARC
  8
_0-0_0
  6
CONTINUOUS
 62
    7
 10
755.00342640113502
 20
407.93892234200655
 40
4.9675169999999991
 50
315.01207600001231
 51
130.53662700002184
  0
ARC
  8
_0-0_0
  6
CONTINUOUS
 62
    7
 10
773.85938340113512
 20
405.53877634200632
 40
21.001031999999999
 50
123.74241899997953
 51
159.66910500002243
  0
ARC
  8
_0-0_0
  6
CONTINUOUS
 62
    7
 10
772.6945124011354
 20
406.50276534200646
 40
17.854568
 50
122.20827699998752
 51
159.32215899998749
  0
ARC
  8
_0-0_0
  6
CONTINUOUS
 62
    7
 10
772.89504340113467
 20
397.62569034200652
 40
31.970448999999999
 50
112.24281199999642
 51
184.07470200000083
  0
ARC
  8
_0-0_0
  6
CONTINUOUS
 62
    7
 10
777.38267696279991
 20
463.21726329632008
 40
1.4999679999999991
 50
145.32133450954569
 51
325.32576850952529
  0
LINE
  8
_0-0_0
  6
CONTINUOUS
 62
    7
 10
798.12813282695117
 20
471.23256760157579
 11
787.66224346398019
 21
456.10532312158341
  0
LINE
  8
_0-0_0
  6
CONTINUOUS
 62
    7
 10
795.64113053848871
 20
472.91071623140022
 11
785.19514607554584
 21
457.81221784946854
  0
ARC
  8
_0-0_0
  6
CONTINUOUS
 62
    7
 10
796.87502551676971
 20
472.05702928606689
 40
1.5000049999999989
 50
325.32203950952248
 51
145.32239950954181
  0
ARC
  8
_0-0_0
  6
CONTINUOUS
 62
    7
 10
786.42869476976273
 20
456.95877048552632
 40
1.5000049999999989
 50
145.32133450954569
 51
325.32203950952248
  0
ARC
  8
_0-0_0
  6
CONTINUOUS
 62
    7
 10
748.47385676472015
 20
421.84689023630756
 40
58.300594494875533
 50
343.87570284113752
 51
42.704538773680085
  0
ARC
  8
_0-0_0
  6
CONTINUOUS
 62
    7
 10
748.47385676472015
 20
421.84689023630756
 40
52.30059449487554
 50
343.87570284113752
 51
41.228728778430479
  0
LINE
  8
_0-0_0
  6
CONTINUOUS
 62
    7
 10
785.19514607554584
 20
457.81221784946854
 11
778.61622067834958
 21
462.36393783074902
  0
ARC
  8
_0-0_0
  6
CONTINUOUS
 62
    7
 10
770.25597440113472
 20
395.65535334200632
 40
14.654475
 50
143.23236399998302
 51
295.45040100001847
  0
ARC
  8
_0-0_0
  6
CONTINUOUS
 62
    7
 10
743.06148640113463
 20
363.17586134200667
 40
32.243656000000001
 50
93.656118999969152
 51
142.0734179999933
  0
ARC
  8
_0-0_0
  6
CONTINUOUS
 62
    7
 10
773.20179040113544
 20
396.03804434200663
 40
15.770129000000001
 50
153.70386399999941
 51
250.24346899998989
  0
ARC
  8
_0-0_0
  6
CONTINUOUS
 62
    7
 10
740.54964540113531
 20
369.12862034200646
 40
22.149341000000003
 50
57.771370999990324
 51
150.06370099998992
  0
ARC
  8
_0-0_0
  6
CONTINUOUS
 62
    7
 10
772.32914040113485
 20
397.75203334200648
 40
22.280925000000003
 50
145.85567599999831
 51
206.3421220000057
  0
ARC
  8
_0-0_0
  6
CONTINUOUS
 62
    7
 10
766.67823140113512
 20
403.66292134200637
 40
21.401081000000005
 50
118.08352599998349
 51
217.26890299998763
  0
ARC
  8
_0-0_0
  6
CONTINUOUS
 62
    7
 10
757.66077683621006
 20
420.2147567002736
 40
49.03165927509324
 50
294.30272717726552
 51
342.72638052124307
  0
ARC
  8
_0-0_0
  6
CONTINUOUS
 62
    7
 10
761.76253074676424
 20
417.90546720026043
 40
38.441872175569593
 50
292.62885865058422
 51
344.19788666637078
  0
ARC
  8
_0-0_0
  6
CONTINUOUS
 62
    7
 10
787.82900269033064
 20
478.31564499439935
 40
1.5000049999999989
 50
325.32203950952248
 51
147.79842550953319
  0
ARC
  8
_0-0_0
  6
CONTINUOUS
 62
    7
 10
741.86535919999187
 20
407.72355727810378
 40
72.997719080422641
 50
58.357745045478595
 51
138.77488189996112
  0
ARC
  8
_0-0_0
  6
CONTINUOUS
 62
    7
 10
741.85922536039925
 20
407.70636015016072
 40
67.014550890404237
 50
58.63307071800525
 51
138.47635947987268
  0
LINE
  8
_0-0_0
  6
CONTINUOUS
 62
    7
 10
776.14912826858244
 20
464.07071066026299
 11
786.55748617245479
 21
479.11499695283794
  0
LINE
  8
_0-0_0
  6
CONTINUOUS
 62
    7
 10
789.06255142535656
 20
477.46219663128983
 11
795.64147682255282
 21
472.91047665000963
  0
LINE
  8
_0-0_0
  6
CONTINUOUS
 62
    7
 10
789.08241799959171
 20
477.4916516312374
 11
778.61622067834958
 21
462.36393783074902
  0
ARC
  8
_0-0_0
  6
CONTINUOUS
 62
    7
 10
804.29152161086279
 20
370.65880144805067
 40
148.81095206296419
 50
185.55835465315241
 51
276.33365940143688
  0
ARC
  8
_0-0_0
  6
CONTINUOUS
 62
    7
 10
804.29152161086279
 20
370.65880144805067
 40
142.81095206296419
 50
185.73248987099561
 51
276.33365940143688
  0
ARC
  8
_0-0_0
  6
CONTINUOUS
 62
    7
 10
810.60614457650217
 20
420.7921715130575
 40
195.12514186390351
 50
302.10324448477684
 51
51.000433844967624
  0
ARC
  8
_0-0_0
  6
CONTINUOUS
 62
    7
 10
810.59649632253013
 20
420.79789395589489
 40
189.13511689936394
 50
302.10479908556601
 51
50.902798089580067
  0
ARC
  8
_0-0_0
  6
CONTINUOUS
 62
    7
 10
806.39496956653318
 20
413.84475423370611
 40
191.62390788936921
 50
274.28362668403253
 51
304.37069945353272
  0
ARC
  8
_0-0_0
  6
CONTINUOUS
 62
    7
 10
806.39496956653318
 20
413.84475423370611
 40
185.62390788936909
 50
274.28362668403253
 51
304.37069945353272
  0
ARC
  8
_0-0_0
  6
CONTINUOUS
 62
    7
 10
809.09173826318124
 20
513.81886992398756
 40
2.9852678330947775
 50
204.21524024312563
 51
302.55538866763436
  0
ARC
  8
_0-0_0
  6
CONTINUOUS
 62
    7
 10
804.47557722970942
 20
515.94258623930637
 40
7.7620371615583128
 50
323.28973928952013
 51
57.296655849344653
  0
ARC
  8
_0-0_0
  6
CONTINUOUS
 62
    7
 10
809.5834943933329
 20
523.15705566958115
 40
1.1410775014597541
 50
86.704834026083034
 51
216.75971593692162
  0
ARC
  8
_0-0_0
  6
CONTINUOUS
 62
    7
 10
792.33379903620687
 20
500.4297164328849
 40
29.486106433181369
 50
28.036654130426559
 51
54.038941202562462
  0
ARC
  8
_0-0_0
  6
CONTINUOUS
 62
    7
 10
823.42168859106891
 20
516.3906351407262
 40
5.4808987754449419
 50
202.54441204760423
 51
246.14603110499729
  0
ARC
  8
_0-0_0
  6
CONTINUOUS
 62
    7
 10
803.28027426207029
 20
507.35289890612864
 40
27.148902488516242
 50
25.427549188229946
 51
76.218533385848744
  0
ARC
  8
_0-0_0
  6
CONTINUOUS
 62
    7
 10
810.21263312235135
 20
508.7949228841245
 40
24.929635630106404
 50
91.068693113206251
 51
115.4986507742223
  0
ARC
  8
_0-0_0
  6
CONTINUOUS
 62
    7
 10
776.12733517543575
 20
550.72854803914299
 40
30.380763554859712
 50
320.23626223994268
 51
23.505151465203781
  0
LINE
  8
_0-0_0
  6
CONTINUOUS
 62
    7
 10
803.98723582189177
 20
562.84536002832021
 11
802.48576136464749
 21
564.84215701146024
  0
LINE
  8
_0-0_0
  6
CONTINUOUS
 62
    7
 10
802.48576136464749
 20
564.84215701146024
 11
800.79684379902574
 21
566.431510033883
  0
LINE
  8
_0-0_0
  6
CONTINUOUS
 62
    7
 10
800.79684379902574
 20
566.431510033883
 11
799.54017917705812
 21
567.43894338526627
  0
LINE
  8
_0-0_0
  6
CONTINUOUS
 62
    7
 10
799.54017917705812
 20
567.43894338526627
 11
798.65117813470079
 21
567.69170021714353
  0
LINE
  8
_0-0_0
  6
CONTINUOUS
 62
    7
 10
798.65117813470079
 20
567.69170021714353
 11
797.58734100946924
 21
567.75866194155708
  0
LINE
  8
_0-0_0
  6
CONTINUOUS
 62
    7
 10
797.58734100946924
 20
567.75866194155708
 11
796.74789347789954
 21
567.43931660201861
  0
LINE
  8
_0-0_0
  6
CONTINUOUS
 62
    7
 10
796.74789347789954
 20
567.43931660201861
 11
795.97376977007627
 21
566.82495029354607
  0
LINE
  8
_0-0_0
  6
CONTINUOUS
 62
    7
 10
795.97376977007627
 20
566.82495029354607
 11
795.52406555109428
 21
566.13882923537255
  0
LINE
  8
_0-0_0
  6
CONTINUOUS
 62
    7
 10
795.52406555109428
 20
566.13882923537255
 11
794.95391710258218
 21
565.74120760251583
  0
LINE
  8
_0-0_0
  6
CONTINUOUS
 62
    7
 10
794.95391710258218
 20
565.74120760251583
 11
792.33255417540022
 21
566.33971440861239
  0
LINE
  8
_0-0_0
  6
CONTINUOUS
 62
    7
 10
792.33255417540022
 20
566.33971440861239
 11
791.18687663922856
 21
566.89240337335457
  0
LINE
  8
_0-0_0
  6
CONTINUOUS
 62
    7
 10
791.18687663922856
 20
566.89240337335457
 11
790.10652883407033
 21
567.15006654092485
  0
LINE
  8
_0-0_0
  6
CONTINUOUS
 62
    7
 10
790.10652883407033
 20
567.15006654092485
 11
789.44190772889954
 21
567.0165044943202
  0
LINE
  8
_0-0_0
  6
CONTINUOUS
 62
    7
 10
789.44190772889954
 20
567.0165044943202
 11
788.75130323632845
 21
566.90739194325545
  0
ARC
  8
_0-0_0
  6
CONTINUOUS
 62
    7
 10
792.0132959480685
 20
562.9570818450494
 40
5.1230367850804805
 50
129.54852065170039
 51
178.28954970104471
  0
ARC
  8
_0-0_0
  6
CONTINUOUS
 62
    7
 10
770.58060132361106
 20
562.42880833532479
 40
16.32615828028085
 50
319.96190720132302
 51
2.3912882122532624
  0
ARC
  8
_0-0_0
  6
CONTINUOUS
 62
    7
 10
790.79155586059244
 20
547.58710214437622
 40
8.8483494393773459
 50
150.63382688373713
 51
213.98768366226082
  0
ARC
  8
_0-0_0
  6
CONTINUOUS
 62
    7
 10
776.29492853284148
 20
536.90515423677891
 40
9.1739834372105662
 50
314.78527950865657
 51
38.697049462434414
  0
ARC
  8
_0-0_0
  6
CONTINUOUS
 62
    7
 10
770.69784604058441
 20
527.86164053671212
 40
12.32269745584283
 50
11.858504137789151
 51
80.212824597367543
  0
ARC
  8
_0-0_0
  6
CONTINUOUS
 62
    7
 10
778.57108966324972
 20
536.86508839673036
 40
6.5764926884100934
 50
151.48148068045512
 51
230.39308770896014
  0
LINE
  8
_0-0_0
  6
CONTINUOUS
 62
    7
 10
808.5639033126904
 20
523.50752293884409
 11
811.19620491311707
 21
522.13971485968125
  0
LINE
  8
_0-0_0
  6
CONTINUOUS
 62
    7
 10
811.19620491311707
 20
522.13971485968125
 11
814.24016341178856
 21
518.86651860321274
  0
LINE
  8
_0-0_0
  6
CONTINUOUS
 62
    7
 10
814.24016341178856
 20
518.86651860321274
 11
815.45895947044528
 21
517.19409867630259
  0
LINE
  8
_0-0_0
  6
CONTINUOUS
 62
    7
 10
815.45895947044528
 20
517.19409867630259
 11
816.28633636583572
 21
514.89747105617255
  0
LINE
  8
_0-0_0
  6
CONTINUOUS
 62
    7
 10
816.28633636583572
 20
514.89747105617255
 11
817.80431559574197
 21
512.70997745811258
  0
LINE
  8
_0-0_0
  6
CONTINUOUS
 62
    7
 10
817.80431559574197
 20
512.70997745811258
 11
819.47988201968371
 21
511.36674158530684
  0
LINE
  8
_0-0_0
  6
CONTINUOUS
 62
    7
 10
819.47988201968371
 20
511.36674158530684
 11
821.31615814116003
 21
510.92316999986667
  0
LINE
  8
_0-0_0
  6
CONTINUOUS
 62
    7
 10
821.31615814116003
 20
510.92316999986667
 11
823.02159229397603
 21
509.14311070604947
  0
ARC
  8
_0-0_0
  6
CONTINUOUS
 62
    7
 10
817.17786508727841
 20
504.07934409013467
 40
8.3359774301055456
 50
13.446359195291389
 51
61.110343625762731
  0
ARC
  8
_0-0_0
  6
CONTINUOUS
 62
    7
 10
826.25791717631955
 20
506.25027706977892
 40
0.9999999850988389
 50
193.44625856369822
 51
330.31409707724441
  0
ARC
  8
_0-0_0
  6
CONTINUOUS
 62
    7
 10
814.33219093614923
 20
513.048679087408
 40
14.727389116177122
 50
330.31415171877069
 51
23.876331265455555
  0
LINE
  8
_0-0_0
  6
CONTINUOUS
 62
    7
 10
823.02159229397603
 20
509.14311070604947
 11
823.75332816530488
 21
508.26298594783214
  0
LINE
  8
_0-0_0
  6
CONTINUOUS
 62
    7
 10
823.75332816530488
 20
508.26298594783214
 11
824.02102793447511
 21
507.94066291442056
  0
LINE
  8
_0-0_0
  6
CONTINUOUS
 62
    7
 10
824.02102793447511
 20
507.94066291442056
 11
824.3073866040902
 21
507.36613055841309
  0
LINE
  8
_0-0_0
  6
CONTINUOUS
 62
    7
 10
824.3073866040902
 20
507.36613055841309
 11
824.46462223014692
 21
506.84272405936542
  0
LINE
  8
_0-0_0
  6
CONTINUOUS
 62
    7
 10
824.46462223014692
 20
506.84272405936542
 11
824.6042639661357
 21
506.46102557605957
  0
LINE
  8
_0-0_0
  6
CONTINUOUS
 62
    7
 10
824.6042639661357
 20
506.46102557605957
 11
824.68365043783024
 21
505.98741379954305
  0
LINE
  8
_0-0_0
  6
CONTINUOUS
 62
    7
 10
824.68365043783024
 20
505.98741379954305
 11
825.96953466822072
 21
505.25444455474968
  0
ARC
  8
_0-0_0
  6
CONTINUOUS
 62
    7
 10
773.90084459430682
 20
537.3069202229168
 40
10.823148566139512
 50
323.8109373647128
 51
34.065388903217872
  0
ARC
  8
_0-0_0
  6
CONTINUOUS
 62
    7
 10
792.90536398420841
 20
504.71570014962106
 40
15.599602466827591
 50
30.335258672945319
 51
146.25327822934511
  0
ARC
  8
_0-0_0
  6
CONTINUOUS
 62
    7
 10
762.74980599500907
 20
523.14371030275731
 40
14.495789311888972
 50
2.2245496342410309
 51
36.658429240502009
  0
ARC
  8
_0-0_0
  6
CONTINUOUS
 62
    7
 10
767.24220788615867
 20
523.31821760411424
 40
9.9999998509883898
 50
328.91090301416028
 51
2.2245223135048904
  0
LINE
  8
_0-0_0
  6
CONTINUOUS
 62
    7
 10
775.80587132981407
 20
518.1545232843572
 11
774.79608376343094
 21
516.4798532123674
  0
ARC
  8
_0-0_0
  6
CONTINUOUS
 62
    7
 10
796.47013257982508
 20
512.15025737022324
 40
14.265332963089152
 50
5.2837367219675295
 51
95.208125844628753
  0
LINE
  8
_0-0_0
  6
CONTINUOUS
 62
    7
 10
794.43969596451836
 20
525.9395384175117
 11
792.33559558665263
 21
525.52582583323067
  0
LINE
  8
_0-0_0
  6
CONTINUOUS
 62
    7
 10
791.77490428187411
 20
525.29444916169803
 11
791.18823924616891
 21
525.08753380023575
  0
LINE
  8
_0-0_0
  6
CONTINUOUS
 62
    7
 10
790.36530239452702
 20
524.57748701754008
 11
789.69122414562264
 21
524.27768000961134
  0
LINE
  8
_0-0_0
  6
CONTINUOUS
 62
    7
 10
789.03364692017192
 20
523.78715974399472
 11
788.25952321234922
 21
523.17279343552229
  0
LINE
  8
_0-0_0
  6
CONTINUOUS
 62
    7
 10
787.80592499541854
 20
522.89903448828966
 11
787.14521345193589
 21
522.35311731703712
  0
LINE
  8
_0-0_0
  6
CONTINUOUS
 62
    7
 10
785.7426554443083
 20
521.27919695386765
 11
784.51883717397777
 21
519.97872140175184
  0
LINE
  8
_0-0_0
  6
CONTINUOUS
 62
    7
 10
782.49565217539157
 20
517.62054639106418
 11
780.81265322939601
 21
515.46768119038973
  0
ARC
  8
_0-0_0
  6
CONTINUOUS
 62
    7
 10
803.03493216620438
 20
516.05213163640394
 40
8.3188656521012536
 50
352.30946454448429
 51
63.016575998540645
  0
ARC
  8
_0-0_0
  6
CONTINUOUS
 62
    7
 10
793.79641634044845
 20
506.19675647731094
 40
16.36571287563871
 50
25.399490771133131
 51
116.7599886384719
  0
ARC
  8
_0-0_0
  6
CONTINUOUS
 62
    7
 10
804.58208956650651
 20
509.80701346139
 40
21.915059716775119
 50
350.42053474834796
 51
124.77647921447294
  0
ARC
  8
_0-0_0
  6
CONTINUOUS
 62
    7
 10
801.22005860520233
 20
509.22158702516873
 40
20.425899201245624
 50
6.9340743500180535
 51
109.6113555587978
  0
ARC
  8
_0-0_0
  6
CONTINUOUS
 62
    7
 10
777.52807440308459
 20
548.18125011727
 40
24.774230587866452
 50
307.02017404502601
 51
43.322098398529036
  0
LINE
  8
_0-0_0
  6
CONTINUOUS
 62
    7
 10
792.35712552462019
 20
528.30802228321761
 11
789.54886928406893
 21
526.10478947948025
  0
LINE
  8
_0-0_0
  6
CONTINUOUS
 62
    7
 10
788.68733236304706
 20
525.39753152454057
 11
785.52383865290722
 21
522.24412290461476
  0
LINE
  8
_0-0_0
  6
CONTINUOUS
 62
    7
 10
784.59140885508702
 20
521.25328367458189
 11
783.76289329391966
 21
520.16462283332783
  0
LINE
  8
_0-0_0
  6
CONTINUOUS
 62
    7
 10
781.15136820452676
 20
516.60856810620965
 11
781.16789069898459
 21
516.41785700657772
  0
ARC
  8
_0-0_0
  6
CONTINUOUS
 62
    7
 10
764.64641746000439
 20
546.37030133653207
 40
27.910098613648145
 50
326.23387867086694
 51
36.166600978723991
  0
ARC
  8
_0-0_0
  6
CONTINUOUS
 62
    7
 10
767.82919949393715
 20
547.27851526829897
 40
29.913747341726022
 50
307.28409255453369
 51
38.578695944519957
  0
LINE
  8
_0-0_0
  6
CONTINUOUS
 62
    7
 10
781.4088144845914
 20
524.01472127279305
 11
782.35387062086545
 21
525.2272329851404
  0
LINE
  8
_0-0_0
  6
CONTINUOUS
 62
    7
 10
782.35387062086545
 20
525.2272329851404
 11
783.24622552263634
 21
526.95642150596893
  0
LINE
  8
_0-0_0
  6
CONTINUOUS
 62
    7
 10
783.24622552263634
 20
526.95642150596893
 11
783.60850687194443
 21
527.54963910314552
  0
LINE
  8
_0-0_0
  6
CONTINUOUS
 62
    7
 10
784.98526615686387
 20
530.57452679356993
 11
786.51476838599592
 21
533.39728033329004
  0
LINE
  8
_0-0_0
  6
CONTINUOUS
 62
    7
 10
786.51476838599592
 20
533.39728033329004
 11
786.74565581357683
 21
535.04832734221111
  0
LINE
  8
_0-0_0
  6
CONTINUOUS
 62
    7
 10
786.74565581357683
 20
535.04832734221111
 11
786.92216320234365
 21
536.22507016187592
  0
LINE
  8
_0-0_0
  6
CONTINUOUS
 62
    7
 10
786.92216320234365
 20
536.22507016187592
 11
787.17346496427467
 21
537.27306543122938
  0
LINE
  8
_0-0_0
  6
CONTINUOUS
 62
    7
 10
787.17346496427467
 20
537.27306543122938
 11
787.69963486231461
 21
538.8213866512923
  0
LINE
  8
_0-0_0
  6
CONTINUOUS
 62
    7
 10
788.72061278990145
 20
543.29038934640823
 11
789.45966529597627
 21
547.61599585252804
  0
LINE
  8
_0-0_0
  6
CONTINUOUS
 62
    7
 10
789.45966529597627
 20
547.61599585252804
 11
789.67960518941481
 21
550.03635137687149
  0
LINE
  8
_0-0_0
  6
CONTINUOUS
 62
    7
 10
789.67960518941481
 20
550.03635137687149
 11
789.72303985214239
 21
551.27994261054425
  0
LINE
  8
_0-0_0
  6
CONTINUOUS
 62
    7
 10
790.04134640018833
 20
553.02387643769509
 11
790.22730502542345
 21
554.36686904692112
  0
LINE
  8
_0-0_0
  6
CONTINUOUS
 62
    7
 10
773.96182287458203
 20
538.90467623038137
 11
775.2988530808193
 21
538.34707610170847
  0
LINE
  8
_0-0_0
  6
CONTINUOUS
 62
    7
 10
776.59412367943219
 20
537.53684909433184
 11
777.39960925574678
 21
536.7788551478144
  0
LINE
  8
_0-0_0
  6
CONTINUOUS
 62
    7
 10
777.39960925574678
 20
536.7788551478144
 11
778.88065381490094
 21
535.38510291794876
  0
LINE
  8
_0-0_0
  6
CONTINUOUS
 62
    7
 10
778.88065381490094
 20
535.38510291794876
 11
779.8789824516922
 21
533.68664433075446
  0
LINE
  8
_0-0_0
  6
CONTINUOUS
 62
    7
 10
780.4875366484157
 20
532.35494748960912
 11
781.31659234811821
 21
531.04930086721617
  0
LINE
  8
_0-0_0
  6
CONTINUOUS
 62
    7
 10
781.31659234811821
 20
531.04930086721617
 11
781.74327248951386
 21
529.88876230938092
  0
LINE
  8
_0-0_0
  6
CONTINUOUS
 62
    7
 10
781.74327248951386
 20
529.88876230938092
 11
781.77779389625243
 21
528.57181776085065
  0
LINE
  8
_0-0_0
  6
CONTINUOUS
 62
    7
 10
781.77779389625243
 20
528.57181776085065
 11
781.90918565992376
 21
527.51400982011103
  0
LINE
  8
_0-0_0
  6
CONTINUOUS
 62
    7
 10
781.90918565992376
 20
527.51400982011103
 11
781.35387874350272
 21
525.93471756089082
  0
LINE
  8
_0-0_0
  6
CONTINUOUS
 62
    7
 10
781.35387874350272
 20
525.93471756089082
 11
780.46542749615469
 21
523.79317874365199
  0
LINE
  8
_0-0_0
  6
CONTINUOUS
 62
    7
 10
780.46542749615469
 20
523.79317874365199
 11
779.57697249959665
 21
521.65162328364488
  0
LINE
  8
_0-0_0
  6
CONTINUOUS
 62
    7
 10
779.57697249959665
 20
521.65162328364488
 11
777.50478378523269
 21
517.47125479525687
  0
LINE
  8
_0-0_0
  6
CONTINUOUS
 62
    7
 10
776.10489435940963
 20
535.19478167783734
 11
776.8882808897979
 21
534.04886330138788
  0
LINE
  8
_0-0_0
  6
CONTINUOUS
 62
    7
 10
776.8882808897979
 20
534.04886330138788
 11
777.68429966590531
 21
533.12461257901612
  0
LINE
  8
_0-0_0
  6
CONTINUOUS
 62
    7
 10
778.10708955856228
 20
532.37645277489003
 11
778.71175566460352
 21
531.45711321644842
  0
LINE
  8
_0-0_0
  6
CONTINUOUS
 62
    7
 10
778.71175566460352
 20
531.45711321644842
 11
778.93057620521404
 21
530.49220390846892
  0
LINE
  8
_0-0_0
  6
CONTINUOUS
 62
    7
 10
778.93057620521404
 20
530.49220390846892
 11
779.05639516662632
 21
528.85577708093376
  0
LINE
  8
_0-0_0
  6
CONTINUOUS
 62
    7
 10
779.05639516662632
 20
528.85577708093376
 11
779.20430942475548
 21
527.60725804056244
  0
LINE
  8
_0-0_0
  6
CONTINUOUS
 62
    7
 10
779.20430942475548
 20
527.60725804056244
 11
778.89696006732663
 21
525.09402751251992
  0
LINE
  8
_0-0_0
  6
CONTINUOUS
 62
    7
 10
786.28376898783301
 20
554.34131234162021
 11
785.91202083831718
 21
553.58183796858941
  0
LINE
  8
_0-0_0
  6
CONTINUOUS
 62
    7
 10
785.91202083831718
 20
553.58183796858941
 11
785.65756328734949
 21
552.47844363554429
  0
LINE
  8
_0-0_0
  6
CONTINUOUS
 62
    7
 10
785.65756328734949
 20
552.47844363554429
 11
785.00703959809243
 21
551.63097696544639
  0
LINE
  8
_0-0_0
  6
CONTINUOUS
 62
    7
 10
785.00703959809243
 20
551.63097696544639
 11
784.7321773692488
 21
551.13064618649912
  0
LINE
  8
_0-0_0
  6
CONTINUOUS
 62
    7
 10
784.7321773692488
 20
551.13064618649912
 11
784.38640295065909
 21
550.34671050339796
  0
LINE
  8
_0-0_0
  6
CONTINUOUS
 62
    7
 10
784.38640295065909
 20
550.34671050339796
 11
784.10206801434242
 21
549.6801277768335
  0
LINE
  8
_0-0_0
  6
CONTINUOUS
 62
    7
 10
784.12954179215205
 20
548.72012480454725
 11
784.24442287589613
 21
547.85301830696505
  0
LINE
  8
_0-0_0
  6
CONTINUOUS
 62
    7
 10
784.24442287589613
 20
547.85301830696505
 11
784.46323966729778
 21
546.8880923562175
  0
LINE
  8
_0-0_0
  6
CONTINUOUS
 62
    7
 10
784.46323966729778
 20
546.8880923562175
 11
784.8151173702081
 21
545.85632764793729
  0
LINE
  8
_0-0_0
  6
CONTINUOUS
 62
    7
 10
784.8151173702081
 20
545.85632764793729
 11
785.52204787801372
 21
543.84822092412912
  0
LINE
  8
_0-0_0
  6
CONTINUOUS
 62
    7
 10
785.52204787801372
 20
543.84822092412912
 11
785.74086841862481
 21
542.88331161614985
  0
LINE
  8
_0-0_0
  6
CONTINUOUS
 62
    7
 10
785.74086841862481
 20
542.88331161614985
 11
785.97619588995315
 21
541.7276842222451
  0
LINE
  8
_0-0_0
  6
CONTINUOUS
 62
    7
 10
785.97619588995315
 20
541.7276842222451
 11
786.02017444042531
 21
540.57698463503891
  0
LINE
  8
_0-0_0
  6
CONTINUOUS
 62
    7
 10
798.78257580563741
 20
566.63388744816723
 11
799.74952701019618
 21
566.30778212966982
  0
LINE
  8
_0-0_0
  6
CONTINUOUS
 62
    7
 10
799.74952701019618
 20
566.30778212966982
 11
800.43456835698237
 21
565.83828760846939
  0
LINE
  8
_0-0_0
  6
CONTINUOUS
 62
    7
 10
800.43456835698237
 20
565.83828760846939
 11
801.21795488737064
 21
564.69236923202027
  0
LINE
  8
_0-0_0
  6
CONTINUOUS
 62
    7
 10
802.23836325713933
 20
563.38181144569626
 11
802.54458735447542
 21
562.50978196965332
  0
LINE
  8
_0-0_0
  6
CONTINUOUS
 62
    7
 10
802.54458735447542
 20
562.50978196965332
 11
803.40111092472171
 21
560.24413720321115
  0
LINE
  8
_0-0_0
  6
CONTINUOUS
 62
    7
 10
803.40111092472171
 20
560.24413720321115
 11
803.8348386950463
 21
558.72665706913176
  0
LINE
  8
_0-0_0
  6
CONTINUOUS
 62
    7
 10
805.32070183394865
 20
550.20544541290712
 11
805.16238608747699
 21
549.82896067681634
  0
LINE
  8
_0-0_0
  6
CONTINUOUS
 62
    7
 10
805.16238608747699
 20
549.82896067681634
 11
805.10243108834686
 21
548.77605907176996
  0
LINE
  8
_0-0_0
  6
CONTINUOUS
 62
    7
 10
805.10243108834686
 20
548.77605907176996
 11
805.02039635623987
 21
547.33525666585331
  0
LINE
  8
_0-0_0
  6
CONTINUOUS
 62
    7
 10
804.57459204247016
 20
546.23676866850099
 11
804.72251004980933
 21
544.9882662708975
  0
LINE
  8
_0-0_0
  6
CONTINUOUS
 62
    7
 10
804.72251004980933
 20
544.9882662708975
 11
804.52559423395769
 21
544.41457036256281
  0
LINE
  8
_0-0_0
  6
CONTINUOUS
 62
    7
 10
803.9175742685029
 20
543.35196456829851
 11
803.56066765107755
 21
541.410819568904
  0
LINE
  8
_0-0_0
  6
CONTINUOUS
 62
    7
 10
803.56066765107755
 20
541.410819568904
 11
803.23141356888925
 21
540.43619425717554
  0
LINE
  8
_0-0_0
  6
CONTINUOUS
 62
    7
 10
803.23141356888925
 20
540.43619425717554
 11
802.94708453983787
 21
539.76960670237429
  0
LINE
  8
_0-0_0
  6
CONTINUOUS
 62
    7
 10
802.94708453983787
 20
539.76960670237429
 11
802.30993130521199
 21
538.67604651172053
  0
LINE
  8
_0-0_0
  6
CONTINUOUS
 62
    7
 10
802.30993130521199
 20
538.67604651172053
 11
802.40438839813123
 21
538.41197993917513
  0
LINE
  8
_0-0_0
  6
CONTINUOUS
 62
    7
 10
802.40438839813123
 20
538.41197993917513
 11
801.80027799436516
 21
536.93701902026294
  0
LINE
  8
_0-0_0
  6
CONTINUOUS
 62
    7
 10
801.80027799436516
 20
536.93701902026294
 11
801.53245373797574
 21
536.07973485054174
  0
LINE
  8
_0-0_0
  6
CONTINUOUS
 62
    7
 10
801.53245373797574
 20
536.07973485054174
 11
800.87878982342204
 21
535.17687610304495
  0
LINE
  8
_0-0_0
  6
CONTINUOUS
 62
    7
 10
800.87878982342204
 20
535.17687610304495
 11
800.15031972117299
 21
534.40277456233491
  0
LINE
  8
_0-0_0
  6
CONTINUOUS
 62
    7
 10
800.15031972117299
 20
534.40277456233491
 11
798.83907858116856
 21
533.00939554922161
  0
LINE
  8
_0-0_0
  6
CONTINUOUS
 62
    7
 10
798.83907858116856
 20
533.00939554922161
 11
798.18151691945729
 21
532.51888226989843
  0
LINE
  8
_0-0_0
  6
CONTINUOUS
 62
    7
 10
798.18151691945729
 20
532.51888226989843
 11
797.4073932116346
 21
531.90451596142555
  0
ARC
  8
_0-0_0
  6
CONTINUOUS
 62
    7
 10
701.70779859004597
 20
575.61082553373706
 40
25.249997716397079
 50
257.47918640992555
 51
322.29925257685227
  0
ARC
  8
_0-0_0
  6
CONTINUOUS
 62
    7
 10
705.97111942649803
 20
598.74021144824235
 40
48.761016119107374
 50
193.30521515730044
 51
258.4808199912826
  0
ARC
  8
_0-0_0
  6
CONTINUOUS
 62
    7
 10
721.31024637269888
 20
601.29509085209429
 40
64.28485011629985
 50
132.34688330559291
 51
192.3748477697136
  0
ARC
  8
_0-0_0
  6
CONTINUOUS
 62
    7
 10
747.0091704725769
 20
576.65413846021454
 40
99.836462440543443
 50
65.011329330587017
 51
133.72149985720347
  0
ARC
  8
_0-0_0
  6
CONTINUOUS
 62
    7
 10
701.70779859004597
 20
575.61082553373706
 40
19.249995898455438
 50
257.32830753112609
 51
324.67962814410822
  0
ARC
  8
_0-0_0
  6
CONTINUOUS
 62
    7
 10
705.97111942649803
 20
598.74021144824235
 40
42.761016208514334
 50
193.3700063318033
 51
258.55343856254137
  0
ARC
  8
_0-0_0
  6
CONTINUOUS
 62
    7
 10
721.31024637269888
 20
601.29509085209429
 40
58.284846391009602
 50
132.27679873451029
 51
192.32659931343019
  0
ARC
  8
_0-0_0
  6
CONTINUOUS
 62
    7
 10
747.0091704725769
 20
576.65413846021454
 40
93.83646252995041
 50
65.024213628667255
 51
133.76586876601468
  0
ARC
  8
_0-0_0
  6
CONTINUOUS
 62
    7
 10
793.96679212676815
 20
500.2039680883027
 40
25.249997716397079
 50
139.17981138145819
 51
203.99988437859398
  0
ARC
  8
_0-0_0
  6
CONTINUOUS
 62
    7
 10
815.78508482565212
 20
508.98499391407455
 40
48.761016119107197
 50
202.99825079718019
 51
227.0199814236625
  0
ARC
  8
_0-0_0
  6
CONTINUOUS
 62
    7
 10
815.78508482565269
 20
508.98499391407432
 40
48.761016119107374
 50
243.52752556819462
 51
268.17385563119501
  0
ARC
  8
_0-0_0
  6
CONTINUOUS
 62
    7
 10
815.23622588096032
 20
524.52574105008182
 40
64.28485011629985
 50
269.10422301877293
 51
329.13220114325441
  0
ARC
  8
_0-0_0
  6
CONTINUOUS
 62
    7
 10
785.97381157933114
 20
544.80682445087666
 40
99.836462440543443
 50
327.75758459169134
 51
36.467757679626629
  0
ARC
  8
_0-0_0
  6
CONTINUOUS
 62
    7
 10
715.22929812699658
 20
490.8482985038255
 40
188.80473046295742
 50
36.875765859867421
 51
50.590079137514067
  0
ARC
  8
_0-0_0
  6
CONTINUOUS
 62
    7
 10
793.96679212676815
 20
500.2039680883027
 40
19.249995898455438
 50
136.79944947457429
 51
204.15077691773681
  0
ARC
  8
_0-0_0
  6
CONTINUOUS
 62
    7
 10
815.7850848256561
 20
508.98499391407682
 40
42.761016208518299
 50
202.92563222593691
 51
225.84492943179143
  0
ARC
  8
_0-0_0
  6
CONTINUOUS
 62
    7
 10
815.78508482565269
 20
508.98499391407432
 40
42.761016208514334
 50
244.68854966423129
 51
268.10907811708688
  0
ARC
  8
_0-0_0
  6
CONTINUOUS
 62
    7
 10
815.23622588096032
 20
524.52574105008182
 40
58.284846391009602
 50
269.15248513545242
 51
329.20227888415548
  0
ARC
  8
_0-0_0
  6
CONTINUOUS
 62
    7
 10
785.97381157933114
 20
544.80682445087666
 40
93.83646252995041
 50
327.71321568279785
 51
36.454862282475517
  0
ARC
  8
_0-0_0
  6
CONTINUOUS
 62
    7
 10
715.22929812699658
 20
490.8482985038255
 40
182.80473055236439
 50
36.882568728300832
 51
49.725482707700507
  0
ARC
  8
_0-0_0
  6
CONTINUOUS
 62
    7
 10
714.58358639172616
 20
593.82703256415732
 40
2.9852678330947775
 50
154.92369794665751
 51
253.26383954098819
  0
ARC
  8
_0-0_0
  6
CONTINUOUS
 62
    7
 10
717.29008553154983
 20
589.52657928173574
 40
7.7620371615583128
 50
40.182424361621194
 51
134.1893200040119
  0
ARC
  8
_0-0_0
  6
CONTINUOUS
 62
    7
 10
723.77832378073663
 20
595.53010840628133
 40
1.1410775014597541
 50
240.71935018677971
 51
10.774279908964274
  0
ARC
  8
_0-0_0
  6
CONTINUOUS
 62
    7
 10
703.48961940908225
 20
575.46888146662343
 40
29.486106433181369
 50
43.440151388165724
 51
69.442408578179482
  0
ARC
  8
_0-0_0
  6
CONTINUOUS
 62
    7
 10
715.2682199625815
 20
608.36982638273764
 40
5.4808987754449419
 50
211.3330350187278
 51
254.93468139686601
  0
ARC
  8
_0-0_0
  6
CONTINUOUS
 62
    7
 10
708.92907030251479
 20
587.22336191026568
 40
27.148902488516242
 50
21.260532737900931
 51
72.051542548676323
  0
ARC
  8
_0-0_0
  6
CONTINUOUS
 62
    7
 10
709.45648026209426
 20
594.28445209079416
 40
24.929635630106404
 50
341.98041534945901
 51
6.4103900859385918
  0
ARC
  8
_0-0_0
  6
CONTINUOUS
 62
    7
 10
755.47003164887883
 20
565.94738955304877
 40
30.380763554859712
 50
73.97391465853427
 51
137.24281071399827
  0
LINE
  8
_0-0_0
  6
CONTINUOUS
 62
    7
 10
763.85738892854874
 20
595.14743662441094
 11
766.03264659936713
 21
593.91865359369137
  0
LINE
  8
_0-0_0
  6
CONTINUOUS
 62
    7
 10
766.03264659936713
 20
593.91865359369137
 11
767.8283134852154
 21
592.45098532971099
  0
LINE
  8
_0-0_0
  6
CONTINUOUS
 62
    7
 10
767.8283134852154
 20
592.45098532971099
 11
768.99075537346278
 21
591.33614443937961
  0
LINE
  8
_0-0_0
  6
CONTINUOUS
 62
    7
 10
768.99075537346278
 20
591.33614443937961
 11
769.35707498166892
 21
590.4875976812192
  0
LINE
  8
_0-0_0
  6
CONTINUOUS
 62
    7
 10
769.35707498166892
 20
590.4875976812192
 11
769.56193617623398
 21
589.44153344144036
  0
LINE
  8
_0-0_0
  6
CONTINUOUS
 62
    7
 10
769.56193617623398
 20
589.44153344144036
 11
769.35457498371193
 21
588.56766256113826
  0
LINE
  8
_0-0_0
  6
CONTINUOUS
 62
    7
 10
769.35457498371193
 20
588.56766256113826
 11
768.84619283081065
 21
587.7201522840968
  0
LINE
  8
_0-0_0
  6
CONTINUOUS
 62
    7
 10
768.84619283081065
 20
587.7201522840968
 11
768.22444878994361
 21
587.18497259448679
  0
LINE
  8
_0-0_0
  6
CONTINUOUS
 62
    7
 10
768.22444878994361
 20
587.18497259448679
 11
767.90442583090737
 21
586.56791655248537
  0
LINE
  8
_0-0_0
  6
CONTINUOUS
 62
    7
 10
767.90442583090737
 20
586.56791655248537
 11
768.83905600270111
 21
584.04676056220035
  0
LINE
  8
_0-0_0
  6
CONTINUOUS
 62
    7
 10
768.83905600270111
 20
584.04676056220035
 11
769.53614827774572
 21
582.98276455932546
  0
LINE
  8
_0-0_0
  6
CONTINUOUS
 62
    7
 10
769.53614827774572
 20
582.98276455932546
 11
769.93225071989002
 21
581.94514313229763
  0
LINE
  8
_0-0_0
  6
CONTINUOUS
 62
    7
 10
769.93225071989002
 20
581.94514313229763
 11
769.88632647000372
 21
581.26878757555824
  0
LINE
  8
_0-0_0
  6
CONTINUOUS
 62
    7
 10
769.88632647000372
 20
581.26878757555824
 11
769.8680460638036
 21
580.56985733922249
  0
ARC
  8
_0-0_0
  6
CONTINUOUS
 62
    7
 10
765.52674814241982
 20
583.28991690878263
 40
5.1230367850804805
 50
279.18953008303998
 51
327.93055230221154
  0
ARC
  8
_0-0_0
  6
CONTINUOUS
 62
    7
 10
767.79274122070433
 20
561.97080232510154
 40
16.32615828028085
 50
95.087774496372887
 51
137.51717258274377
  0
ARC
  8
_0-0_0
  6
CONTINUOUS
 62
    7
 10
750.44656842285804
 20
580.07794934573678
 40
8.8483494393773459
 50
243.49138246144901
 51
306.84523923998728
  0
ARC
  8
_0-0_0
  6
CONTINUOUS
 62
    7
 10
741.7424212084461
 20
564.31424416117363
 40
9.1739834372105662
 50
58.782027760337073
 51
142.69381393583603
  0
ARC
  8
_0-0_0
  6
CONTINUOUS
 62
    7
 10
733.50439101243467
 20
557.58764615164262
 40
12.32269745584283
 50
17.26623811127979
 51
85.620561985896543
  0
ARC
  8
_0-0_0
  6
CONTINUOUS
 62
    7
 10
741.4064371792324
 20
566.56583805268122
 40
6.5764926884100934
 50
227.08599207512029
 51
305.99761276404092
  0
LINE
  8
_0-0_0
  6
CONTINUOUS
 62
    7
 10
724.2585280930615
 20
594.56481097989911
 11
722.55972109447839
 21
596.99666713126783
  0
LINE
  8
_0-0_0
  6
CONTINUOUS
 62
    7
 10
722.55972109447839
 20
596.99666713126783
 11
718.9181496487987
 21
599.58867705045452
  0
LINE
  8
_0-0_0
  6
CONTINUOUS
 62
    7
 10
718.9181496487987
 20
599.58867705045452
 11
717.10131064656196
 21
600.57941468585784
  0
LINE
  8
_0-0_0
  6
CONTINUOUS
 62
    7
 10
717.10131064656196
 20
600.57941468585784
 11
714.71653132196366
 21
601.10082466749043
  0
LINE
  8
_0-0_0
  6
CONTINUOUS
 62
    7
 10
714.71653132196366
 20
601.10082466749043
 11
712.35006568910194
 21
602.32115738704022
  0
LINE
  8
_0-0_0
  6
CONTINUOUS
 62
    7
 10
712.35006568910194
 20
602.32115738704022
 11
710.80015354726527
 21
603.80761656501033
  0
LINE
  8
_0-0_0
  6
CONTINUOUS
 62
    7
 10
710.80015354726527
 20
603.80761656501033
 11
710.12133202194605
 21
605.57053098969061
  0
LINE
  8
_0-0_0
  6
CONTINUOUS
 62
    7
 10
710.12133202194605
 20
605.57053098969061
 11
708.1344335449927
 21
607.0297682554509
  0
ARC
  8
_0-0_0
  6
CONTINUOUS
 62
    7
 10
703.8743938928809
 20
600.57662359459721
 40
8.3359774301055456
 50
36.368774578185324
 51
84.032724003890834
  0
ARC
  8
_0-0_0
  6
CONTINUOUS
 62
    7
 10
704.8449582595083
 20
609.86200977570036
 40
0.9999999850988389
 50
127.16490757474932
 51
264.03290318270234
  0
ARC
  8
_0-0_0
  6
CONTINUOUS
 62
    7
 10
713.13783512519194
 20
598.92265790706472
 40
14.727389116177122
 50
73.602750226185066
 51
127.16490757474931
  0
LINE
  8
_0-0_0
  6
CONTINUOUS
 62
    7
 10
708.1344335449927
 20
607.0297682554509
 11
707.16654827387799
 21
607.64071547882611
  0
LINE
  8
_0-0_0
  6
CONTINUOUS
 62
    7
 10
707.16654827387799
 20
607.64071547882611
 11
706.81213292964003
 21
607.86417690205383
  0
LINE
  8
_0-0_0
  6
CONTINUOUS
 62
    7
 10
706.81213292964003
 20
607.86417690205383
 11
706.20521297604739
 21
608.07331985976441
  0
LINE
  8
_0-0_0
  6
CONTINUOUS
 62
    7
 10
706.20521297604739
 20
608.07331985976441
 11
705.66578638259102
 21
608.16108187568045
  0
LINE
  8
_0-0_0
  6
CONTINUOUS
 62
    7
 10
705.66578638259102
 20
608.16108187568045
 11
705.26917126189346
 21
608.24984899814478
  0
LINE
  8
_0-0_0
  6
CONTINUOUS
 62
    7
 10
705.26917126189346
 20
608.24984899814478
 11
704.78923768882112
 21
608.26691305928091
  0
LINE
  8
_0-0_0
  6
CONTINUOUS
 62
    7
 10
704.78923768882112
 20
608.26691305928091
 11
703.89514283291589
 21
609.44646254302495
  0
ARC
  8
_0-0_0
  6
CONTINUOUS
 62
    7
 10
742.45239315497713
 20
561.99283050331485
 40
10.823148566139512
 50
63.413675512962314
 51
133.66812875901164
  0
ARC
  8
_0-0_0
  6
CONTINUOUS
 62
    7
 10
707.66474474761424
 20
576.59344654997983
 40
15.599602466827591
 50
311.22579472458324
 51
67.143800620572208
  0
ARC
  8
_0-0_0
  6
CONTINUOUS
 62
    7
 10
729.86115613319953
 20
549.0931270753108
 40
14.495789311888972
 50
60.820649689837737
 51
95.254536980052094
  0
ARC
  8
_0-0_0
  6
CONTINUOUS
 62
    7
 10
729.44942919847563
 20
553.57001954271789
 40
9.9999998509883898
 50
95.254540395115995
 51
128.56816993976099
  0
LINE
  8
_0-0_0
  6
CONTINUOUS
 62
    7
 10
723.21497411841563
 20
561.38867670799175
 11
721.6859898584903
 21
560.16950353666073
  0
ARC
  8
_0-0_0
  6
CONTINUOUS
 62
    7
 10
714.57204685302941
 20
581.09559971951194
 40
14.265332963089152
 50
2.270940279107919
 51
92.195343062085882
  0
LINE
  8
_0-0_0
  6
CONTINUOUS
 62
    7
 10
728.50830074936823
 20
580.87731172020779
 11
728.3719883395139
 21
578.73726296790608
  0
LINE
  8
_0-0_0
  6
CONTINUOUS
 62
    7
 10
728.21556278437072
 20
578.15122441825304
 11
728.08676925838313
 21
577.5426208454777
  0
LINE
  8
_0-0_0
  6
CONTINUOUS
 62
    7
 10
727.68817863281299
 20
576.6602974959502
 11
727.47865697903308
 21
575.95292444686277
  0
LINE
  8
_0-0_0
  6
CONTINUOUS
 62
    7
 10
727.07791554867981
 20
575.23711074308051
 11
726.56954521030912
 21
574.38959080956431
  0
LINE
  8
_0-0_0
  6
CONTINUOUS
 62
    7
 10
726.35715331734616
 20
573.90421952629197
 11
725.90187691955521
 21
573.17805556321503
  0
LINE
  8
_0-0_0
  6
CONTINUOUS
 62
    7
 10
725.01966593105578
 20
571.64765867933841
 11
723.88953973728746
 21
570.26496871268648
  0
LINE
  8
_0-0_0
  6
CONTINUOUS
 62
    7
 10
721.81477630443283
 20
567.95204478023823
 11
719.89929900943025
 21
566.00314581709779
  0
ARC
  8
_0-0_0
  6
CONTINUOUS
 62
    7
 10
717.58621622265764
 20
588.11243817593788
 40
8.3188656521012536
 50
34.462496101568121
 51
105.1696084094494
  0
ARC
  8
_0-0_0
  6
CONTINUOUS
 62
    7
 10
709.01721683153255
 20
577.66971749863058
 40
16.36571287563871
 50
340.71909797581748
 51
72.079595843172569
  0
ARC
  8
_0-0_0
  6
CONTINUOUS
 62
    7
 10
711.19285974216837
 20
588.83355455709091
 40
21.915059716775119
 50
332.70258690924908
 51
107.05855186590736
  0
ARC
  8
_0-0_0
  6
CONTINUOUS
 62
    7
 10
711.05002452218059
 20
585.42392299502342
 40
20.425899201245624
 50
347.86771056493041
 51
90.544984943525506
  0
ARC
  8
_0-0_0
  6
CONTINUOUS
 62
    7
 10
752.7620735221609
 20
567.00464848798572
 40
24.774230587866452
 50
54.156972207508183
 51
150.45889890890012
  0
LINE
  8
_0-0_0
  6
CONTINUOUS
 62
    7
 10
731.12772410247089
 20
579.12076282992882
 11
729.30876715803436
 21
576.04961880288113
  0
LINE
  8
_0-0_0
  6
CONTINUOUS
 62
    7
 10
728.71965687734075
 20
575.10333904952734
 11
726.00484752641421
 21
571.55630303307714
  0
LINE
  8
_0-0_0
  6
CONTINUOUS
 62
    7
 10
725.14379899782853
 20
570.50282496324724
 11
724.17224916398709
 21
569.53966390050334
  0
LINE
  8
_0-0_0
  6
CONTINUOUS
 62
    7
 10
720.98638084896947
 20
566.48749027572615
 11
720.79515141592083
 21
566.47903780650051
  0
ARC
  8
_0-0_0
  6
CONTINUOUS
 62
    7
 10
752.64327124439035
 20
553.99685531228636
 40
27.910098613648145
 50
61.312466852512223
 51
131.24518745287233
  0
ARC
  8
_0-0_0
  6
CONTINUOUS
 62
    7
 10
753.12946873946487
 20
557.27076987996736
 40
29.913747341726022
 50
58.90038981598817
 51
150.19498722952446
  0
LINE
  8
_0-0_0
  6
CONTINUOUS
 62
    7
 10
728.29600960221342
 20
567.70674504134115
 11
729.37519050212813
 21
568.80159086281367
  0
LINE
  8
_0-0_0
  6
CONTINUOUS
 62
    7
 10
729.37519050212813
 20
568.80159086281367
 11
730.97351507727751
 21
569.91143201813793
  0
LINE
  8
_0-0_0
  6
CONTINUOUS
 62
    7
 10
730.97351507727751
 20
569.91143201813793
 11
731.51454064682696
 21
570.34785404596676
  0
LINE
  8
_0-0_0
  6
CONTINUOUS
 62
    7
 10
734.33449288040038
 20
572.10663004459036
 11
736.93414046685689
 21
573.99054577926074
  0
LINE
  8
_0-0_0
  6
CONTINUOUS
 62
    7
 10
736.93414046685689
 20
573.99054577926074
 11
738.54108757408767
 21
574.43437198066556
  0
LINE
  8
_0-0_0
  6
CONTINUOUS
 62
    7
 10
738.54108757408767
 20
574.43437198066556
 11
739.68484552937241
 21
574.76254523831255
  0
LINE
  8
_0-0_0
  6
CONTINUOUS
 62
    7
 10
739.68484552937241
 20
574.76254523831255
 11
740.69119924111931
 21
575.14812022062927
  0
LINE
  8
_0-0_0
  6
CONTINUOUS
 62
    7
 10
740.69119924111931
 20
575.14812022062927
 11
742.1578718656292
 21
575.87134991251844
  0
LINE
  8
_0-0_0
  6
CONTINUOUS
 62
    7
 10
746.45595620944107
 20
577.4653463817159
 11
750.64858176296809
 21
578.7611506044949
  0
LINE
  8
_0-0_0
  6
CONTINUOUS
 62
    7
 10
750.64858176296809
 20
578.7611506044949
 11
753.01970785504409
 21
579.29425517381162
  0
LINE
  8
_0-0_0
  6
CONTINUOUS
 62
    7
 10
753.01970785504409
 20
579.29425517381162
 11
754.24706417730476
 21
579.49919614195539
  0
LINE
  8
_0-0_0
  6
CONTINUOUS
 62
    7
 10
755.93472975585257
 20
580.04178000514196
 11
757.24209477150453
 21
580.40098256966746
  0
LINE
  8
_0-0_0
  6
CONTINUOUS
 62
    7
 10
744.02862714671073
 20
562.26125926088537
 11
743.30174022319625
 21
563.51433958910195
  0
LINE
  8
_0-0_0
  6
CONTINUOUS
 62
    7
 10
742.32980833359704
 20
564.69312506872836
 11
741.47340844969449
 21
565.39309394423947
  0
LINE
  8
_0-0_0
  6
CONTINUOUS
 62
    7
 10
741.47340844969449
 20
565.39309394423947
 11
739.89874417435999
 21
566.68012819404782
  0
LINE
  8
_0-0_0
  6
CONTINUOUS
 62
    7
 10
739.89874417435999
 20
566.68012819404782
 11
738.08477541130628
 21
567.44886406363605
  0
LINE
  8
_0-0_0
  6
CONTINUOUS
 62
    7
 10
736.68519915307286
 20
567.87892055706345
 11
735.28275265565526
 21
568.53097881630572
  0
LINE
  8
_0-0_0
  6
CONTINUOUS
 62
    7
 10
735.28275265565526
 20
568.53097881630572
 11
734.07655879330889
 21
568.80295666220843
  0
LINE
  8
_0-0_0
  6
CONTINUOUS
 62
    7
 10
734.07655879330889
 20
568.80295666220843
 11
732.76631172394218
 21
568.6657655199723
  0
LINE
  8
_0-0_0
  6
CONTINUOUS
 62
    7
 10
732.76631172394218
 20
568.6657655199723
 11
731.700402000792
 21
568.65835168992123
  0
LINE
  8
_0-0_0
  6
CONTINUOUS
 62
    7
 10
731.700402000792
 20
568.65835168992123
 11
730.20682643800114
 21
567.90220671561531
  0
LINE
  8
_0-0_0
  6
CONTINUOUS
 62
    7
 10
730.20682643800114
 20
567.90220671561531
 11
728.19914971494768
 21
566.74255715395327
  0
LINE
  8
_0-0_0
  6
CONTINUOUS
 62
    7
 10
728.19914971494768
 20
566.74255715395327
 11
726.19147299189422
 21
565.58290759229124
  0
LINE
  8
_0-0_0
  6
CONTINUOUS
 62
    7
 10
726.19147299189422
 20
565.58290759229124
 11
722.31638221397759
 21
562.98421463495731
  0
LINE
  8
_0-0_0
  6
CONTINUOUS
 62
    7
 10
740.07133435156049
 20
563.90319384658051
 11
738.83320469243642
 21
564.53077747810141
  0
LINE
  8
_0-0_0
  6
CONTINUOUS
 62
    7
 10
738.83320469243642
 20
564.53077747810141
 11
737.81320956269781
 21
565.19970739025882
  0
LINE
  8
_0-0_0
  6
CONTINUOUS
 62
    7
 10
737.01636569019911
 20
565.52151511350439
 11
736.02615339439978
 21
566.00137035679484
  0
LINE
  8
_0-0_0
  6
CONTINUOUS
 62
    7
 10
736.02615339439978
 20
566.00137035679484
 11
735.04095998451021
 21
566.09273565953026
  0
LINE
  8
_0-0_0
  6
CONTINUOUS
 62
    7
 10
735.04095998451021
 20
566.09273565953026
 11
733.40209105308872
 21
566.00448411626314
  0
LINE
  8
_0-0_0
  6
CONTINUOUS
 62
    7
 10
733.40209105308872
 20
566.00448411626314
 11
732.14494008235818
 21
565.98862747346141
  0
LINE
  8
_0-0_0
  6
CONTINUOUS
 62
    7
 10
732.14494008235818
 20
565.98862747346141
 11
729.69309551896515
 21
565.35676524236362
  0
LINE
  8
_0-0_0
  6
CONTINUOUS
 62
    7
 10
757.73005926305814
 20
576.48765731886067
 11
757.02543628961621
 21
576.02021779868403
  0
LINE
  8
_0-0_0
  6
CONTINUOUS
 62
    7
 10
757.02543628961621
 20
576.02021779868403
 11
755.96453579590104
 21
575.62430221354725
  0
LINE
  8
_0-0_0
  6
CONTINUOUS
 62
    7
 10
755.96453579590104
 20
575.62430221354725
 11
755.20896752860608
 21
574.86901854819132
  0
LINE
  8
_0-0_0
  6
CONTINUOUS
 62
    7
 10
755.20896752860608
 20
574.86901854819132
 11
754.74867008684896
 21
574.53136599667471
  0
LINE
  8
_0-0_0
  6
CONTINUOUS
 62
    7
 10
754.74867008684896
 20
574.53136599667471
 11
754.01641508425087
 21
574.08649149961991
  0
LINE
  8
_0-0_0
  6
CONTINUOUS
 62
    7
 10
754.01641508425087
 20
574.08649149961991
 11
753.39251058212653
 21
573.71780964122433
  0
LINE
  8
_0-0_0
  6
CONTINUOUS
 62
    7
 10
752.43709034970152
 20
573.62008846056222
 11
751.56241005959998
 21
573.62112709973701
  0
LINE
  8
_0-0_0
  6
CONTINUOUS
 62
    7
 10
751.56241005959998
 20
573.62112709973701
 11
750.57721664971041
 21
573.71249240247232
  0
LINE
  8
_0-0_0
  6
CONTINUOUS
 62
    7
 10
750.57721664971041
 20
573.71249240247232
 11
749.50843668737662
 21
573.92708033823635
  0
LINE
  8
_0-0_0
  6
CONTINUOUS
 62
    7
 10
749.50843668737662
 20
573.92708033823635
 11
747.42539025914027
 21
574.36660431100302
  0
LINE
  8
_0-0_0
  6
CONTINUOUS
 62
    7
 10
747.42539025914027
 20
574.36660431100302
 11
746.4401968492507
 21
574.45796961373856
  0
LINE
  8
_0-0_0
  6
CONTINUOUS
 62
    7
 10
746.4401968492507
 20
574.45796961373856
 11
745.26378582084362
 21
574.54087279077373
  0
LINE
  8
_0-0_0
  6
CONTINUOUS
 62
    7
 10
745.26378582084362
 20
574.54087279077373
 11
744.11713615536996
 21
574.43469914088575
  0
LINE
  8
_0-0_0
  6
CONTINUOUS
 62
    7
 10
768.29115344398701
 20
590.48019350764287
 11
767.84196671773714
 21
591.39647077876214
  0
LINE
  8
_0-0_0
  6
CONTINUOUS
 62
    7
 10
767.84196671773714
 20
591.39647077876214
 11
767.28728791566539
 21
592.01456330188182
  0
LINE
  8
_0-0_0
  6
CONTINUOUS
 62
    7
 10
767.28728791566539
 20
592.01456330188182
 11
766.04915825654189
 21
592.64214693340261
  0
LINE
  8
_0-0_0
  6
CONTINUOUS
 62
    7
 10
764.61694073971557
 20
593.48327020503746
 11
763.71246580114416
 21
593.67339316955452
  0
LINE
  8
_0-0_0
  6
CONTINUOUS
 62
    7
 10
763.71246580114416
 20
593.67339316955452
 11
761.3546108858327
 21
594.22772059165925
  0
LINE
  8
_0-0_0
  6
CONTINUOUS
 62
    7
 10
761.3546108858327
 20
594.22772059165925
 11
759.79357837201405
 21
594.46023813246313
  0
LINE
  8
_0-0_0
  6
CONTINUOUS
 62
    7
 10
751.15145041386313
 20
594.82430241653071
 11
750.79877438170456
 21
594.61832280921169
  0
LINE
  8
_0-0_0
  6
CONTINUOUS
 62
    7
 10
750.79877438170456
 20
594.61832280921169
 11
749.76264749249367
 21
594.42183431029343
  0
LINE
  8
_0-0_0
  6
CONTINUOUS
 62
    7
 10
749.76264749249367
 20
594.42183431029343
 11
748.34476935705425
 21
594.15295840932856
  0
LINE
  8
_0-0_0
  6
CONTINUOUS
 62
    7
 10
747.31366351180895
 20
593.56795849885054
 11
746.0565125410784
 21
593.55210185604813
  0
LINE
  8
_0-0_0
  6
CONTINUOUS
 62
    7
 10
746.0565125410784
 20
593.55210185604813
 11
745.5133361667464
 21
593.28218947396488
  0
LINE
  8
_0-0_0
  6
CONTINUOUS
 62
    7
 10
744.53891609372079
 20
592.54103017703585
 11
742.66074051652424
 21
591.9345017245538
  0
LINE
  8
_0-0_0
  6
CONTINUOUS
 62
    7
 10
742.66074051652424
 20
591.9345017245538
 11
741.73726573735223
 21
591.48118657280429
  0
LINE
  8
_0-0_0
  6
CONTINUOUS
 62
    7
 10
741.73726573735223
 20
591.48118657280429
 11
741.1133612352279
 21
591.11250471440906
  0
LINE
  8
_0-0_0
  6
CONTINUOUS
 62
    7
 10
741.1133612352279
 20
591.11250471440906
 11
740.1120285674466
 21
590.3384183205327
  0
LINE
  8
_0-0_0
  6
CONTINUOUS
 62
    7
 10
740.1120285674466
 20
590.3384183205327
 11
739.83792985829723
 21
590.39771783527056
  0
LINE
  8
_0-0_0
  6
CONTINUOUS
 62
    7
 10
739.83792985829723
 20
590.39771783527056
 11
738.45414582283752
 21
589.60675978847883
  0
LINE
  8
_0-0_0
  6
CONTINUOUS
 62
    7
 10
738.45414582283752
 20
589.60675978847883
 11
737.63901188766511
 21
589.22962546085739
  0
LINE
  8
_0-0_0
  6
CONTINUOUS
 62
    7
 10
737.63901188766511
 20
589.22962546085739
 11
736.82890865293302
 21
588.46399153620689
  0
LINE
  8
_0-0_0
  6
CONTINUOUS
 62
    7
 10
736.82890865293302
 20
588.46399153620689
 11
736.15621931821238
 21
587.64096770141771
  0
LINE
  8
_0-0_0
  6
CONTINUOUS
 62
    7
 10
736.15621931821238
 20
587.64096770141771
 11
734.9453649966523
 21
586.15950825845368
  0
LINE
  8
_0-0_0
  6
CONTINUOUS
 62
    7
 10
734.9453649966523
 20
586.15950825845368
 11
734.54462356629847
 21
585.44369455467142
  0
LINE
  8
_0-0_0
  6
CONTINUOUS
 62
    7
 10
734.54462356629847
 20
585.44369455467142
 11
734.03625106987192
 21
584.59619609216031
  0
LINE
  8
_0-0_0
  6
CONTINUOUS
 62
    7
 10
833.21162135705038
 20
630.32028510222415
 11
831.06110580583731
 21
632.07798495768566
  0
ARC
  8
_0-0_0
  6
CONTINUOUS
 62
    7
 10
814.51774042402235
 20
338.19939856265449
 40
48.534301562161595
 50
129.48208635578749
 51
274.12508147299076
  0
ARC
  8
_0-0_0
  6
CONTINUOUS
 62
    7
 10
814.62924602815121
 20
338.344998977785
 40
42.671655858401209
 50
129.70086448497281
 51
273.98182865802784
  0
ARC
  8
_0-0_0
  6
CONTINUOUS
 62
    7
 10
810.71190373606953
 20
355.47371749996717
 40
17.331378364810149
 50
261.41218516169062
 51
10.963872296325777
  0
ARC
  8
_0-0_0
  6
CONTINUOUS
 62
    7
 10
810.71886839577644
 20
355.47744022679018
 40
11.326923953630082
 50
261.01264633778482
 51
11.743812936247163
  0
ARC
  8
_0-0_0
  6
CONTINUOUS
 62
    7
 10
810.14928424030586
 20
350.41886366585675
 40
12.250793885492042
 50
171.8239499232279
 51
260.48375649654281
  0
ARC
  8
_0-0_0
  6
CONTINUOUS
 62
    7
 10
810.39162495550841
 20
350.75139630303556
 40
6.6208045136571636
 50
174.61772563631627
 51
257.41840155276162
  0
ARC
  8
_0-0_0
  6
CONTINUOUS
 62
    7
 10
800.8978735390815
 20
351.66687975933871
 40
2.9170369733906871
 50
354.2066142499919
 51
170.24533403443453
  0
ARC
  8
_0-0_0
  6
CONTINUOUS
 62
    7
 10
799.79966886243233
 20
351.83885444018233
 40
28.774515436837831
 50
13.938305063060151
 51
124.1233639239104
  0
ARC
  8
_0-0_0
  6
CONTINUOUS
 62
    7
 10
799.60786488424674
 20
351.66906412890711
 40
23.02727498749681
 50
15.39685003299031
 51
122.09921718841359
  0
ARC
  8
_0-0_0
  6
CONTINUOUS
 62
    7
 10
697.97229734351561
 20
445.61520992673564
 40
241.97939520848104
 50
346.68746997803089
 51
53.397686556964587
  0
ARC
  8
_0-0_0
  6
CONTINUOUS
 62
    7
 10
697.94862292134894
 20
445.60908491005426
 40
236.00445950145172
 50
346.64149555227118
 51
53.458530578427464
  0
ARC
  8
_0-0_0
  6
CONTINUOUS
 62
    7
 10
810.90894277464258
 20
414.59340411500864
 40
125.0043732913776
 50
273.25606971357041
 51
348.60516369026021
  0
ARC
  8
_0-0_0
  6
CONTINUOUS
 62
    7
 10
810.90894277464258
 20
414.59340411500864
 40
119.0043732913776
 50
273.25606971357041
 51
348.60516369026021
  0
ARC
  8
_0-0_0
  6
CONTINUOUS
 62
    7
 10
681.29416858001434
 20
718.0107232627638
 40
8.7217719999999996
 50
175.68962681711341
 51
218.83488681710639
  0
ARC
  8
_0-0_0
  6
CONTINUOUS
 62
    7
 10
684.36946466820757
 20
718.52305991647791
 40
11.773273
 50
130.34578581710761
 51
179.3031518171147
  0
ARC
  8
_0-0_0
  6
CONTINUOUS
 62
    7
 10
682.86648742115517
 20
713.26292369951591
 40
16.358231713286735
 50
35.169570141560257
 51
84.311428509170412
  0
ARC
  8
_0-0_0
  6
CONTINUOUS
 62
    7
 10
683.22875802190083
 20
718.63302771948065
 40
10.980009000000003
 50
83.414880817079435
 51
126.17696381713949
  0
ARC
  8
_0-0_0
  6
CONTINUOUS
 62
    7
 10
697.59191133247668
 20
463.64178991771576
 40
245.06366691208012
 50
91.365362759615834
 51
92.838855392761687
  0
ARC
  8
_0-0_0
  6
CONTINUOUS
 62
    7
 10
693.61187030721794
 20
662.08652275462009
 40
46.586472383380368
 50
74.144401434530437
 51
92.287313887232642
  0
ARC
  8
_0-0_0
  6
CONTINUOUS
 62
    7
 10
717.75375856712174
 20
736.23712242852343
 40
25.427510312513792
 50
212.2057757069507
 51
251.33394735537661
  0
ARC
  8
_0-0_0
  6
CONTINUOUS
 62
    7
 10
685.35821685734163
 20
724.72155773821567
 40
16.317127172762611
 50
228.2845766637675
 51
270.33853247319593
  0
ARC
  8
_0-0_0
  6
CONTINUOUS
 62
    7
 10
849.34477316765424
 20
672.28627736437352
 40
9.6338690275867442
 50
0
 51
71.277525083745971
  0
ARC
  8
_0-0_0
  6
CONTINUOUS
 62
    7
 10
853.07906800336639
 20
683.30453434130163
 40
1.9999999701976769
 50
153.72246410197661
 51
251.27749594175648
  0
ARC
  8
_0-0_0
  6
CONTINUOUS
 62
    7
 10
826.47864267952912
 20
695.15240403780183
 40
9.6338690275867442
 50
18.72247742073252
 51
90.000002504478445
  0
ARC
  8
_0-0_0
  6
CONTINUOUS
 62
    7
 10
837.49689965645757
 20
698.8867026882109
 40
1.9999999701976769
 50
198.72249609006673
 51
296.27754159022538
  0
ARC
  8
_0-0_0
  6
CONTINUOUS
 62
    7
 10
842.64743516320436
 20
688.45507747744352
 40
9.6338690275867442
 50
333.72246911093231
 51
116.27752292089082
  0
LINE
  8
_0-0_0
  6
CONTINUOUS
 62
    7
 10
840.59706593106228
 20
695.55975266454413
 11
841.29161548125921
 21
696.0056907682507
  0
LINE
  8
_0-0_0
  6
CONTINUOUS
 62
    7
 10
841.9306001519135
 20
696.09957809595346
 11
842.09728716114853
 21
696.09957809595346
  0
LINE
  8
_0-0_0
  6
CONTINUOUS
 62
    7
 10
842.45845506348132
 20
695.91181869933723
 11
843.06966110906103
 21
695.84139938886312
  0
LINE
  8
_0-0_0
  6
CONTINUOUS
 62
    7
 10
843.34747787738252
 20
695.39544602636738
 11
843.59751602062943
 21
694.85562059495862
  0
LINE
  8
_0-0_0
  6
CONTINUOUS
 62
    7
 10
843.87533660364738
 20
694.50355456016587
 11
843.87533660364738
 21
693.70553516287714
  0
LINE
  8
_0-0_0
  6
CONTINUOUS
 62
    7
 10
846.70909968398007
 20
688.11944515822574
 11
847.1536110909301
 21
688.11944515822574
  0
LINE
  8
_0-0_0
  6
CONTINUOUS
 62
    7
 10
848.12598122414613
 20
688.11944515822574
 11
848.32045448784982
 21
688.11944515822574
  0
LINE
  8
_0-0_0
  6
CONTINUOUS
 62
    7
 10
848.84830939941764
 20
687.76737912343287
 11
849.01500403804675
 21
687.57961972681699
  0
LINE
  8
_0-0_0
  6
CONTINUOUS
 62
    7
 10
849.29282080636824
 20
687.03977903661882
 11
849.37617194038012
 21
686.68771300182584
  0
LINE
  8
_0-0_0
  6
CONTINUOUS
 62
    7
 10
849.45951544499735
 20
686.33564696703297
 11
849.45951544499735
 21
685.88970886332675
  0
LINE
  8
_0-0_0
  6
CONTINUOUS
 62
    7
 10
849.45951544499735
 20
685.34986817312858
 11
849.37617194038012
 21
684.9978021383356
  0
LINE
  8
_0-0_0
  6
CONTINUOUS
 62
    7
 10
849.01500403804675
 20
684.55184877584065
 11
848.12598122414613
 21
683.683425326867
  0
LINE
  8
_0-0_0
  6
CONTINUOUS
 62
    7
 10
846.79244700329434
 20
696.45164413074644
 11
847.34808435463378
 21
695.74751206116036
  0
LINE
  8
_0-0_0
  6
CONTINUOUS
 62
    7
 10
847.34808435463378
 20
695.3015739574538
 11
847.1536110909301
 21
694.50355456016587
  0
LINE
  8
_0-0_0
  6
CONTINUOUS
 62
    7
 10
847.1536110909301
 20
693.86984180105389
 11
847.1536110909301
 21
693.51777576626091
  0
LINE
  8
_0-0_0
  6
CONTINUOUS
 62
    7
 10
846.62575236466523
 20
692.64935231728771
 11
845.90342037469611
 21
691.66355826459403
  0
LINE
  8
_0-0_0
  6
CONTINUOUS
 62
    7
 10
847.07026377161583
 20
692.81364369667563
 11
847.79259576158438
 21
693.07182240376596
  0
LINE
  8
_0-0_0
  6
CONTINUOUS
 62
    7
 10
848.65383613571396
 20
693.25959705917057
 11
849.01500403804675
 21
693.25959705917057
  0
LINE
  8
_0-0_0
  6
CONTINUOUS
 62
    7
 10
849.98737035656518
 20
693.07182240376596
 11
850.54301152260223
 21
692.81364369667563
  0
LINE
  8
_0-0_0
  6
CONTINUOUS
 62
    7
 10
851.43203433650285
 20
678.35551402930594
 11
852.2099312060152
 21
678.07385967559276
  0
LINE
  8
_0-0_0
  6
CONTINUOUS
 62
    7
 10
852.40440828441592
 20
678.00344799451284
 11
853.01560670060098
 21
677.2054362266191
  0
LINE
  8
_0-0_0
  6
CONTINUOUS
 62
    7
 10
853.37677460293435
 20
676.75949049351834
 11
853.62681274618126
 21
675.96147109622962
  0
LINE
  8
_0-0_0
  6
CONTINUOUS
 62
    7
 10
853.54346924156346
 20
675.58593704420878
 11
853.46011810755158
 21
674.97569230232546
  0
LINE
  8
_0-0_0
  6
CONTINUOUS
 62
    7
 10
853.18230133923066
 20
674.71751359523512
 11
852.48775178903315
 21
674.1776805344316
  0
LINE
  8
_0-0_0
  6
CONTINUOUS
 62
    7
 10
851.68207247974976
 20
673.82561449963862
 11
850.79304966584857
 21
673.6378474736282
  0
LINE
  8
_0-0_0
  6
CONTINUOUS
 62
    7
 10
835.42961605689129
 20
697.15577620033173
 11
835.87412746384189
 21
696.63941878615105
  0
LINE
  8
_0-0_0
  6
CONTINUOUS
 62
    7
 10
836.67979914373063
 20
696.45164413074644
 11
837.31879144377956
 21
696.54553145844886
  0
LINE
  8
_0-0_0
  6
CONTINUOUS
 62
    7
 10
838.20781425768018
 20
696.63941878615105
 11
838.81901267386581
 21
696.99148482094404
  0
LINE
  8
_0-0_0
  6
CONTINUOUS
 62
    7
 10
840.15254689471703
 20
697.34353559694796
 11
842.45845506348132
 21
697.7894889594437
  0
LINE
  8
_0-0_0
  6
CONTINUOUS
 62
    7
 10
842.90296647043192
 20
697.7894889594437
 11
844.68101209823374
 21
697.34353559694796
  0
LINE
  8
_0-0_0
  6
CONTINUOUS
 62
    7
 10
851.43203433650285
 20
691.66355826459403
 11
851.7654197990646
 21
690.51348809130207
  0
LINE
  8
_0-0_0
  6
CONTINUOUS
 62
    7
 10
851.7654197990646
 20
689.43382196969515
 11
851.68207247974976
 21
687.13366636432158
  0
LINE
  8
_0-0_0
  6
CONTINUOUS
 62
    7
 10
851.51538165581769
 20
685.98358093224056
 11
851.0708702488671
 21
685.18557679374101
  0
LINE
  8
_0-0_0
  6
CONTINUOUS
 62
    7
 10
850.70970616123134
 20
684.29367006875032
 11
850.54301152260223
 21
683.30789127484536
  0
LINE
  8
_0-0_0
  6
CONTINUOUS
 62
    7
 10
850.98752292955226
 20
681.99351446337675
 11
851.51538165581769
 21
681.00773566947191
  0
LINE
  8
_0-0_0
  6
CONTINUOUS
 62
    7
 10
852.40440828441592
 20
680.6556696346795
 11
854.26579741683497
 21
679.85765786678542
  0
LINE
  8
_0-0_0
  6
CONTINUOUS
 62
    7
 10
853.62681274618126
 20
679.31782480598167
 11
855.40485837398307
 21
677.11154889891645
  0
LINE
  8
_0-0_0
  6
CONTINUOUS
 62
    7
 10
847.95928658551645
 20
690.67777947068964
 11
848.93165671873248
 21
689.71546869401345
  0
LINE
  8
_0-0_0
  6
CONTINUOUS
 62
    7
 10
847.59812249788069
 20
688.91746455551447
 11
848.84830939941764
 21
688.82357722781182
  0
LINE
  8
_0-0_0
  6
CONTINUOUS
 62
    7
 10
845.29221814381344
 20
695.55975266454413
 11
844.15315718666591
 21
693.51777576626091
  0
LINE
  8
_0-0_0
  6
CONTINUOUS
 62
    7
 10
832.95702087889197
 20
697.24966352803438
 11
833.123707888127
 21
698.04766766653404
  0
LINE
  8
_0-0_0
  6
CONTINUOUS
 62
    7
 10
833.123707888127
 20
698.58750835673163
 11
832.95702087889197
 21
699.19775309861495
  0
LINE
  8
_0-0_0
  6
CONTINUOUS
 62
    7
 10
832.87366974488009
 20
699.47939982293394
 11
831.90130342636166
 21
699.99575723711462
  0
LINE
  8
_0-0_0
  6
CONTINUOUS
 62
    7
 10
831.17896762169551
 20
700.08964456481726
 11
830.73445621474491
 21
700.18353189251968
  0
LINE
  8
_0-0_0
  6
CONTINUOUS
 62
    7
 10
830.48441807149857
 20
700.18353189251968
 11
829.59539525759737
 21
699.6437064611107
  0
LINE
  8
_0-0_0
  6
CONTINUOUS
 62
    7
 10
829.31757848927646
 20
699.38551249523118
 11
828.95641058694309
 21
698.93957439152462
  0
LINE
  8
_0-0_0
  6
CONTINUOUS
 62
    7
 10
828.78971594831398
 20
698.32932964964129
 11
828.70637244369618
 21
697.34353559694796
  0
LINE
  8
_0-0_0
  6
CONTINUOUS
 62
    7
 10
828.70637244369618
 20
696.63941878615105
 11
828.87306708232586
 21
695.39544602636738
  0
ARC
  8
_0-0_0
  6
CONTINUOUS
 62
    7
 10
849.34477316765424
 20
672.28627736437352
 40
9.6338690275867442
 50
288.72247810397744
 51
0.0000000000000127
  0
ARC
  8
_0-0_0
  6
CONTINUOUS
 62
    7
 10
853.07906800336639
 20
661.26802038744472
 40
1.9999999701976769
 50
108.7224935855882
 51
206.27753225555773
  0
ARC
  8
_0-0_0
  6
CONTINUOUS
 62
    7
 10
826.47864267952912
 20
649.42015069094498
 40
9.6338690275867442
 50
270.00000068324545
 51
341.27753259718065
  0
ARC
  8
_0-0_0
  6
CONTINUOUS
 62
    7
 10
837.49689965645757
 20
645.68585204053591
 40
1.9999999701976769
 50
63.722468427687311
 51
161.2775139278456
  0
ARC
  8
_0-0_0
  6
CONTINUOUS
 62
    7
 10
842.64743516320436
 20
656.11747725130363
 40
9.6338690275867442
 50
243.72248709702211
 51
26.277520416412656
  0
LINE
  8
_0-0_0
  6
CONTINUOUS
 62
    7
 10
840.59706593106228
 20
649.01280969359709
 11
841.29161548125921
 21
648.56685633110146
  0
LINE
  8
_0-0_0
  6
CONTINUOUS
 62
    7
 10
841.9306001519135
 20
648.47297663279369
 11
842.09728716114853
 21
648.47297663279369
  0
LINE
  8
_0-0_0
  6
CONTINUOUS
 62
    7
 10
842.45845506348132
 20
648.66074365880411
 11
843.06966110906103
 21
648.73115533988403
  0
LINE
  8
_0-0_0
  6
CONTINUOUS
 62
    7
 10
843.34747787738252
 20
649.17710870237897
 11
843.59751602062943
 21
649.71693413378819
  0
LINE
  8
_0-0_0
  6
CONTINUOUS
 62
    7
 10
843.87533660364738
 20
650.06900016858128
 11
843.87533660364738
 21
650.86701956586921
  0
LINE
  8
_0-0_0
  6
CONTINUOUS
 62
    7
 10
846.70909968398007
 20
656.45310957052061
 11
847.1536110909301
 21
656.45310957052061
  0
LINE
  8
_0-0_0
  6
CONTINUOUS
 62
    7
 10
848.12598122414613
 20
656.45310957052061
 11
848.32045448784982
 21
656.45310957052061
  0
LINE
  8
_0-0_0
  6
CONTINUOUS
 62
    7
 10
848.84830939941764
 20
656.80517560531359
 11
849.01500403804675
 21
656.99294263132424
  0
LINE
  8
_0-0_0
  6
CONTINUOUS
 62
    7
 10
849.29282080636824
 20
657.53277569212798
 11
849.37617194038012
 21
657.88484172692051
  0
LINE
  8
_0-0_0
  6
CONTINUOUS
 62
    7
 10
849.45951544499735
 20
658.2369077617135
 11
849.45951544499735
 21
658.68285349481448
  0
LINE
  8
_0-0_0
  6
CONTINUOUS
 62
    7
 10
849.45951544499735
 20
659.22268655561822
 11
849.37617194038012
 21
659.57475259041075
  0
LINE
  8
_0-0_0
  6
CONTINUOUS
 62
    7
 10
849.01500403804675
 20
660.02069832351162
 11
848.12598122414613
 21
660.88912940188015
  0
LINE
  8
_0-0_0
  6
CONTINUOUS
 62
    7
 10
846.79244700329434
 20
648.12091059800071
 11
847.34808435463378
 21
648.82504266758644
  0
LINE
  8
_0-0_0
  6
CONTINUOUS
 62
    7
 10
847.34808435463378
 20
649.27098840068743
 11
847.1536110909301
 21
650.06900016858128
  0
LINE
  8
_0-0_0
  6
CONTINUOUS
 62
    7
 10
847.1536110909301
 20
650.70272055708733
 11
847.1536110909301
 21
651.05477896248544
  0
LINE
  8
_0-0_0
  6
CONTINUOUS
 62
    7
 10
846.62575236466523
 20
651.92321004085352
 11
845.90342037469611
 21
652.90898883475825
  0
LINE
  8
_0-0_0
  6
CONTINUOUS
 62
    7
 10
847.07026377161583
 20
651.75891103207152
 11
847.79259576158438
 21
651.50073232498119
  0
LINE
  8
_0-0_0
  6
CONTINUOUS
 62
    7
 10
848.65383613571396
 20
651.31296529897008
 11
849.01500403804675
 21
651.31296529897008
  0
LINE
  8
_0-0_0
  6
CONTINUOUS
 62
    7
 10
849.98737035656518
 20
651.50073232498119
 11
850.54301152260223
 21
651.75891103207152
  0
LINE
  8
_0-0_0
  6
CONTINUOUS
 62
    7
 10
851.43203433650285
 20
666.21704069944121
 11
852.2099312060152
 21
666.49869505315428
  0
LINE
  8
_0-0_0
  6
CONTINUOUS
 62
    7
 10
852.40440828441592
 20
666.56910673423363
 11
853.01560670060098
 21
667.36711850212771
  0
LINE
  8
_0-0_0
  6
CONTINUOUS
 62
    7
 10
853.37677460293435
 20
667.81306423522881
 11
853.62681274618126
 21
668.61108363251674
  0
LINE
  8
_0-0_0
  6
CONTINUOUS
 62
    7
 10
853.54346924156346
 20
668.98661768453837
 11
853.46011810755158
 21
669.59686242642169
  0
LINE
  8
_0-0_0
  6
CONTINUOUS
 62
    7
 10
853.18230133923066
 20
669.85504113351203
 11
852.48775178903315
 21
670.39487419431543
  0
LINE
  8
_0-0_0
  6
CONTINUOUS
 62
    7
 10
851.68207247974976
 20
670.74694022910819
 11
850.79304966584857
 21
670.93470725511895
  0
LINE
  8
_0-0_0
  6
CONTINUOUS
 62
    7
 10
835.42961605689129
 20
647.41677852841462
 11
835.87412746384189
 21
647.9331435719896
  0
LINE
  8
_0-0_0
  6
CONTINUOUS
 62
    7
 10
836.67979914373063
 20
648.12091059800071
 11
837.31879144377956
 21
648.02702327029795
  0
LINE
  8
_0-0_0
  6
CONTINUOUS
 62
    7
 10
838.20781425768018
 20
647.9331435719896
 11
838.81901267386581
 21
647.58107753719719
  0
LINE
  8
_0-0_0
  6
CONTINUOUS
 62
    7
 10
840.15254689471703
 20
647.22901150240421
 11
842.45845506348132
 21
646.78306576930345
  0
LINE
  8
_0-0_0
  6
CONTINUOUS
 62
    7
 10
842.90296647043192
 20
646.78306576930345
 11
844.68101209823374
 21
647.22901150240421
  0
LINE
  8
_0-0_0
  6
CONTINUOUS
 62
    7
 10
851.43203433650285
 20
652.90898883475825
 11
851.7654197990646
 21
654.05906663744508
  0
LINE
  8
_0-0_0
  6
CONTINUOUS
 62
    7
 10
851.7654197990646
 20
655.138732759052
 11
851.68207247974976
 21
657.43888836442557
  0
LINE
  8
_0-0_0
  6
CONTINUOUS
 62
    7
 10
851.51538165581769
 20
658.58897379650659
 11
851.0708702488671
 21
659.38698556440033
  0
LINE
  8
_0-0_0
  6
CONTINUOUS
 62
    7
 10
850.70970616123134
 20
660.27888465999683
 11
850.54301152260223
 21
661.26466345390099
  0
LINE
  8
_0-0_0
  6
CONTINUOUS
 62
    7
 10
850.98752292955226
 20
662.57904026537039
 11
851.51538165581769
 21
663.56481905927456
  0
LINE
  8
_0-0_0
  6
CONTINUOUS
 62
    7
 10
852.40440828441592
 20
663.91688509406765
 11
854.26579741683497
 21
664.71489686196139
  0
LINE
  8
_0-0_0
  6
CONTINUOUS
 62
    7
 10
853.62681274618126
 20
665.2547299227648
 11
855.40485837398307
 21
667.46100582983047
  0
LINE
  8
_0-0_0
  6
CONTINUOUS
 62
    7
 10
847.95928658551645
 20
653.89477525805717
 11
848.93165671873248
 21
654.85708603473302
  0
LINE
  8
_0-0_0
  6
CONTINUOUS
 62
    7
 10
847.59812249788069
 20
655.65509780262687
 11
848.84830939941764
 21
655.74897750093533
  0
LINE
  8
_0-0_0
  6
CONTINUOUS
 62
    7
 10
845.29221814381344
 20
649.01280969359709
 11
844.15315718666591
 21
651.05477896248544
  0
LINE
  8
_0-0_0
  6
CONTINUOUS
 62
    7
 10
832.95702087889197
 20
647.32289883010685
 11
833.123707888127
 21
646.52488706221311
  0
LINE
  8
_0-0_0
  6
CONTINUOUS
 62
    7
 10
833.123707888127
 20
645.98504637201472
 11
832.95702087889197
 21
645.37480163013151
  0
LINE
  8
_0-0_0
  6
CONTINUOUS
 62
    7
 10
832.87366974488009
 20
645.09315490581321
 11
831.90130342636166
 21
644.57678986223812
  0
LINE
  8
_0-0_0
  6
CONTINUOUS
 62
    7
 10
831.17896762169551
 20
644.48291016392989
 11
830.73445621474491
 21
644.38902283622713
  0
LINE
  8
_0-0_0
  6
CONTINUOUS
 62
    7
 10
830.48441807149857
 20
644.38902283622713
 11
829.59539525759737
 21
644.92885589703064
  0
LINE
  8
_0-0_0
  6
CONTINUOUS
 62
    7
 10
829.31757848927646
 20
645.18703460412098
 11
828.95641058694309
 21
645.63298796661661
  0
LINE
  8
_0-0_0
  6
CONTINUOUS
 62
    7
 10
828.78971594831398
 20
646.24323270849936
 11
828.70637244369618
 21
647.22901150240421
  0
LINE
  8
_0-0_0
  6
CONTINUOUS
 62
    7
 10
828.70637244369618
 20
647.9331435719896
 11
828.87306708232586
 21
649.17710870237897
  0
ARC
  8
_0-0_0
  6
CONTINUOUS
 62
    7
 10
803.61250837670639
 20
672.28627736437352
 40
9.6338690275867442
 50
108.7224799252099
 51
180.00000500895607
  0
ARC
  8
_0-0_0
  6
CONTINUOUS
 62
    7
 10
799.87821735569128
 20
683.30453434130163
 40
1.9999999701976769
 50
288.72250542473398
 51
26.277530661696641
  0
ARC
  8
_0-0_0
  6
CONTINUOUS
 62
    7
 10
826.47864267952912
 20
695.15240403780183
 40
9.6338690275867442
 50
90.000002504478445
 51
161.27752758822419
  0
ARC
  8
_0-0_0
  6
CONTINUOUS
 62
    7
 10
815.46038570260066
 20
698.8867026882109
 40
1.9999999701976769
 50
243.72245977626551
 51
341.27750527642399
  0
ARC
  8
_0-0_0
  6
CONTINUOUS
 62
    7
 10
810.3098501958533
 20
688.45507747744352
 40
9.6338690275867442
 50
63.72248208806564
 51
206.2775185951794
  0
LINE
  8
_0-0_0
  6
CONTINUOUS
 62
    7
 10
812.36021942799596
 20
695.55975266454413
 11
811.66566987779845
 21
696.0056907682507
  0
LINE
  8
_0-0_0
  6
CONTINUOUS
 62
    7
 10
811.02668520714417
 20
696.09957809595346
 11
810.85999819790914
 21
696.09957809595346
  0
LINE
  8
_0-0_0
  6
CONTINUOUS
 62
    7
 10
810.49883029557634
 20
695.91181869933723
 11
809.88762424999663
 21
695.84139938886312
  0
LINE
  8
_0-0_0
  6
CONTINUOUS
 62
    7
 10
809.60980748167515
 20
695.39544602636738
 11
809.3597693384288
 21
694.85562059495862
  0
LINE
  8
_0-0_0
  6
CONTINUOUS
 62
    7
 10
809.08194494071324
 20
694.50355456016587
 11
809.08194494071324
 21
693.70553516287714
  0
LINE
  8
_0-0_0
  6
CONTINUOUS
 62
    7
 10
806.2481894897752
 20
688.11944515822574
 11
805.80367045343053
 21
688.11944515822574
  0
LINE
  8
_0-0_0
  6
CONTINUOUS
 62
    7
 10
804.8313041349121
 20
688.11944515822574
 11
804.63683087120842
 21
688.11944515822574
  0
LINE
  8
_0-0_0
  6
CONTINUOUS
 62
    7
 10
804.10897595964002
 20
687.76737912343287
 11
803.94228132101091
 21
687.57961972681699
  0
LINE
  8
_0-0_0
  6
CONTINUOUS
 62
    7
 10
803.66446455268999
 20
687.03977903661882
 11
803.58111341867811
 21
686.68771300182584
  0
LINE
  8
_0-0_0
  6
CONTINUOUS
 62
    7
 10
803.49776991406031
 20
686.33564696703297
 11
803.49776991406031
 21
685.88970886332675
  0
LINE
  8
_0-0_0
  6
CONTINUOUS
 62
    7
 10
803.49776991406031
 20
685.34986817312858
 11
803.58111341867811
 21
684.9978021383356
  0
LINE
  8
_0-0_0
  6
CONTINUOUS
 62
    7
 10
803.94228132101091
 20
684.55184877584065
 11
804.8313041349121
 21
683.683425326867
  0
LINE
  8
_0-0_0
  6
CONTINUOUS
 62
    7
 10
806.16483835576332
 20
696.45164413074644
 11
805.60919718972684
 21
695.74751206116036
  0
LINE
  8
_0-0_0
  6
CONTINUOUS
 62
    7
 10
805.60919718972684
 20
695.3015739574538
 11
805.80367045343053
 21
694.50355456016587
  0
LINE
  8
_0-0_0
  6
CONTINUOUS
 62
    7
 10
805.80367045343053
 20
693.86984180105389
 11
805.80367045343053
 21
693.51777576626091
  0
LINE
  8
_0-0_0
  6
CONTINUOUS
 62
    7
 10
806.33153299439243
 20
692.64935231728771
 11
807.05386879905859
 21
691.66355826459403
  0
LINE
  8
_0-0_0
  6
CONTINUOUS
 62
    7
 10
805.8870215874424
 20
692.81364369667563
 11
805.16469341217032
 21
693.07182240376596
  0
LINE
  8
_0-0_0
  6
CONTINUOUS
 62
    7
 10
804.3034492233437
 20
693.25959705917057
 11
803.94228132101091
 21
693.25959705917057
  0
LINE
  8
_0-0_0
  6
CONTINUOUS
 62
    7
 10
802.96991500249248
 20
693.07182240376596
 11
802.414273836456
 21
692.81364369667563
  0
LINE
  8
_0-0_0
  6
CONTINUOUS
 62
    7
 10
801.52525102255481
 20
678.35551402930594
 11
800.74735033834543
 21
678.07385967559276
  0
LINE
  8
_0-0_0
  6
CONTINUOUS
 62
    7
 10
800.55287707464174
 20
678.00344799451284
 11
799.94167865845668
 21
677.2054362266191
  0
LINE
  8
_0-0_0
  6
CONTINUOUS
 62
    7
 10
799.58051075612332
 20
676.75949049351834
 11
799.33047261287697
 21
675.96147109622962
  0
LINE
  8
_0-0_0
  6
CONTINUOUS
 62
    7
 10
799.41381611749421
 20
675.58593704420878
 11
799.49716725150608
 21
674.97569230232546
  0
LINE
  8
_0-0_0
  6
CONTINUOUS
 62
    7
 10
799.774984019827
 20
674.71751359523512
 11
800.46953357002451
 21
674.1776805344316
  0
LINE
  8
_0-0_0
  6
CONTINUOUS
 62
    7
 10
801.2752128793079
 20
673.82561449963862
 11
802.16423569320909
 21
673.6378474736282
  0
LINE
  8
_0-0_0
  6
CONTINUOUS
 62
    7
 10
817.52766930216637
 20
697.15577620033173
 11
817.08315789521635
 21
696.63941878615105
  0
LINE
  8
_0-0_0
  6
CONTINUOUS
 62
    7
 10
816.27748621532703
 20
696.45164413074644
 11
815.63849391527867
 21
696.54553145844886
  0
LINE
  8
_0-0_0
  6
CONTINUOUS
 62
    7
 10
814.74947110137748
 20
696.63941878615105
 11
814.13827268519185
 21
696.99148482094404
  0
LINE
  8
_0-0_0
  6
CONTINUOUS
 62
    7
 10
812.80473846434063
 20
697.34353559694796
 11
810.49883029557634
 21
697.7894889594437
  0
LINE
  8
_0-0_0
  6
CONTINUOUS
 62
    7
 10
810.05431888862574
 20
697.7894889594437
 11
808.27627326082393
 21
697.34353559694796
  0
LINE
  8
_0-0_0
  6
CONTINUOUS
 62
    7
 10
801.52525102255481
 20
691.66355826459403
 11
801.19186937469067
 21
690.51348809130207
  0
LINE
  8
_0-0_0
  6
CONTINUOUS
 62
    7
 10
801.19186937469067
 20
689.43382196969515
 11
801.2752128793079
 21
687.13366636432158
  0
LINE
  8
_0-0_0
  6
CONTINUOUS
 62
    7
 10
801.44189988854293
 20
685.98358093224056
 11
801.88641892488761
 21
685.18557679374101
  0
LINE
  8
_0-0_0
  6
CONTINUOUS
 62
    7
 10
802.24757919782633
 20
684.29367006875032
 11
802.414273836456
 21
683.30789127484536
  0
LINE
  8
_0-0_0
  6
CONTINUOUS
 62
    7
 10
801.96976242950541
 20
681.99351446337675
 11
801.44189988854293
 21
681.00773566947191
  0
LINE
  8
_0-0_0
  6
CONTINUOUS
 62
    7
 10
800.55287707464174
 20
680.6556696346795
 11
798.69148794222269
 21
679.85765786678542
  0
LINE
  8
_0-0_0
  6
CONTINUOUS
 62
    7
 10
799.33047261287697
 20
679.31782480598167
 11
797.55242698507459
 21
677.11154889891645
  0
LINE
  8
_0-0_0
  6
CONTINUOUS
 62
    7
 10
804.99799877354121
 20
690.67777947068964
 11
804.02562482562814
 21
689.71546869401345
  0
LINE
  8
_0-0_0
  6
CONTINUOUS
 62
    7
 10
805.35916667587401
 20
688.91746455551447
 11
804.10897595964002
 21
688.82357722781182
  0
LINE
  8
_0-0_0
  6
CONTINUOUS
 62
    7
 10
807.66506721524422
 20
695.55975266454413
 11
808.80412817239176
 21
693.51777576626091
  0
LINE
  8
_0-0_0
  6
CONTINUOUS
 62
    7
 10
820.0002644801657
 20
697.24966352803438
 11
819.83357747093066
 21
698.04766766653404
  0
LINE
  8
_0-0_0
  6
CONTINUOUS
 62
    7
 10
819.83357747093066
 20
698.58750835673163
 11
820.0002644801657
 21
699.19775309861495
  0
LINE
  8
_0-0_0
  6
CONTINUOUS
 62
    7
 10
820.08361561417757
 20
699.47939982293394
 11
821.055981932696
 21
699.99575723711462
  0
LINE
  8
_0-0_0
  6
CONTINUOUS
 62
    7
 10
821.77831773736216
 20
700.08964456481726
 11
822.22282914431275
 21
700.18353189251968
  0
LINE
  8
_0-0_0
  6
CONTINUOUS
 62
    7
 10
822.47286728755967
 20
700.18353189251968
 11
823.36189010146029
 21
699.6437064611107
  0
LINE
  8
_0-0_0
  6
CONTINUOUS
 62
    7
 10
823.63970686978178
 20
699.38551249523118
 11
824.00087477211457
 21
698.93957439152462
  0
LINE
  8
_0-0_0
  6
CONTINUOUS
 62
    7
 10
824.16756941074368
 20
698.32932964964129
 11
824.25091291536148
 21
697.34353559694796
  0
LINE
  8
_0-0_0
  6
CONTINUOUS
 62
    7
 10
824.25091291536148
 20
696.63941878615105
 11
824.0842182767318
 21
695.39544602636738
  0
ARC
  8
_0-0_0
  6
CONTINUOUS
 62
    7
 10
803.61250837670639
 20
672.28627736437352
 40
9.6338690275867442
 50
180.00000500895609
 51
251.2775232625134
  0
ARC
  8
_0-0_0
  6
CONTINUOUS
 62
    7
 10
799.87821735569128
 20
661.26802038744472
 40
1.9999999701976769
 50
333.72246911093231
 51
71.277504593178463
  0
ARC
  8
_0-0_0
  6
CONTINUOUS
 62
    7
 10
826.47864267952912
 20
649.42015069094498
 40
9.6338690275867442
 50
198.7224824296884
 51
270.00000068324539
  0
ARC
  8
_0-0_0
  6
CONTINUOUS
 62
    7
 10
815.46038570260066
 20
645.68585204053591
 40
1.9999999701976769
 50
18.722492788657981
 51
116.27753658126838
  0
ARC
  8
_0-0_0
  6
CONTINUOUS
 62
    7
 10
810.3098501958533
 20
656.11747725130363
 40
9.6338690275867442
 50
153.7224777623552
 51
296.27751426946861
  0
LINE
  8
_0-0_0
  6
CONTINUOUS
 62
    7
 10
812.36021942799596
 20
649.01280969359709
 11
811.66566987779845
 21
648.56685633110146
  0
LINE
  8
_0-0_0
  6
CONTINUOUS
 62
    7
 10
811.02668520714417
 20
648.47297663279369
 11
810.85999819790914
 21
648.47297663279369
  0
LINE
  8
_0-0_0
  6
CONTINUOUS
 62
    7
 10
810.49883029557634
 20
648.66074365880411
 11
809.88762424999663
 21
648.73115533988403
  0
LINE
  8
_0-0_0
  6
CONTINUOUS
 62
    7
 10
809.60980748167515
 20
649.17710870237897
 11
809.3597693384288
 21
649.71693413378819
  0
LINE
  8
_0-0_0
  6
CONTINUOUS
 62
    7
 10
809.08194494071324
 20
650.06900016858128
 11
809.08194494071324
 21
650.86701956586921
  0
LINE
  8
_0-0_0
  6
CONTINUOUS
 62
    7
 10
806.2481894897752
 20
656.45310957052061
 11
805.80367045343053
 21
656.45310957052061
  0
LINE
  8
_0-0_0
  6
CONTINUOUS
 62
    7
 10
804.8313041349121
 20
656.45310957052061
 11
804.63683087120842
 21
656.45310957052061
  0
LINE
  8
_0-0_0
  6
CONTINUOUS
 62
    7
 10
804.10897595964002
 20
656.80517560531359
 11
803.94228132101091
 21
656.99294263132424
  0
LINE
  8
_0-0_0
  6
CONTINUOUS
 62
    7
 10
803.66446455268999
 20
657.53277569212798
 11
803.58111341867811
 21
657.88484172692051
  0
LINE
  8
_0-0_0
  6
CONTINUOUS
 62
    7
 10
803.49776991406031
 20
658.2369077617135
 11
803.49776991406031
 21
658.68285349481448
  0
LINE
  8
_0-0_0
  6
CONTINUOUS
 62
    7
 10
803.49776991406031
 20
659.22268655561822
 11
803.58111341867811
 21
659.57475259041075
  0
LINE
  8
_0-0_0
  6
CONTINUOUS
 62
    7
 10
803.94228132101091
 20
660.02069832351162
 11
804.8313041349121
 21
660.88912940188015
  0
LINE
  8
_0-0_0
  6
CONTINUOUS
 62
    7
 10
806.16483835576332
 20
648.12091059800071
 11
805.60919718972684
 21
648.82504266758644
  0
LINE
  8
_0-0_0
  6
CONTINUOUS
 62
    7
 10
805.60919718972684
 20
649.27098840068743
 11
805.80367045343053
 21
650.06900016858128
  0
LINE
  8
_0-0_0
  6
CONTINUOUS
 62
    7
 10
805.80367045343053
 20
650.70272055708733
 11
805.80367045343053
 21
651.05477896248544
  0
LINE
  8
_0-0_0
  6
CONTINUOUS
 62
    7
 10
806.33153299439243
 20
651.92321004085352
 11
807.05386879905859
 21
652.90898883475825
  0
LINE
  8
_0-0_0
  6
CONTINUOUS
 62
    7
 10
805.8870215874424
 20
651.75891103207152
 11
805.16469341217032
 21
651.50073232498119
  0
LINE
  8
_0-0_0
  6
CONTINUOUS
 62
    7
 10
804.3034492233437
 20
651.31296529897008
 11
803.94228132101091
 21
651.31296529897008
  0
LINE
  8
_0-0_0
  6
CONTINUOUS
 62
    7
 10
802.96991500249248
 20
651.50073232498119
 11
802.414273836456
 21
651.75891103207152
  0
LINE
  8
_0-0_0
  6
CONTINUOUS
 62
    7
 10
801.52525102255481
 20
666.21704069944121
 11
800.74735033834543
 21
666.49869505315428
  0
LINE
  8
_0-0_0
  6
CONTINUOUS
 62
    7
 10
800.55287707464174
 20
666.56910673423363
 11
799.94167865845668
 21
667.36711850212771
  0
LINE
  8
_0-0_0
  6
CONTINUOUS
 62
    7
 10
799.58051075612332
 20
667.81306423522881
 11
799.33047261287697
 21
668.61108363251674
  0
LINE
  8
_0-0_0
  6
CONTINUOUS
 62
    7
 10
799.41381611749421
 20
668.98661768453837
 11
799.49716725150608
 21
669.59686242642169
  0
LINE
  8
_0-0_0
  6
CONTINUOUS
 62
    7
 10
799.774984019827
 20
669.85504113351203
 11
800.46953357002451
 21
670.39487419431543
  0
LINE
  8
_0-0_0
  6
CONTINUOUS
 62
    7
 10
801.2752128793079
 20
670.74694022910819
 11
802.16423569320909
 21
670.93470725511895
  0
LINE
  8
_0-0_0
  6
CONTINUOUS
 62
    7
 10
817.52766930216637
 20
647.41677852841462
 11
817.08315789521635
 21
647.9331435719896
  0
LINE
  8
_0-0_0
  6
CONTINUOUS
 62
    7
 10
816.27748621532703
 20
648.12091059800071
 11
815.63849391527867
 21
648.02702327029795
  0
LINE
  8
_0-0_0
  6
CONTINUOUS
 62
    7
 10
814.74947110137748
 20
647.9331435719896
 11
814.13827268519185
 21
647.58107753719719
  0
LINE
  8
_0-0_0
  6
CONTINUOUS
 62
    7
 10
812.80473846434063
 20
647.22901150240421
 11
810.49883029557634
 21
646.78306576930345
  0
LINE
  8
_0-0_0
  6
CONTINUOUS
 62
    7
 10
810.05431888862574
 20
646.78306576930345
 11
808.27627326082393
 21
647.22901150240421
  0
LINE
  8
_0-0_0
  6
CONTINUOUS
 62
    7
 10
801.52525102255481
 20
652.90898883475825
 11
801.19186937469067
 21
654.05906663744508
  0
LINE
  8
_0-0_0
  6
CONTINUOUS
 62
    7
 10
801.19186937469067
 20
655.138732759052
 11
801.2752128793079
 21
657.43888836442557
  0
LINE
  8
_0-0_0
  6
CONTINUOUS
 62
    7
 10
801.44189988854293
 20
658.58897379650659
 11
801.88641892488761
 21
659.38698556440033
  0
LINE
  8
_0-0_0
  6
CONTINUOUS
 62
    7
 10
802.24757919782633
 20
660.27888465999683
 11
802.414273836456
 21
661.26466345390099
  0
LINE
  8
_0-0_0
  6
CONTINUOUS
 62
    7
 10
801.96976242950541
 20
662.57904026537039
 11
801.44189988854293
 21
663.56481905927456
  0
LINE
  8
_0-0_0
  6
CONTINUOUS
 62
    7
 10
800.55287707464174
 20
663.91688509406765
 11
798.69148794222269
 21
664.71489686196139
  0
LINE
  8
_0-0_0
  6
CONTINUOUS
 62
    7
 10
799.33047261287697
 20
665.2547299227648
 11
797.55242698507459
 21
667.46100582983047
  0
LINE
  8
_0-0_0
  6
CONTINUOUS
 62
    7
 10
804.99799877354121
 20
653.89477525805717
 11
804.02562482562814
 21
654.85708603473302
  0
LINE
  8
_0-0_0
  6
CONTINUOUS
 62
    7
 10
805.35916667587401
 20
655.65509780262687
 11
804.10897595964002
 21
655.74897750093533
  0
LINE
  8
_0-0_0
  6
CONTINUOUS
 62
    7
 10
807.66506721524422
 20
649.01280969359709
 11
808.80412817239176
 21
651.05477896248544
  0
LINE
  8
_0-0_0
  6
CONTINUOUS
 62
    7
 10
820.0002644801657
 20
647.32289883010685
 11
819.83357747093066
 21
646.52488706221311
  0
LINE
  8
_0-0_0
  6
CONTINUOUS
 62
    7
 10
819.83357747093066
 20
645.98504637201472
 11
820.0002644801657
 21
645.37480163013151
  0
LINE
  8
_0-0_0
  6
CONTINUOUS
 62
    7
 10
820.08361561417757
 20
645.09315490581321
 11
821.055981932696
 21
644.57678986223812
  0
LINE
  8
_0-0_0
  6
CONTINUOUS
 62
    7
 10
821.77831773736216
 20
644.48291016392989
 11
822.22282914431275
 21
644.38902283622713
  0
LINE
  8
_0-0_0
  6
CONTINUOUS
 62
    7
 10
822.47286728755967
 20
644.38902283622713
 11
823.36189010146029
 21
644.92885589703064
  0
LINE
  8
_0-0_0
  6
CONTINUOUS
 62
    7
 10
823.63970686978178
 20
645.18703460412098
 11
824.00087477211457
 21
645.63298796661661
  0
LINE
  8
_0-0_0
  6
CONTINUOUS
 62
    7
 10
824.16756941074368
 20
646.24323270849936
 11
824.25091291536148
 21
647.22901150240421
  0
LINE
  8
_0-0_0
  6
CONTINUOUS
 62
    7
 10
824.25091291536148
 20
647.9331435719896
 11
824.0842182767318
 21
649.17710870237897
  0
LINE
  8
_0-0_0
  6
CONTINUOUS
 62
    7
 10
825.22793316447462
 20
703.87060459148404
 11
826.26867411576313
 21
704.09040744465403
  0
LINE
  8
_0-0_0
  6
CONTINUOUS
 62
    7
 10
826.65894815779893
 20
703.70574863690968
 11
828.93556708139442
 21
703.70574863690968
  0
LINE
  8
_0-0_0
  6
CONTINUOUS
 62
    7
 10
827.89482613010591
 20
703.04630955982157
 11
829.78117101166504
 21
702.66163549328803
  0
LINE
  8
_0-0_0
  6
CONTINUOUS
 62
    7
 10
857.23069452841628
 20
670.62410697898542
 11
857.42583154943475
 21
672.49250752487444
  0
LINE
  8
_0-0_0
  6
CONTINUOUS
 62
    7
 10
855.99481655610987
 20
674.58071855332821
 11
854.75893858380346
 21
673.15193897256779
  0
LINE
  8
_0-0_0
  6
CONTINUOUS
 62
    7
 10
854.95407560482136
 20
671.44840201064767
 11
855.99481655610987
 21
669.58000146475888
  0
LINE
  8
_0-0_0
  6
CONTINUOUS
 62
    7
 10
828.35015601834016
 20
700.13380349970578
 11
829.58603399064714
 21
701.17791664332685
  0
LINE
  8
_0-0_0
  6
CONTINUOUS
 62
    7
 10
824.38232923420401
 20
701.61753760845602
 11
825.42307018549252
 21
699.74912943317224
  0
LINE
  8
_0-0_0
  6
CONTINUOUS
 62
    7
 10
821.45525103075045
 20
642.98281100415409
 11
822.75617721986123
 21
641.33422094082925
  0
LINE
  8
_0-0_0
  6
CONTINUOUS
 62
    7
 10
822.75617721986123
 20
642.59813693762055
 11
827.1142704166391
 21
641.11441045826484
  0
LINE
  8
_0-0_0
  6
CONTINUOUS
 62
    7
 10
825.42307018549252
 20
641.11441045826484
 11
827.69968910908801
 21
640.50993353856131
  0
LINE
  8
_0-0_0
  6
CONTINUOUS
 62
    7
 10
827.89482613010591
 20
641.11441045826484
 11
830.62677494193565
 21
642.15851597249173
  0
LINE
  8
_0-0_0
  6
CONTINUOUS
 62
    7
 10
826.9191333956212
 20
643.64224245184744
 11
830.23649327050521
 21
642.59813693762055
  0
LINE
  8
_0-0_0
  6
CONTINUOUS
 62
    7
 10
826.07353709474523
 20
642.98281100415409
 11
827.50455208806954
 21
642.59813693762055
  0
LINE
  8
_0-0_0
  6
CONTINUOUS
 62
    7
 10
834.13927183783755
 20
645.73045348030064
 11
832.5131121941007
 21
642.59813693762055
  0
LINE
  8
_0-0_0
  6
CONTINUOUS
 62
    7
 10
796.7376686964343
 20
671.66821249321231
 11
798.62401357799342
 21
670.23944054184642
  0
LINE
  8
_0-0_0
  6
CONTINUOUS
 62
    7
 10
795.95711298296806
 20
669.19533502761954
 11
797.38812797629237
 21
666.28282896750363
  0
CIRCLE
  8
_0-0_0
  6
CONTINUOUS
 62
    7
 10
826.47864267952912
 20
672.28627736437352
 40
5.7252682786394899
  0
CIRCLE
  8
_0-0_0
  6
CONTINUOUS
 62
    7
 10
826.47864267952912
 20
672.28627736437352
 40
6.4486955635443994
  0
ARC
  8
_0-0_0
  6
CONTINUOUS
 62
    7
 10
946.37757697459961
 20
822.2548978943646
 40
182.80473055236439
 50
216.88256872829047
 51
222.8843591694451
  0
ARC
  8
_0-0_0
  6
CONTINUOUS
 62
    7
 10
946.37757697459961
 20
822.2548978943646
 40
188.80473046295742
 50
216.87576585988833
 51
221.67534656279179
  0
ARC
  8
_0-0_0
  6
CONTINUOUS
 62
    7
 10
963.65825218024725
 20
867.4941114881359
 40
236.00445950145172
 50
166.6414955522776
 51
227.08023756526131
  0
ARC
  8
_0-0_0
  6
CONTINUOUS
 62
    7
 10
963.63457775808001
 20
867.48798647145452
 40
241.97939520848104
 50
166.68746997801824
 51
227.62511829699079
  0
LINE
  8
_0-0_0
  6
CONTINUOUS
 62
    7
 10
731.73460437124731
 20
745.52184941045255
 11
800.9684592494483
 21
686.09926601912991
  0
LINE
  8
_0-0_0
  6
CONTINUOUS
 62
    7
 10
728.2056481741904
 20
740.66937909531919
 11
798.42281196984004
 21
680.40283350877735
  0
ARC
  8
_0-0_0
  6
CONTINUOUS
 62
    7
 10
582.05365674160078
 20
320.18843943725687
 40
412.19370338057303
 50
59.043871499283838
 51
71.972648670629965
  0
ARC
  8
_0-0_0
  6
CONTINUOUS
 62
    7
 10
582.05365674162692
 20
320.18843943729269
 40
406.19370338052897
 50
57.287529969749791
 51
72.182995702735695
  0
ARC
  8
_0-0_0
  6
CONTINUOUS
 62
    7
 10
704.16518238922436
 20
489.14422194798897
 40
191.26255904674571
 50
59.625042649829936
 51
64.458708091638925
  0
ARC
  8
_0-0_0
  6
CONTINUOUS
 62
    7
 10
703.67847602373217
 20
488.25146941094283
 40
198.27784445341339
 50
60.347435566895335
 51
64.453664876724403
  0
ARC
  8
_0-0_0
  6
CONTINUOUS
 62
    7
 10
704.16518238922436
 20
489.14422194798897
 40
191.26255904674571
 50
48.358500105265797
 51
55.665700603453843
  0
ARC
  8
_0-0_0
  6
CONTINUOUS
 62
    7
 10
703.67847602373217
 20
488.25146941094283
 40
198.27784445341339
 50
48.487138725960335
 51
50.236579456188935
  0
ARC
  8
_0-0_0
  6
CONTINUOUS
 62
    7
 10
582.05365674162692
 20
320.18843943729269
 40
406.19370338052897
 50
50.856995119595645
 51
52.169684994164207
  0
ARC
  8
_0-0_0
  6
CONTINUOUS
 62
    7
 10
582.05365674160078
 20
320.18843943725687
 40
412.19370338057303
 50
50.856995119595645
 51
52.100583210721723
  0
LINE
  8
_0-0_0
  6
CONTINUOUS
 62
    7
 10
836.72314874756523
 20
647.5301159619363
 11
929.87227073036593
 21
567.58134698772403
  0
LINE
  8
_0-0_0
  6
CONTINUOUS
 62
    7
 10
846.29122619212183
 20
647.19928128024083
 11
933.40122692740636
 21
572.43381730287081
  0
ARC
  8
_0-0_0
  6
CONTINUOUS
 62
    7
 10
1079.5532183599948
 20
992.91475696093346
 40
412.19370338057303
 50
236.21571591065475
 51
251.97264867063001
  0
ARC
  8
_0-0_0
  6
CONTINUOUS
 62
    7
 10
1079.5532183599694
 20
992.91475696089776
 40
406.19370338052897
 50
235.97749599144615
 51
252.18299570273572
  0
ARC
  8
_0-0_0
  6
CONTINUOUS
 62
    7
 10
957.92839907786401
 20
824.85172698724784
 40
198.27784445341339
 50
237.7865894230641
 51
244.45366487675074
  0
ARC
  8
_0-0_0
  6
CONTINUOUS
 62
    7
 10
957.44169271237183
 20
823.95897445020137
 40
191.26255904674571
 50
237.02052645156118
 51
244.45870809164177
  0
ENDSEC
  0
EOF
