  0
SECTION
  2
HEADER
  9
$ACADVER
  1
AC1009
  9
$INSBASE
 10
0
 20
0
 30
0
  9
$EXTMIN
 10
0
 20
0
  9
$EXTMAX
 10
420
 20
297
  9
$LIMMIN
 10
0
 20
0
  9
$LIMMAX
 10
420
 20
297
  9
$LTSCALE
 40
1
  0
ENDSEC
  0
SECTION
  2
TABLES
  0
TABLE
  2
LTYPE
 70
     9
  0
LTYPE
  2
CONTINUOUS
 70
    64
  3
実線
 72
    65
 73
     0
 40
0.0
  0
LTYPE
  2
DASHED1
 70
    64
  3
--  --  --  --  --  --  --  --  
 72
    65
 73
     2
 40
2.5
 49
1.25
 49
-1.25
  0
LTYPE
  2
DASHED2
 70
    64
  3
----    ----    ----    ----    
 72
    65
 73
     2
 40
5.0
 49
2.5
 49
-2.5
  0
LTYPE
  2
DASHED3
 70
    64
  3
------  ------  ------  ------  
 72
    65
 73
     2
 40
5.0
 49
3.75
 49
-1.25
  0
LTYPE
  2
CENTER1
 70
    64
  3
----- - ----- - ----- - ----- - 
 72
    65
 73
     4
 40
10.0
 49
6.25
 49
-1.25
 49
1.25
 49
-1.25
  0
LTYPE
  2
CENTER2
 70
    64
  3
----------  --  ----------  --  
 72
    65
 73
     4
 40
20.0
 49
12.5
 49
-2.5
 49
2.5
 49
-2.5
  0
LTYPE
  2
PHANTOM1
 70
    64
  3
--- - - --- - - --- - - --- - - 
 72
    65
 73
     6
 40
10.0
 49
3.25
 49
-1.25
 49
1.25
 49
-1.25
 49
1.25
 49
-1.25
  0
LTYPE
  2
PHANTOM2
 70
    64
  3
--------  -  -  --------  -  -  
 72
    65
 73
     6
 40
20.0
 49
10.0
 49
-2.5
 49
1.25
 49
-2.5
 49
1.25
 49
-2.5
  0
LTYPE
  2
DOT
 70
    64
  3
-   -   -   -   -   -   -   -   
 72
    65
 73
     2
 40
2.5
 49
0.625
 49
-1.875
  0
LTYPE
  2
DUMMY
 70
    64
  3
ダミー
 72
    65
 73
     0
 40
0.0
  0
LTYPE
  2
RAND1
 70
    64
  3
ランダム線1
 72
    65
 73
     4
 40
10.0
 49
1.0
 49
-2.0
 49
3.0
 49
-4.0
  0
LTYPE
  2
RAND2
 70
    64
  3
ランダム線2
 72
    65
 73
     4
 40
14.0
 49
2.0
 49
-3.0
 49
4.0
 49
-5.0
  0
LTYPE
  2
RAND3
 70
    64
  3
ランダム線3
 72
    65
 73
     4
 40
18.0
 49
3.0
 49
-4.0
 49
5.0
 49
-6.0
  0
LTYPE
  2
RAND4
 70
    64
  3
ランダム線4
 72
    65
 73
     4
 40
22.0
 49
4.0
 49
-5.0
 49
6.0
 49
-7.0
  0
LTYPE
  2
RAND5
 70
    64
  3
ランダム線5
 72
    65
 73
     4
 40
26.0
 49
5.0
 49
-6.0
 49
7.0
 49
-8.0
  0
LTYPE
  2
LONG1
 70
    64
  3
----------  --  ----------  --  
 72
    65
 73
     4
 40
40.0
 49
32.5
 49
-2.5
 49
2.5
 49
-2.5
  0
LTYPE
  2
LONG2
 70
    64
  3
--------  -  -  --------  -  -  
 72
    65
 73
     6
 40
40.0
 49
30.0
 49
-2.5
 49
1.25
 49
-2.5
 49
1.25
 49
-2.5
  0
LTYPE
  2
LONG3
 70
    64
  3
+++++++++++++++..+++++++++++++++
 72
    65
 73
     2
 40
40.0
 49
37.5
 49
-2.5
  0
LTYPE
  2
LONG4
 70
    64
  3
+++++++++++++++..+++++++++++++++
 72
    65
 73
     2
 40
80.0
 49
75.0
 49
-5.0
  0
LTYPE
  2
LONG5
 70
    64
  3
----------  --  ----------  --  
 72
    65
 73
     4
 40
60.0
 49
37.5
 49
-7.5
 49
7.5
 49
-7.5
  0
LTYPE
  2
dashed
 70
   64
  3
-------   -------------   ------
 72
   65
 73
    2
 40
7.5
 49
6
 49
-1.5
  0
LTYPE
  2
dashed_spaced
 70
   64
  3
----        --------        ----
 72
   65
 73
    2
 40
12
 49
6
 49
-6
  0
LTYPE
  2
long_dashed_dotted
 70
   64
  3
------------- --- --------------
 72
   65
 73
    4
 40
15.25
 49
12
 49
-1.5
 49
0.25
 49
-1.5
  0
LTYPE
  2
long_dashed_double-dotted
 70
   64
  3
----------- --- --- ------------
 72
   65
 73
    6
 40
17
 49
12
 49
-1.5
 49
0.25
 49
-1.5
 49
0.25
 49
-1.5
  0
LTYPE
  2
long_dashed_triplicate-dotted
 70
   64
  3
--------- --- --- --- ----------
 72
   65
 73
    8
 40
18.75
 49
12
 49
-1.5
 49
0.25
 49
-1.5
 49
0.25
 49
-1.5
 49
0.25
 49
-1.5
  0
LTYPE
  2
dotted
 70
   64
  3
   -       -       -       -    
 72
   65
 73
    2
 40
1.75
 49
0.25
 49
-1.5
  0
LTYPE
  2
chain
 70
   64
  3
-------------- -- --------------
 72
   65
 73
    4
 40
18.5
 49
12
 49
-1.5
 49
3.5
 49
-1.5
  0
LTYPE
  2
chain_double_dash
 70
   64
  3
------------ -- -- -------------
 72
   65
 73
    6
 40
23.5
 49
12
 49
-1.5
 49
3.5
 49
-1.5
 49
3.5
 49
-1.5
  0
LTYPE
  2
dashed_dotted
 70
   64
  3
-----------     -     ----------
 72
   65
 73
    4
 40
9.25
 49
6
 49
-1.5
 49
0.25
 49
-1.5
  0
LTYPE
  2
double-dashed_dotted
 70
   64
  3
------   -----------   -   -----
 72
   65
 73
    6
 40
16.75
 49
6
 49
-1.5
 49
6
 49
-1.5
 49
0.25
 49
-1.5
  0
LTYPE
  2
dashed_double-dotted
 70
   64
  3
---------    -    -    ---------
 72
   65
 73
    6
 40
11
 49
6
 49
-1.5
 49
0.25
 49
-1.5
 49
0.25
 49
-1.5
  0
LTYPE
  2
double-dashed_double-dotted
 70
   64
  3
-----   ---------   -   -   ----
 72
   65
 73
    8
 40
18.5
 49
6
 49
-1.5
 49
6
 49
-1.5
 49
0.25
 49
-1.5
 49
0.25
 49
-1.5
  0
LTYPE
  2
dashed_triplicate-dotted
 70
   64
  3
-------    -    -    -    ------
 72
   65
 73
    8
 40
12.75
 49
6
 49
-1.5
 49
0.25
 49
-1.5
 49
0.25
 49
-1.5
 49
0.25
 49
-1.5
  0
LTYPE
  2
double-dashed_triplicate-dotted
 70
   64
  3
-----  ---------  -  -  -  -----
 72
   65
 73
   10
 40
20.25
 49
6
 49
-1.5
 49
6
 49
-1.5
 49
0.25
 49
-1.5
 49
0.25
 49
-1.5
 49
0.25
 49
-1.5
  0
LTYPE
  2
undefined
 70
   64
  3
--------------------------------
 72
   65
 73
    0
 40
0
  0
LTYPE
  2
BORDER
 70
   64
  3
----     --------     -     ----
 72
   65
 73
    0
 40
0
  0
LTYPE
  2
BORDER2
 70
   64
  3
----     --------     -     ----
 72
   65
 73
    0
 40
0
  0
LTYPE
  2
BORDERX2
 70
   64
  3
----     --------     -     ----
 72
   65
 73
    0
 40
0
  0
LTYPE
  2
CENTER
 70
   64
  3
----------    ----    ----------
 72
   65
 73
    0
 40
0
  0
LTYPE
  2
CENTER2_21
 70
   64
  3
----------    ----    ----------
 72
   65
 73
    0
 40
0
  0
LTYPE
  2
CENTERX2
 70
   64
  3
----------    ----    ----------
 72
   65
 73
    0
 40
0
  0
LTYPE
  2
DASHDOT
 70
   64
  3
--------        -        -------
 72
   65
 73
    0
 40
0
  0
LTYPE
  2
DASHDOT2
 70
   64
  3
--------        -        -------
 72
   65
 73
    0
 40
0
  0
LTYPE
  2
DASHDOTX2
 70
   64
  3
--------        -        -------
 72
   65
 73
    0
 40
0
  0
LTYPE
  2
DASHED
 70
   64
  3
------     -----------     -----
 72
   65
 73
    0
 40
0
  0
LTYPE
  2
DASHED2_27
 70
   64
  3
------     -----------     -----
 72
   65
 73
    0
 40
0
  0
LTYPE
  2
DASHEDX2
 70
   64
  3
------     -----------     -----
 72
   65
 73
    0
 40
0
  0
LTYPE
  2
DIVIDE
 70
   64
  3
------      -      -      ------
 72
   65
 73
    0
 40
0
  0
LTYPE
  2
DIVIDE2
 70
   64
  3
------      -      -      ------
 72
   65
 73
    0
 40
0
  0
LTYPE
  2
DIVIDEX2
 70
   64
  3
------      -      -      ------
 72
   65
 73
    0
 40
0
  0
LTYPE
  2
DOT_32
 70
   64
  3
-               -               
 72
   65
 73
    0
 40
0
  0
ENDTAB
  0
TABLE
  2
STYLE
  5
3
100
AcDbSymbolTable
 70
     1
  0
STYLE
  5
10
100
AcDbSymbolTableRecord
100
AcDbTextStyleTableRecord
  2
STANDARD
 70
     0
 40
0.0
 41
1.0
 50
0.0
 71
     0
 42
0.2
  3
txt
  4
bigfont.shx
  0
STYLE
  5
26
100
AcDbSymbolTableRecord
100
AcDbTextStyleTableRecord
  2
TATEGAKI
 70
    68
 40
0.0
 41
1.0
 50
0.0
 71
     0
 42
1.0
  3
txt
  4
bigfont.shx
  0
ENDTAB
  0
TABLE
  2
LAYER
 70
    2
  0
LAYER
  2
_0-0_0
 70
   64
 62
    7
  6
CONTINUOUS
  0
LAYER
  2
ADD_LINE
 70
   64
 62
    7
  6
CONTINUOUS
  0
ENDTAB
  0
ENDSEC
  0
SECTION
  2
BLOCKS
  0
ENDSEC
  0
SECTION
  2
ENTITIES
  0
LINE
  8
_0-0_0
  6
CONTINUOUS
 62
    7
 10
-68.637604383680582
 20
258.49934596413618
 11
-66.432459313049208
 21
252.45111768602501
  0
LINE
  8
_0-0_0
  6
CONTINUOUS
 62
    7
 10
-66.432459313049208
 20
252.45111768602501
 11
-67.098342159881895
 21
251.30495066035647
  0
LINE
  8
_0-0_0
  6
CONTINUOUS
 62
    7
 10
-67.098342159881895
 20
251.30495066035647
 11
-70.299249957500706
 21
256.69348114913993
  0
ARC
  8
_0-0_0
  6
CONTINUOUS
 62
    7
 10
357.60544281007725
 20
243.90624317142866
 40
3.3471929999999994
 50
182.435731
 51
313.11780200000004
  0
ARC
  8
_0-0_0
  6
CONTINUOUS
 62
    7
 10
-40.079208108757172
 20
259.8409333481917
 40
71.421217999999982
 50
227.162576
 51
278.18322800000004
  0
ARC
  8
_0-0_0
  6
CONTINUOUS
 62
    7
 10
-88.414580806957929
 20
599.4935377433435
 40
414.49578199999996
 50
278.11375199999998
 51
293.94457300000005
  0
ARC
  8
_0-0_0
  6
CONTINUOUS
 62
    7
 10
-44.776609342137277
 20
253.01640546573856
 40
63.234340000000003
 50
168.44519500000001
 51
226.07919899999999
  0
ARC
  8
_0-0_0
  6
CONTINUOUS
 62
    7
 10
-76.12724920920914
 20
254.71485025771761
 40
32.508204999999997
 50
345.820201
 51
160.28246999999996
  0
ARC
  8
_0-0_0
  6
CONTINUOUS
 62
    7
 10
-70.513539569348609
 20
255.05201932102941
 40
27.201420999999996
 50
294.08802000000003
 51
342.23271299999999
  0
ARC
  8
_0-0_0
  6
CONTINUOUS
 62
    7
 10
-65.151433405312901
 20
244.69183302978368
 40
15.569202999999998
 50
193.75144899999998
 51
291.63351
  0
ARC
  8
_0-0_0
  6
CONTINUOUS
 62
    7
 10
-50.178066633084541
 20
250.2920424197286
 40
31.500772000000001
 50
166.57534200000001
 51
197.17360600000001
  0
ARC
  8
_0-0_0
  6
CONTINUOUS
 62
    7
 10
-74.521732513910592
 20
255.243441707844
 40
6.7248469999999987
 50
28.957354000000002
 51
159.436927
  0
ARC
  8
_0-0_0
  6
CONTINUOUS
 62
    7
 10
-65.151433405312901
 20
244.69183302978368
 40
9.5692059999999994
 50
192.75167299999998
 51
290.90937300000002
  0
ARC
  8
_0-0_0
  6
CONTINUOUS
 62
    7
 10
-50.178066633084541
 20
250.2920424197286
 40
25.500764
 50
178.01880500000001
 51
197.60404400000002
  0
ARC
  8
_0-0_0
  6
CONTINUOUS
 62
    7
 10
-71.782220876148472
 20
251.78090488140595
 40
3.9285859999999997
 50
46.309722000000043
 51
188.89219900000006
  0
LINE
  8
_0-0_0
  6
CONTINUOUS
 62
    7
 10
-70.299249957500706
 20
256.69348114913993
 11
-70.873393294927496
 21
257.42386960872176
  0
ARC
  8
_0-0_0
  6
CONTINUOUS
 62
    7
 10
476.44503704399176
 20
259.38180746906892
 40
45.660136000000001
 50
276.76653799999997
 51
24.276789000000004
  0
ARC
  8
_0-0_0
  6
CONTINUOUS
 62
    7
 10
477.48848479486901
 20
244.79645626805728
 40
31.060925999999995
 50
106.521339
 51
278.02527299999997
  0
ARC
  8
_0-0_0
  6
CONTINUOUS
 62
    7
 10
447.50531766045111
 20
145.46252145483066
 40
242.628063
 50
77.496257
 51
107.52113899999999
  0
ARC
  8
_0-0_0
  6
CONTINUOUS
 62
    7
 10
467.26091792900399
 20
248.33372043946298
 40
137.95191800000001
 50
24.210864000000026
 51
76.256414000000021
  0
ARC
  8
_0-0_0
  6
CONTINUOUS
 62
    7
 10
502.29827583976009
 20
268.72355085267066
 40
97.726050000000001
 50
227.54697899999999
 51
21.73142299999995
  0
ARC
  8
_0-0_0
  6
CONTINUOUS
 62
    7
 10
353.00980400029664
 20
237.67299948346184
 40
30.732095000000001
 50
94.482883000000001
 51
267.56922399999996
  0
ARC
  8
_0-0_0
  6
CONTINUOUS
 62
    7
 10
234.51528454536799
 20
245.59614960712577
 40
35.124251999999998
 50
164.13455299999998
 51
304.05314399999997
  0
ARC
  8
_0-0_0
  6
CONTINUOUS
 62
    7
 10
238.58403509616073
 20
234.68701503282196
 40
23.964373999999999
 50
310.61285699999996
 51
87.024890000000028
  0
ARC
  8
_0-0_0
  6
CONTINUOUS
 62
    7
 10
305.75224492001212
 20
237.33687476534715
 40
94.969961999999981
 50
97.328267999999994
 51
116.92919700000002
  0
ARC
  8
_0-0_0
  6
CONTINUOUS
 62
    7
 10
353.10291774159771
 20
247.8858960354832
 40
20.577021999999999
 50
46.724860999999954
 51
96.964853999999988
  0
ARC
  8
_0-0_0
  6
CONTINUOUS
 62
    7
 10
351.22129843836922
 20
252.34716458125234
 40
19.138099
 50
301.50064699999996
 51
33.346569999999986
  0
ARC
  8
_0-0_0
  6
CONTINUOUS
 62
    7
 10
357.60388762321753
 20
242.43710611792969
 40
7.3582249999999991
 50
168.40052499999999
 51
299.44511499999999
  0
LINE
  8
_0-0_0
  6
CONTINUOUS
 62
    7
 10
350.39594448783919
 20
243.91661546000554
 11
352.47323529053733
 21
249.04406778694181
  0
LINE
  8
_0-0_0
  6
CONTINUOUS
 62
    7
 10
352.47323529053733
 20
249.04406778694181
 11
354.79415844182893
 21
250.30422183465527
  0
LINE
  8
_0-0_0
  6
CONTINUOUS
 62
    7
 10
354.79415844182893
 20
250.30422183465527
 11
354.26127321732133
 21
243.76399227910593
  0
ARC
  8
_0-0_0
  6
CONTINUOUS
 62
    7
 10
236.60655050606962
 20
241.74415945975514
 40
17.179638000000001
 50
79.192738999999975
 51
136.21030799999997
  0
ARC
  8
_0-0_0
  6
CONTINUOUS
 62
    7
 10
232.43036412728762
 20
247.64179411446554
 40
10.175966000000001
 50
143.933019
 51
296.38800499999996
  0
LINE
  8
_0-0_0
  6
CONTINUOUS
 62
    7
 10
236.95304916516412
 20
238.52611417388243
 11
240.79519588995493
 21
242.14526528806817
  0
LINE
  8
_0-0_0
  6
CONTINUOUS
 62
    7
 10
240.79519588995493
 20
242.14526528806817
 11
240.42433361641415
 21
242.69217165500243
  0
LINE
  8
_0-0_0
  6
CONTINUOUS
 62
    7
 10
240.42433361641415
 20
242.69217165500243
 11
236.18716482003668
 21
241.74211480827509
  0
LINE
  8
_0-0_0
  6
CONTINUOUS
 62
    7
 10
236.18716482003668
 20
241.74211480827509
 11
233.39719509753917
 21
241.78770039177527
  0
ARC
  8
_0-0_0
  6
CONTINUOUS
 62
    7
 10
471.06719767128584
 20
265.95236785011946
 40
8.9535149999999994
 50
4.0892910000000207
 51
105.62528000000006
  0
LINE
  8
_0-0_0
  6
CONTINUOUS
 62
    7
 10
479.99792616351942
 20
266.59085275295695
 11
479.33195099639556
 21
254.9342362475831
  0
LINE
  8
_0-0_0
  6
CONTINUOUS
 62
    7
 10
479.33195099639556
 20
254.9342362475831
 11
477.18609190317102
 21
254.56042785067518
  0
LINE
  8
_0-0_0
  6
CONTINUOUS
 62
    7
 10
477.18609190317102
 20
254.56042785067518
 11
476.22421157645556
 21
264.36898497751798
  0
LINE
  8
_0-0_0
  6
CONTINUOUS
 62
    7
 10
476.22421157645556
 20
264.36898497751798
 11
475.44256489528755
 21
266.78153144814291
  0
ARC
  8
_0-0_0
  6
CONTINUOUS
 62
    7
 10
470.62176984418045
 20
262.79969940174493
 40
6.2526039999999998
 50
39.555676000000084
 51
119.06677300000008
  0
LINE
  8
_0-0_0
  6
CONTINUOUS
 62
    7
 10
467.58407409422091
 20
268.26481719558552
 11
464.3507700383218
 21
266.13774402346377
  0
ARC
  8
_0-0_0
  6
CONTINUOUS
 62
    7
 10
502.29827583976009
 20
268.72355085267066
 40
109.72606500000001
 50
227.65348900000001
 51
21.867917999999975
  0
ARC
  8
_0-0_0
  6
CONTINUOUS
 62
    7
 10
467.26091792900399
 20
248.33372043946298
 40
149.95190199999996
 50
24.112291000000052
 51
76.306875000000076
  0
ARC
  8
_0-0_0
  6
CONTINUOUS
 62
    7
 10
447.50531766045111
 20
145.46252145483066
 40
254.62807799999999
 50
77.467542999999992
 51
107.63780100000004
  0
ARC
  8
_0-0_0
  6
CONTINUOUS
 62
    7
 10
234.51528454536799
 20
245.59614960712577
 40
23.124249999999996
 50
183.73535200000001
 51
302.22889599999996
  0
ARC
  8
_0-0_0
  6
CONTINUOUS
 62
    7
 10
353.00980400029664
 20
237.67299948346184
 40
18.732094
 50
93.612170000000006
 51
267.23853300000002
  0
ARC
  8
_0-0_0
  6
CONTINUOUS
 62
    7
 10
353.10291774159771
 20
247.8858960354832
 40
8.5770219999999995
 50
301.56718699999999
 51
98.537263999999993
  0
ARC
  8
_0-0_0
  6
CONTINUOUS
 62
    7
 10
-88.414580806957929
 20
599.4935377433435
 40
402.49578299999996
 50
278.09928500000001
 51
293.91206099999999
  0
ARC
  8
_0-0_0
  6
CONTINUOUS
 62
    7
 10
-40.079208108757172
 20
259.8409333481917
 40
59.421148999999993
 50
227.27246
 51
278.09927200000004
  0
ARC
  8
_0-0_0
  6
CONTINUOUS
 62
    7
 10
-44.776609342137277
 20
253.01640546573856
 40
51.234335999999992
 50
177.51688799999999
 51
225.95288099999999
  0
ARC
  8
_0-0_0
  6
CONTINUOUS
 62
    7
 10
-75.731635143521089
 20
254.41051420489146
 40
20.248058
 50
291.86142000000001
 51
177.66310900000002
  0
ARC
  8
_0-0_0
  6
CONTINUOUS
 62
    7
 10
463.43810793951786
 20
250.7030656693708
 40
49.138862000000003
 50
26.979986999999976
 51
131.88385799999998
  0
ARC
  8
_0-0_0
  6
CONTINUOUS
 62
    7
 10
476.44503704399176
 20
259.38180746906892
 40
33.660128999999998
 50
232.45865000000001
 51
23.857961999999986
  0
ARC
  8
_0-0_0
  6
CONTINUOUS
 62
    7
 10
-430.0338423147798
 20
1320.46552534996
 40
1212.2255680000001
 50
294.87151099999994
 51
303.00447700000001
  0
ARC
  8
_0-0_0
  6
CONTINUOUS
 62
    7
 10
-907.18695535579855
 20
2187.5488753047111
 40
2188.6332679999996
 50
296.65673199999998
 51
301.56431799999996
  0
ARC
  8
_0-0_0
  6
CONTINUOUS
 62
    7
 10
295.65761759885697
 20
230.90994561766109
 40
85.242514
 50
120.686989
 51
171.10557399999999
  0
ARC
  8
_0-0_0
  6
CONTINUOUS
 62
    7
 10
774.43503776137095
 20
-592.40394363111795
 40
1048.523788
 50
120.21849599999999
 51
121.26393699999998
  0
ARC
  8
_0-0_0
  6
CONTINUOUS
 62
    7
 10
774.43503776137095
 20
-592.40394363111795
 40
1048.523788
 50
119.930035
 51
119.934347
  0
ARC
  8
_0-0_0
  6
CONTINUOUS
 62
    7
 10
304.2632166543624
 20
220.38369543522623
 40
109.23089399999999
 50
121.68484599999999
 51
161.41412299999999
  0
ARC
  8
_0-0_0
  6
CONTINUOUS
 62
    7
 10
304.2632166543624
 20
220.38369543522623
 40
109.23089399999999
 50
118.91873199999998
 51
118.956947
  0
ARC
  8
_0-0_0
  6
CONTINUOUS
 62
    7
 10
305.75224492001212
 20
237.33687476534715
 40
82.969961999999981
 50
97.190573999999984
 51
116.39131399999999
  0
ARC
  8
_0-0_0
  6
CONTINUOUS
 62
    7
 10
774.43503776137095
 20
-592.40394363111795
 40
1060.523788
 50
120.216024
 51
120.35674800000001
  0
ARC
  8
_0-0_0
  6
CONTINUOUS
 62
    7
 10
774.43503776137095
 20
-592.40394363111795
 40
1060.523788
 50
112.39693199999999
 51
119.23272899999999
  0
ARC
  8
_0-0_0
  6
CONTINUOUS
 62
    7
 10
774.43503776137095
 20
-592.40394363111795
 40
1048.523788
 50
112.42443599999999
 51
119.223947
  0
ARC
  8
_0-0_0
  6
CONTINUOUS
 62
    7
 10
463.43810793951786
 20
250.7030656693708
 40
61.138865999999993
 50
26.679894999999988
 51
168.897155
  0
ARC
  8
_0-0_0
  6
CONTINUOUS
 62
    7
 10
309.0395132328357
 20
236.78492875555779
 40
95.989728999999983
 50
15.649140000000003
 51
99.232721000000041
  0
ARC
  8
_0-0_0
  6
CONTINUOUS
 62
    7
 10
309.0395132328357
 20
236.78492875555779
 40
83.98972999999998
 50
18.273708000000038
 51
99.36882800000005
  0
ARC
  8
_0-0_0
  6
CONTINUOUS
 62
    7
 10
485.28763081580985
 20
253.95097734884769
 40
75.388616999999996
 50
187.46993600000002
 51
229.50795400000001
  0
ARC
  8
_0-0_0
  6
CONTINUOUS
 62
    7
 10
352.84637956430925
 20
255.65685811693606
 40
36.701644000000002
 50
268.84616800000003
 51
343.02050700000007
  0
ARC
  8
_0-0_0
  6
CONTINUOUS
 62
    7
 10
485.28763081580985
 20
253.95097734884769
 40
87.388616999999996
 50
189.11019200000001
 51
229.372388
  0
ARC
  8
_0-0_0
  6
CONTINUOUS
 62
    7
 10
352.84637956430925
 20
255.65685811693606
 40
48.701644000000002
 50
268.65872100000001
 51
341.389321
  0
LINE
  8
_0-0_0
  6
CONTINUOUS
 62
    7
 10
399.00136652086269
 20
240.11441359283643
 11
399.15617500144901
 21
244.54749625887402
  0
ARC
  8
_0-0_0
  6
CONTINUOUS
 62
    7
 10
466.26906334268176
 20
244.45402520461363
 40
55.719531000000003
 50
129.76061200000001
 51
161.36481599999999
  0
LINE
  8
_0-0_0
  6
CONTINUOUS
 62
    7
 10
244.30300740174076
 20
328.21463413932855
 11
258.60300805142396
 21
303.44630835989096
  0
LINE
  8
_0-0_0
  6
CONTINUOUS
 62
    7
 10
265.35800324949764
 20
307.34631066986827
 11
251.05800259981459
 21
332.11463644930592
  0
ARC
  8
_0-0_0
  6
CONTINUOUS
 62
    7
 10
261.98050525826
 20
305.39631399775584
 40
3.8999999999999995
 50
210.00007299999999
 51
29.999968000000024
  0
ARC
  8
_0-0_0
  6
CONTINUOUS
 62
    7
 10
247.68050530582283
 20
330.16463180763589
 40
3.8999999999999995
 50
30.00007799999997
 51
209.99997700000003
  0
LINE
  8
_0-0_0
  6
CONTINUOUS
 62
    7
 10
258.60300805142396
 20
303.44630835989096
 11
255.2255060754074
 21
301.49631133915551
  0
ARC
  8
_0-0_0
  6
CONTINUOUS
 62
    7
 10
254.57550591454748
 20
302.62214322256392
 40
1.3
 50
210.00018200000002
 51
300.00002699999999
  0
ARC
  8
_0-0_0
  6
CONTINUOUS
 62
    7
 10
268.0855029851092
 20
310.4221403958955
 40
1.3
 50
300.00002699999999
 51
30.000187000000004
  0
LINE
  8
_0-0_0
  6
CONTINUOUS
 62
    7
 10
268.73550414216385
 20
309.29630859964271
 11
265.35800324949764
 21
307.34631066986827
  0
LINE
  8
_0-0_0
  6
CONTINUOUS
 62
    7
 10
251.05800259981459
 20
332.11463644930592
 11
254.43550448867546
 21
334.06463446623604
  0
ARC
  8
_0-0_0
  6
CONTINUOUS
 62
    7
 10
255.08550473669112
 20
332.93880158663296
 40
1.3
 50
30.000186999999968
 51
120.000022
  0
LINE
  8
_0-0_0
  6
CONTINUOUS
 62
    7
 10
256.2113372676713
 20
333.58880581942742
 11
269.21133551608938
 21
311.07214462868995
  0
LINE
  8
_0-0_0
  6
CONTINUOUS
 62
    7
 10
244.30300740174076
 20
328.21463413932855
 11
240.92550841430835
 21
326.26463738006032
  0
ARC
  8
_0-0_0
  6
CONTINUOUS
 62
    7
 10
241.57550866232401
 20
325.13880450045724
 40
1.3
 50
120.000022
 51
210.00018200000002
  0
LINE
  8
_0-0_0
  6
CONTINUOUS
 62
    7
 10
240.44967712753851
 20
324.48880035481841
 11
253.44967329641148
 21
301.97213998596402
  0
LINE
  8
_0-0_0
  6
CONTINUOUS
 62
    7
 10
253.44967329641148
 20
301.97213998596402
 11
240.44967712753851
 21
324.48880035481841
  0
LINE
  8
_0-0_0
  6
CONTINUOUS
 62
    7
 10
385.73371645403137
 20
250.21938917962896
 11
414.31629207075548
 21
249.22126462186131
  0
LINE
  8
_0-0_0
  6
CONTINUOUS
 62
    7
 10
414.58850337069612
 20
257.01651166835325
 11
386.00592875016673
 21
258.01463631327664
  0
ARC
  8
_0-0_0
  6
CONTINUOUS
 62
    7
 10
414.45239758999219
 20
253.11888963939938
 40
3.8999999999999995
 50
268.00003099999998
 51
88.000021999999944
  0
ARC
  8
_0-0_0
  6
CONTINUOUS
 62
    7
 10
385.86983020429295
 20
254.11701190582889
 40
3.8999999999999995
 50
88.000132000000036
 51
267.999908
  0
LINE
  8
_0-0_0
  6
CONTINUOUS
 62
    7
 10
414.31629207075548
 20
249.22126462186131
 11
414.1801855553241
 21
245.32363951716752
  0
ARC
  8
_0-0_0
  6
CONTINUOUS
 62
    7
 10
412.88097359248275
 20
245.36900737194384
 40
1.3
 50
268.00026299999996
 51
358.00003999999996
  0
ARC
  8
_0-0_0
  6
CONTINUOUS
 62
    7
 10
413.42541286620667
 20
260.95950593515943
 40
1.3
 50
357.99998599999998
 51
88.000268000000005
  0
LINE
  8
_0-0_0
  6
CONTINUOUS
 62
    7
 10
414.72461694664611
 20
260.91413638694257
 11
414.58850337069612
 21
257.01651166835325
  0
LINE
  8
_0-0_0
  6
CONTINUOUS
 62
    7
 10
386.00592875016673
 20
258.01463631327664
 11
386.14204215180524
 21
261.91226302425537
  0
ARC
  8
_0-0_0
  6
CONTINUOUS
 62
    7
 10
387.44124623224468
 20
261.86689347603846
 40
1.3
 50
87.999939999999995
 51
177.99998099999999
  0
LINE
  8
_0-0_0
  6
CONTINUOUS
 62
    7
 10
387.48661733707229
 20
263.1661027117629
 11
413.47077691051567
 21
262.25871555698836
  0
LINE
  8
_0-0_0
  6
CONTINUOUS
 62
    7
 10
385.73371645403137
 20
250.21938917962896
 11
385.59761067332749
 21
246.3217671506751
  0
ARC
  8
_0-0_0
  6
CONTINUOUS
 62
    7
 10
386.89681475376693
 20
246.2763976024581
 40
1.3
 50
178.000001
 51
268.00026299999996
  0
LINE
  8
_0-0_0
  6
CONTINUOUS
 62
    7
 10
386.85145070945799
 20
244.9771879806292
 11
412.83561054436848
 21
244.06979783727056
  0
LINE
  8
_0-0_0
  6
CONTINUOUS
 62
    7
 10
412.83561054436848
 20
244.06979783727056
 11
386.85145070945799
 21
244.9771879806292
  0
ARC
  8
_0-0_0
  6
CONTINUOUS
 62
    7
 10
477.48848479486901
 20
244.79645626805728
 40
25.060923999999996
 50
121.616489
 51
209.31789920102773
  0
ARC
  8
_0-0_0
  6
CONTINUOUS
 62
    7
 10
238.58403509616073
 20
234.68701503282196
 40
11.964373
 50
313.68347799999998
 51
132.25991941990907
  0
ARC
  8
_0-0_0
  6
CONTINUOUS
 62
    7
 10
234.88926103307395
 20
247.42679897923088
 40
5.8331540000000004
 50
221.75975269840004
 51
255.17957499999997
  0
ENDSEC
  0
EOF
