  0
SECTION
  2
HEADER
  9
$ACADVER
  1
AC1009
  9
$INSBASE
 10
0
 20
0
 30
0
  9
$EXTMIN
 10
0
 20
0
  9
$EXTMAX
 10
420
 20
297
  9
$LIMMIN
 10
0
 20
0
  9
$LIMMAX
 10
420
 20
297
  9
$LTSCALE
 40
1
  0
ENDSEC
  0
SECTION
  2
TABLES
  0
TABLE
  2
LTYPE
 70
     9
  0
LTYPE
  2
CONTINUOUS
 70
    64
  3
実線
 72
    65
 73
     0
 40
0.0
  0
LTYPE
  2
DASHED1
 70
    64
  3
--  --  --  --  --  --  --  --  
 72
    65
 73
     2
 40
2.5
 49
1.25
 49
-1.25
  0
LTYPE
  2
DASHED2
 70
    64
  3
----    ----    ----    ----    
 72
    65
 73
     2
 40
5.0
 49
2.5
 49
-2.5
  0
LTYPE
  2
DASHED3
 70
    64
  3
------  ------  ------  ------  
 72
    65
 73
     2
 40
5.0
 49
3.75
 49
-1.25
  0
LTYPE
  2
CENTER1
 70
    64
  3
----- - ----- - ----- - ----- - 
 72
    65
 73
     4
 40
10.0
 49
6.25
 49
-1.25
 49
1.25
 49
-1.25
  0
LTYPE
  2
CENTER2
 70
    64
  3
----------  --  ----------  --  
 72
    65
 73
     4
 40
20.0
 49
12.5
 49
-2.5
 49
2.5
 49
-2.5
  0
LTYPE
  2
PHANTOM1
 70
    64
  3
--- - - --- - - --- - - --- - - 
 72
    65
 73
     6
 40
10.0
 49
3.25
 49
-1.25
 49
1.25
 49
-1.25
 49
1.25
 49
-1.25
  0
LTYPE
  2
PHANTOM2
 70
    64
  3
--------  -  -  --------  -  -  
 72
    65
 73
     6
 40
20.0
 49
10.0
 49
-2.5
 49
1.25
 49
-2.5
 49
1.25
 49
-2.5
  0
LTYPE
  2
DOT
 70
    64
  3
-   -   -   -   -   -   -   -   
 72
    65
 73
     2
 40
2.5
 49
0.625
 49
-1.875
  0
LTYPE
  2
DUMMY
 70
    64
  3
ダミー
 72
    65
 73
     0
 40
0.0
  0
LTYPE
  2
RAND1
 70
    64
  3
ランダム線1
 72
    65
 73
     4
 40
10.0
 49
1.0
 49
-2.0
 49
3.0
 49
-4.0
  0
LTYPE
  2
RAND2
 70
    64
  3
ランダム線2
 72
    65
 73
     4
 40
14.0
 49
2.0
 49
-3.0
 49
4.0
 49
-5.0
  0
LTYPE
  2
RAND3
 70
    64
  3
ランダム線3
 72
    65
 73
     4
 40
18.0
 49
3.0
 49
-4.0
 49
5.0
 49
-6.0
  0
LTYPE
  2
RAND4
 70
    64
  3
ランダム線4
 72
    65
 73
     4
 40
22.0
 49
4.0
 49
-5.0
 49
6.0
 49
-7.0
  0
LTYPE
  2
RAND5
 70
    64
  3
ランダム線5
 72
    65
 73
     4
 40
26.0
 49
5.0
 49
-6.0
 49
7.0
 49
-8.0
  0
LTYPE
  2
LONG1
 70
    64
  3
----------  --  ----------  --  
 72
    65
 73
     4
 40
40.0
 49
32.5
 49
-2.5
 49
2.5
 49
-2.5
  0
LTYPE
  2
LONG2
 70
    64
  3
--------  -  -  --------  -  -  
 72
    65
 73
     6
 40
40.0
 49
30.0
 49
-2.5
 49
1.25
 49
-2.5
 49
1.25
 49
-2.5
  0
LTYPE
  2
LONG3
 70
    64
  3
+++++++++++++++..+++++++++++++++
 72
    65
 73
     2
 40
40.0
 49
37.5
 49
-2.5
  0
LTYPE
  2
LONG4
 70
    64
  3
+++++++++++++++..+++++++++++++++
 72
    65
 73
     2
 40
80.0
 49
75.0
 49
-5.0
  0
LTYPE
  2
LONG5
 70
    64
  3
----------  --  ----------  --  
 72
    65
 73
     4
 40
60.0
 49
37.5
 49
-7.5
 49
7.5
 49
-7.5
  0
LTYPE
  2
dashed
 70
   64
  3
-------   -------------   ------
 72
   65
 73
    2
 40
7.5
 49
6
 49
-1.5
  0
LTYPE
  2
dashed_spaced
 70
   64
  3
----        --------        ----
 72
   65
 73
    2
 40
12
 49
6
 49
-6
  0
LTYPE
  2
long_dashed_dotted
 70
   64
  3
------------- --- --------------
 72
   65
 73
    4
 40
15.25
 49
12
 49
-1.5
 49
0.25
 49
-1.5
  0
LTYPE
  2
long_dashed_double-dotted
 70
   64
  3
----------- --- --- ------------
 72
   65
 73
    6
 40
17
 49
12
 49
-1.5
 49
0.25
 49
-1.5
 49
0.25
 49
-1.5
  0
LTYPE
  2
long_dashed_triplicate-dotted
 70
   64
  3
--------- --- --- --- ----------
 72
   65
 73
    8
 40
18.75
 49
12
 49
-1.5
 49
0.25
 49
-1.5
 49
0.25
 49
-1.5
 49
0.25
 49
-1.5
  0
LTYPE
  2
dotted
 70
   64
  3
   -       -       -       -    
 72
   65
 73
    2
 40
1.75
 49
0.25
 49
-1.5
  0
LTYPE
  2
chain
 70
   64
  3
-------------- -- --------------
 72
   65
 73
    4
 40
18.5
 49
12
 49
-1.5
 49
3.5
 49
-1.5
  0
LTYPE
  2
chain_double_dash
 70
   64
  3
------------ -- -- -------------
 72
   65
 73
    6
 40
23.5
 49
12
 49
-1.5
 49
3.5
 49
-1.5
 49
3.5
 49
-1.5
  0
LTYPE
  2
dashed_dotted
 70
   64
  3
-----------     -     ----------
 72
   65
 73
    4
 40
9.25
 49
6
 49
-1.5
 49
0.25
 49
-1.5
  0
LTYPE
  2
double-dashed_dotted
 70
   64
  3
------   -----------   -   -----
 72
   65
 73
    6
 40
16.75
 49
6
 49
-1.5
 49
6
 49
-1.5
 49
0.25
 49
-1.5
  0
LTYPE
  2
dashed_double-dotted
 70
   64
  3
---------    -    -    ---------
 72
   65
 73
    6
 40
11
 49
6
 49
-1.5
 49
0.25
 49
-1.5
 49
0.25
 49
-1.5
  0
LTYPE
  2
double-dashed_double-dotted
 70
   64
  3
-----   ---------   -   -   ----
 72
   65
 73
    8
 40
18.5
 49
6
 49
-1.5
 49
6
 49
-1.5
 49
0.25
 49
-1.5
 49
0.25
 49
-1.5
  0
LTYPE
  2
dashed_triplicate-dotted
 70
   64
  3
-------    -    -    -    ------
 72
   65
 73
    8
 40
12.75
 49
6
 49
-1.5
 49
0.25
 49
-1.5
 49
0.25
 49
-1.5
 49
0.25
 49
-1.5
  0
LTYPE
  2
double-dashed_triplicate-dotted
 70
   64
  3
-----  ---------  -  -  -  -----
 72
   65
 73
   10
 40
20.25
 49
6
 49
-1.5
 49
6
 49
-1.5
 49
0.25
 49
-1.5
 49
0.25
 49
-1.5
 49
0.25
 49
-1.5
  0
LTYPE
  2
undefined
 70
   64
  3
--------------------------------
 72
   65
 73
    0
 40
0
  0
LTYPE
  2
BORDER
 70
   64
  3
----     --------     -     ----
 72
   65
 73
    6
 40
1.76
 49
0.5
 49
-0.25
 49
0.5
 49
-0.25
 49
0.01
 49
-0.25
  0
LTYPE
  2
BORDER2
 70
   64
  3
----     --------     -     ----
 72
   65
 73
    6
 40
0.885
 49
0.25
 49
-0.125
 49
0.25
 49
-0.125
 49
0.01
 49
-0.125
  0
LTYPE
  2
BORDERX2
 70
   64
  3
----     --------     -     ----
 72
   65
 73
    6
 40
3.5099999999999998
 49
1
 49
-0.5
 49
1
 49
-0.5
 49
0.01
 49
-0.5
  0
LTYPE
  2
CENTER
 70
   64
  3
----------    ----    ----------
 72
   65
 73
    4
 40
2
 49
1.25
 49
-0.25
 49
0.25
 49
-0.25
  0
LTYPE
  2
CENTER2_21
 70
   64
  3
----------    ----    ----------
 72
   65
 73
    4
 40
1.125
 49
0.75
 49
-0.125
 49
0.125
 49
-0.125
  0
LTYPE
  2
CENTERX2
 70
   64
  3
----------    ----    ----------
 72
   65
 73
    4
 40
4
 49
2.5
 49
-0.5
 49
0.5
 49
-0.5
  0
LTYPE
  2
DASHDOT
 70
   64
  3
--------        -        -------
 72
   65
 73
    4
 40
1.01
 49
0.5
 49
-0.25
 49
0.01
 49
-0.25
  0
LTYPE
  2
DASHDOT2
 70
   64
  3
--------        -        -------
 72
   65
 73
    4
 40
0.51
 49
0.25
 49
-0.125
 49
0.01
 49
-0.125
  0
LTYPE
  2
DASHDOTX2
 70
   64
  3
--------        -        -------
 72
   65
 73
    4
 40
2.0099999999999998
 49
1
 49
-0.5
 49
0.01
 49
-0.5
  0
LTYPE
  2
DASHED
 70
   64
  3
------     -----------     -----
 72
   65
 73
    2
 40
0.75
 49
0.5
 49
-0.25
  0
LTYPE
  2
DASHED2_27
 70
   64
  3
------     -----------     -----
 72
   65
 73
    2
 40
0.375
 49
0.25
 49
-0.125
  0
LTYPE
  2
DASHEDX2
 70
   64
  3
------     -----------     -----
 72
   65
 73
    2
 40
1.5
 49
1
 49
-0.5
  0
LTYPE
  2
DIVIDE
 70
   64
  3
------      -      -      ------
 72
   65
 73
    6
 40
1.27
 49
0.5
 49
-0.25
 49
0.01
 49
-0.25
 49
0.01
 49
-0.25
  0
LTYPE
  2
DIVIDE2
 70
   64
  3
------      -      -      ------
 72
   65
 73
    6
 40
0.645
 49
0.25
 49
-0.125
 49
0.01
 49
-0.125
 49
0.01
 49
-0.125
  0
LTYPE
  2
DIVIDEX2
 70
   64
  3
------      -      -      ------
 72
   65
 73
    6
 40
2.5199999999999996
 49
1
 49
-0.5
 49
0.01
 49
-0.5
 49
0.01
 49
-0.5
  0
LTYPE
  2
DOT_32
 70
   64
  3
-               -               
 72
   65
 73
    2
 40
0.26
 49
0.01
 49
-0.25
  0
ENDTAB
  0
TABLE
  2
STYLE
  5
3
100
AcDbSymbolTable
 70
     1
  0
STYLE
  5
10
100
AcDbSymbolTableRecord
100
AcDbTextStyleTableRecord
  2
STANDARD
 70
     0
 40
0.0
 41
1.0
 50
0.0
 71
     0
 42
0.2
  3
txt
  4
bigfont.shx
  0
STYLE
  5
26
100
AcDbSymbolTableRecord
100
AcDbTextStyleTableRecord
  2
TATEGAKI
 70
    68
 40
0.0
 41
1.0
 50
0.0
 71
     0
 42
1.0
  3
txt
  4
bigfont.shx
  0
ENDTAB
  0
TABLE
  2
LAYER
 70
    2
  0
LAYER
  2
_0-0_0
 70
   64
 62
    7
  6
CONTINUOUS
  0
LAYER
  2
ADD_LINE
 70
   64
 62
    7
  6
CONTINUOUS
  0
ENDTAB
  0
ENDSEC
  0
SECTION
  2
BLOCKS
  0
ENDSEC
  0
SECTION
  2
ENTITIES
  0
ARC
  8
_0-0_0
  6
CONTINUOUS
 62
    7
 10
81.607763995313462
 20
48.260906291515084
 40
28.34248407049304
 50
146.90840560480891
 51
194.87554360480894
  0
ARC
  8
_0-0_0
  6
CONTINUOUS
 62
    7
 10
130.05638908677304
 20
61.570216762222202
 40
78.585298448377415
 50
195.1857846048089
 51
239.02053160480889
  0
ARC
  8
_0-0_0
  6
CONTINUOUS
 62
    7
 10
197.00530541966813
 20
27.484285126646185
 40
29.041191495954461
 50
116.155041604809
 51
165.5419186048089
  0
ARC
  8
_0-0_0
  6
CONTINUOUS
 62
    7
 10
160.50701915301732
 20
145.75615521146352
 40
95.200761911997731
 50
245.40750260480894
 51
284.41331260480899
  0
ARC
  8
_0-0_0
  6
CONTINUOUS
 62
    7
 10
131.81371759081867
 20
147.22104856676867
 40
24.438989499488699
 50
211.83341060480893
 51
264.98258560480906
  0
ARC
  8
_0-0_0
  6
CONTINUOUS
 62
    7
 10
134.94728987605276
 20
140.81424789485786
 40
28.254397324985462
 50
286.68204260480888
 51
329.4423046048089
  0
ARC
  8
_0-0_0
  6
CONTINUOUS
 62
    7
 10
138.65912490361137
 20
138.71999187313253
 40
25.355474278150631
 50
227.03872660480889
 51
279.99069760480887
  0
ARC
  8
_0-0_0
  6
CONTINUOUS
 62
    7
 10
137.18034361503607
 20
152.11597321002461
 40
34.994425574593727
 50
245.89807460480893
 51
290.77967760480897
  0
ARC
  8
_0-0_0
  6
CONTINUOUS
 62
    7
 10
154.38846110821919
 20
142.37782032547989
 40
14.599116076760691
 50
134.47606760480889
 51
178.28877060480889
  0
ARC
  8
_0-0_0
  6
CONTINUOUS
 62
    7
 10
134.62350321045835
 20
141.66484346181403
 40
7.0600655996823427
 50
327.76150460480892
 51
7.8118766048089334
  0
ARC
  8
_0-0_0
  6
CONTINUOUS
 62
    7
 10
142.27303168645545
 20
136.61778848546197
 40
17.429618634494719
 50
35.451793604808898
 51
66.976368604808954
  0
ARC
  8
_0-0_0
  6
CONTINUOUS
 62
    7
 10
136.38497737751436
 20
131.6664314076404
 40
25.10553746485321
 50
9.8599216048089158
 51
36.862828604808982
  0
ARC
  8
_0-0_0
  6
CONTINUOUS
 62
    7
 10
139.15449338168366
 20
133.52849759777581
 40
22.31478821399676
 50
3.0130946048089111
 51
62.440603604808935
  0
ARC
  8
_0-0_0
  6
CONTINUOUS
 62
    7
 10
167.38423668962872
 20
138.19804824336313
 40
26.143625470868979
 50
151.01222860480891
 51
170.2522476048089
  0
ARC
  8
_0-0_0
  6
CONTINUOUS
 62
    7
 10
147.92955321547475
 20
148.88617876250146
 40
3.9472587179572511
 50
72.904043604808905
 51
149.8650576048089
  0
ARC
  8
_0-0_0
  6
CONTINUOUS
 62
    7
 10
135.58274380538734
 20
141.39587723524477
 40
4.4453169857738439
 50
328.13183760480899
 51
18.60039260480897
  0
ARC
  8
_0-0_0
  6
CONTINUOUS
 62
    7
 10
147.23064535780748
 20
148.8179115544109
 40
5.0243906252444637
 50
63.419588604808894
 51
127.67030360480888
  0
ARC
  8
_0-0_0
  6
CONTINUOUS
 62
    7
 10
118.73806170748026
 20
154.1856913918447
 40
27.257996870680799
 50
284.22791460480903
 51
323.30804360480903
  0
ARC
  8
_0-0_0
  6
CONTINUOUS
 62
    7
 10
151.55315758446858
 20
132.88108168852392
 40
10.05148747253663
 50
320.21873560480901
 51
17.870258604808971
  0
ARC
  8
_0-0_0
  6
CONTINUOUS
 62
    7
 10
116.34230309559632
 20
157.61005944787814
 40
29.56750631981652
 50
287.014850604809
 51
321.11532060480903
  0
ARC
  8
_0-0_0
  6
CONTINUOUS
 62
    7
 10
124.43767035928261
 20
148.10243555934858
 40
25.764920198952112
 50
281.73145260480908
 51
5.3598246048090248
  0
ARC
  8
_0-0_0
  6
CONTINUOUS
 62
    7
 10
132.66561032682137
 20
142.04720296067143
 40
22.564723463003979
 50
218.14952960480889
 51
10.70429760480895
  0
ARC
  8
_0-0_0
  6
CONTINUOUS
 62
    7
 10
139.18018639242757
 20
135.74693459873612
 40
19.384799145915501
 50
302.49954460480888
 51
11.198953604808882
  0
ARC
  8
_0-0_0
  6
CONTINUOUS
 62
    7
 10
114.37891778074248
 20
136.60004080200315
 40
72.658636185237143
 50
357.40359660480902
 51
10.199109604808932
  0
ARC
  8
_0-0_0
  6
CONTINUOUS
 62
    7
 10
194.76925153879694
 20
132.77560266275822
 40
7.8244544421026596
 50
176.0941046048089
 51
289.74896160480904
  0
ARC
  8
_0-0_0
  6
CONTINUOUS
 62
    7
 10
125.96131967175097
 20
144.02105007010462
 40
16.265672531778431
 50
193.17215560480892
 51
268.15460060480905
  0
ARC
  8
_0-0_0
  6
CONTINUOUS
 62
    7
 10
146.72262491380354
 20
150.31604432949939
 40
39.38784254007934
 50
171.1402846048089
 51
229.95187060480899
  0
ARC
  8
_0-0_0
  6
CONTINUOUS
 62
    7
 10
126.48707772869352
 20
145.11145314515142
 40
15.845182722158
 50
196.65827460480889
 51
264.59428260480888
  0
ARC
  8
_0-0_0
  6
CONTINUOUS
 62
    7
 10
70.399721342587895
 20
47.172207123499021
 40
20.773046474115489
 50
127.12350560480898
 51
176.49910960480889
  0
ARC
  8
_0-0_0
  6
CONTINUOUS
 62
    7
 10
127.80880818092049
 20
186.83494654870691
 40
18.84015944449402
 50
83.967419604808995
 51
146.1050386048089
  0
ARC
  8
_0-0_0
  6
CONTINUOUS
 62
    7
 10
128.71855677855257
 20
189.3317777499667
 40
18.682985822260019
 50
87.770660604808938
 51
167.7948236048089
  0
ARC
  8
_0-0_0
  6
CONTINUOUS
 62
    7
 10
120.26518728368598
 20
225.66035160125512
 40
19.903288608047141
 50
297.46695160480891
 51
332.46062060480898
  0
ARC
  8
_0-0_0
  6
CONTINUOUS
 62
    7
 10
134.24695806116659
 20
154.14516387955831
 40
76.173163740606185
 50
61.470470604808931
 51
71.761899604808946
  0
ARC
  8
_0-0_0
  6
CONTINUOUS
 62
    7
 10
193.42203273727733
 20
214.84273416561649
 40
2.026152357839393
 50
296.23068760480891
 51
36.060554604808971
  0
ARC
  8
_0-0_0
  6
CONTINUOUS
 62
    7
 10
187.69496172061034
 20
235.23381653519874
 40
23.174978881195909
 50
240.43931860480893
 51
286.60458760480901
  0
ARC
  8
_0-0_0
  6
CONTINUOUS
 62
    7
 10
18.820012910966511
 20
-93.765428862328292
 40
346.65626087602362
 50
62.988302604808979
 51
65.936102604808994
  0
ARC
  8
_0-0_0
  6
CONTINUOUS
 62
    7
 10
189.51736955886324
 20
250.01012429189223
 40
42.841631835524581
 50
226.57614560480889
 51
274.49138360480902
  0
ARC
  8
_0-0_0
  6
CONTINUOUS
 62
    7
 10
183.33208739112214
 20
278.56021415584411
 40
71.895939122669205
 50
250.43351760480903
 51
277.625306604809
  0
ARC
  8
_0-0_0
  6
CONTINUOUS
 62
    7
 10
215.28058400735114
 20
177.46706381694582
 40
45.560577819720592
 50
154.56649560480889
 51
203.48715860480891
  0
ARC
  8
_0-0_0
  6
CONTINUOUS
 62
    7
 10
150.25529968107605
 20
138.6620692769572
 40
44.356476387545051
 50
15.700976604808961
 51
39.435706604808971
  0
ARC
  8
_0-0_0
  6
CONTINUOUS
 62
    7
 10
152.31464616125879
 20
144.64607080878289
 40
45.383635480071661
 50
7.5667956048089682
 51
32.668983604808872
  0
ARC
  8
_0-0_0
  6
CONTINUOUS
 62
    7
 10
158.25554882108725
 20
121.86588911953594
 40
54.845125874664198
 50
24.823568604809001
 51
34.686840604808992
  0
ARC
  8
_0-0_0
  6
CONTINUOUS
 62
    7
 10
197.71011448181383
 20
163.99239820944672
 40
6.834710042603179
 50
327.10133960480903
 51
52.044864604808936
  0
ARC
  8
_0-0_0
  6
CONTINUOUS
 62
    7
 10
208.67433493074765
 20
156.60903740070142
 40
6.3861740739693174
 50
144.91131260480904
 51
213.57028360480891
  0
ARC
  8
_0-0_0
  6
CONTINUOUS
 62
    7
 10
218.32541350741755
 20
158.82032823120755
 40
14.106611821302691
 50
159.85819660480891
 51
206.7617696048089
  0
ARC
  8
_0-0_0
  6
CONTINUOUS
 62
    7
 10
199.64517005439953
 20
166.25560839452123
 40
6.0165127458494387
 50
334.63118560480899
 51
75.742724604809013
  0
ARC
  8
_0-0_0
  6
CONTINUOUS
 62
    7
 10
207.58958579718885
 20
180.19659590358481
 40
12.21396772139172
 50
69.785488604809004
 51
242.30922660480897
  0
ARC
  8
_0-0_0
  6
CONTINUOUS
 62
    7
 10
209.36802587229124
 20
181.42521000141471
 40
12.45480114786452
 50
135.59468860480891
 51
228.5716266048089
  0
ARC
  8
_0-0_0
  6
CONTINUOUS
 62
    7
 10
183.82807683196745
 20
132.51726790200894
 40
71.988372248500198
 50
42.382004604808941
 51
85.647018604808963
  0
ARC
  8
_0-0_0
  6
CONTINUOUS
 62
    7
 10
208.27143833662765
 20
176.77011256428392
 40
19.32160964324677
 50
63.423467604808913
 51
203.24862460480892
  0
ARC
  8
_0-0_0
  6
CONTINUOUS
 62
    7
 10
203.17643411723455
 20
176.62056865719651
 40
21.071495055125801
 50
89.114213604808882
 51
207.66262060480889
  0
LINE
  8
_0-0_0
  6
CONTINUOUS
 62
    7
 10
203.50218019555743
 20
197.68953752170239
 11
185.99662267438595
 21
197.82230742475559
  0
ARC
  8
_0-0_0
  6
CONTINUOUS
 62
    7
 10
196.64907928403204
 20
177.94090945856243
 40
22.555383086213919
 50
118.18240560480891
 51
225.58845260480891
  0
ARC
  8
_0-0_0
  6
CONTINUOUS
 62
    7
 10
214.82140279098834
 20
223.79898116881071
 40
21.231769100538148
 50
146.72013860480894
 51
147.00727960480893
  0
ARC
  8
_0-0_0
  6
CONTINUOUS
 62
    7
 10
210.55499993421645
 20
225.31277823305163
 40
16.861973699232479
 50
110.7505866048089
 51
177.5037006048089
  0
ARC
  8
_0-0_0
  6
CONTINUOUS
 62
    7
 10
204.14875904557655
 20
226.95456437080111
 40
13.147047272650781
 50
15.860407604808902
 51
69.173749604809018
  0
ARC
  8
_0-0_0
  6
CONTINUOUS
 62
    7
 10
216.31186788420305
 20
218.60963846902479
 40
11.94772005416865
 50
9.8460156048089296
 51
87.68107560480901
  0
ARC
  8
_0-0_0
  6
CONTINUOUS
 62
    7
 10
217.18122838999713
 20
221.1997766227488
 40
12.566946676663211
 50
4.4116716048089764
 51
83.459281604808965
  0
ARC
  8
_0-0_0
  6
CONTINUOUS
 62
    7
 10
205.60650679510684
 20
229.10774699331432
 40
10.633031908379699
 50
72.392216604808951
 51
143.38626860480889
  0
ARC
  8
_0-0_0
  6
CONTINUOUS
 62
    7
 10
206.69758799380133
 20
228.08814151522853
 40
13.164116807323911
 50
25.16040660480899
 51
99.253383604808946
  0
ARC
  8
_0-0_0
  6
CONTINUOUS
 62
    7
 10
279.71836865211606
 20
225.73854505601571
 40
51.884619851197051
 50
185.6252796048089
 51
212.91583560480899
  0
ARC
  8
_0-0_0
  6
CONTINUOUS
 62
    7
 10
186.31544081526533
 20
242.56105274518933
 40
26.608495757781512
 50
233.87427760480892
 51
288.17499860480893
  0
ARC
  8
_0-0_0
  6
CONTINUOUS
 62
    7
 10
313.66826938072234
 20
233.82628729868139
 40
84.763082474642331
 50
187.90655860480894
 51
209.47754160480903
  0
ARC
  8
_0-0_0
  6
CONTINUOUS
 62
    7
 10
214.82140279098834
 20
223.79898116881071
 40
21.231769100538148
 50
173.92158660480888
 51
201.448118604809
  0
ARC
  8
_0-0_0
  6
CONTINUOUS
 62
    7
 10
297.04528333577923
 20
244.27266474223569
 40
82.494537875144843
 50
190.5998796048089
 51
221.76144960480892
  0
ARC
  8
_0-0_0
  6
CONTINUOUS
 62
    7
 10
257.51255922386736
 20
237.28926805252371
 40
52.76641336607176
 50
185.6250396048089
 51
245.35663160480902
  0
ARC
  8
_0-0_0
  6
CONTINUOUS
 62
    7
 10
237.05243471801015
 20
235.30308040049891
 40
41.269213582656917
 50
193.76128360480891
 51
242.949522604809
  0
ARC
  8
_0-0_0
  6
CONTINUOUS
 62
    7
 10
125.8664229705771
 20
220.6648292222647
 40
15.595364794915859
 50
284.56681460480888
 51
340.03012260480892
  0
ARC
  8
_0-0_0
  6
CONTINUOUS
 62
    7
 10
154.64056200321346
 20
207.69106032423292
 40
16.054893812937131
 50
69.851003604808966
 51
151.5535626048088
  0
ARC
  8
_0-0_0
  6
CONTINUOUS
 62
    7
 10
154.19150810385383
 20
209.0264464529227
 40
17.894331710242049
 50
77.427704604808994
 51
155.46196060480901
  0
ARC
  8
_0-0_0
  6
CONTINUOUS
 62
    7
 10
122.79297521785338
 20
200.3260048508136
 40
18.29063602906507
 50
257.14443160480897
 51
301.69352760480888
  0
ARC
  8
_0-0_0
  6
CONTINUOUS
 62
    7
 10
151.72920825143399
 20
246.21564092926263
 40
48.890996239884878
 50
239.45308060480903
 51
265.43189660480891
  0
ARC
  8
_0-0_0
  6
CONTINUOUS
 62
    7
 10
163.00064998910125
 20
230.51528186788909
 40
36.349962030400953
 50
220.68337260480894
 51
245.341871604809
  0
LINE
  8
_0-0_0
  6
CONTINUOUS
 62
    7
 10
246.54851059785284
 20
311.95297508170142
 11
247.75177249548005
 21
311.54352246588371
  0
LINE
  8
_0-0_0
  6
CONTINUOUS
 62
    7
 10
237.51161174085564
 20
305.20127972916322
 11
248.65014252730174
 21
301.25660978710641
  0
ARC
  8
_0-0_0
  6
CONTINUOUS
 62
    7
 10
193.97692716025995
 20
173.35741671088002
 40
148.23123372115629
 50
69.227434604808963
 51
163.2353496048089
  0
ARC
  8
_0-0_0
  6
CONTINUOUS
 62
    7
 10
193.97692716025995
 20
173.35741671088002
 40
138.84550424743259
 50
71.726846604808884
 51
163.3100206048089
  0
ARC
  8
_0-0_0
  6
CONTINUOUS
 62
    7
 10
171.63551588625484
 20
175.01584348230492
 40
126.4543118320107
 50
161.03447060480889
 51
246.33989160480903
  0
ARC
  8
_0-0_0
  6
CONTINUOUS
 62
    7
 10
171.63551588625484
 20
175.01584348230492
 40
117.0685831404322
 50
160.9465566048089
 51
246.37751960480892
  0
ARC
  8
_0-0_0
  6
CONTINUOUS
 62
    7
 10
191.77049822062733
 20
141.12254606297006
 40
16.693717080924511
 50
289.75564060480906
 51
13.047393604809024
  0
ARC
  8
_0-0_0
  6
CONTINUOUS
 62
    7
 10
178.75400136882425
 20
146.54641705909523
 40
7.7095103981344026
 50
22.250486604808945
 51
81.958251604808879
  0
ARC
  8
_0-0_0
  6
CONTINUOUS
 62
    7
 10
180.37269070123483
 20
161.32780028377692
 40
7.1680673237386374
 50
196.35638360480894
 51
265.67819960480904
  0
ARC
  8
_0-0_0
  6
CONTINUOUS
 62
    7
 10
121.71005603328422
 20
191.48903703101752
 40
11.19191447208113
 50
148.47128960480893
 51
251.24605060480903
  0
ARC
  8
_0-0_0
  6
CONTINUOUS
 62
    7
 10
148.94947565722629
 20
153.7457029747689
 40
41.083428310501823
 50
138.64335760480901
 51
199.08230460480891
  0
ARC
  8
_0-0_0
  6
CONTINUOUS
 62
    7
 10
151.01929194052457
 20
154.13562106768802
 40
41.965713012499663
 50
140.70541860480884
 51
198.86099260480893
  0
ARC
  8
_0-0_0
  6
CONTINUOUS
 62
    7
 10
195.48416849366805
 20
124.21427409042563
 40
75.884298783512193
 50
106.33967760480901
 51
175.08927960480889
  0
ARC
  8
_0-0_0
  6
CONTINUOUS
 62
    7
 10
192.57497990523834
 20
142.03727191237954
 40
16.788611617386771
 50
301.57436860480902
 51
38.412626604808914
  0
ARC
  8
_0-0_0
  6
CONTINUOUS
 62
    7
 10
192.92577512195143
 20
127.48204369402679
 40
76.901829669851736
 50
92.708313604808893
 51
175.18938260480894
  0
ARC
  8
_0-0_0
  6
CONTINUOUS
 62
    7
 10
185.30552366333254
 20
135.03854200625437
 40
70.279626104616838
 50
55.989134604808932
 51
178.5528616048089
  0
ARC
  8
_0-0_0
  6
CONTINUOUS
 62
    7
 10
154.93133617595214
 20
147.61557710901769
 40
43.445210863138712
 50
121.2356646048089
 51
187.83750860480893
  0
ARC
  8
_0-0_0
  6
CONTINUOUS
 62
    7
 10
220.05146494551985
 20
149.76329138838128
 40
22.764595168418928
 50
177.83751760480888
 51
226.12188360480889
  0
ARC
  8
_0-0_0
  6
CONTINUOUS
 62
    7
 10
275.3356080647668
 20
151.68599486088607
 40
82.385211197288328
 50
180.70960860480903
 51
195.28510860480901
  0
ARC
  8
_0-0_0
  6
CONTINUOUS
 62
    7
 10
178.99015163902735
 20
21.556181076705826
 40
60.53680202810294
 50
261.83774160480903
 51
323.56259160480897
  0
ARC
  8
_0-0_0
  6
CONTINUOUS
 62
    7
 10
190.44713250834093
 20
25.719979266119253
 40
11.619760356371691
 50
315.52190160480899
 51
65.349990604809008
  0
ARC
  8
_0-0_0
  6
CONTINUOUS
 62
    7
 10
184.55345658153146
 20
26.356671749215707
 40
14.6231615635851
 50
347.77995560480889
 51
42.739195604808906
  0
ARC
  8
_0-0_0
  6
CONTINUOUS
 62
    7
 10
197.00530541966813
 20
27.484285126646185
 40
29.041191495954461
 50
69.770789604808954
 51
98.145116604808962
  0
ARC
  8
_0-0_0
  6
CONTINUOUS
 62
    7
 10
190.20444846897644
 20
12.664949763616448
 40
41.153173753402868
 50
340.58824460480906
 51
67.250695604808982
  0
ARC
  8
_0-0_0
  6
CONTINUOUS
 62
    7
 10
192.83861791192774
 20
12.841675360341753
 40
44.236367057333148
 50
321.98954360480889
 51
71.264879604808996
  0
ARC
  8
_0-0_0
  6
CONTINUOUS
 62
    7
 10
176.47539981931226
 20
22.930358143057759
 40
57.74088592671265
 50
273.63467360480888
 51
335.50207660480891
  0
ARC
  8
_0-0_0
  6
CONTINUOUS
 62
    7
 10
191.75513398556083
 20
154.3151982184358
 40
191.8009018591205
 50
270.18206060480901
 51
306.52924660480892
  0
ARC
  8
_0-0_0
  6
CONTINUOUS
 62
    7
 10
160.50701915301732
 20
145.75615521146352
 40
95.200761911997731
 50
289.886766604809
 51
8.1649556048089487
  0
ARC
  8
_0-0_0
  6
CONTINUOUS
 62
    7
 10
191.30108873803843
 20
156.0176400977158
 40
202.82452967519581
 50
237.04197710196314
 51
306.46965579106455
  0
ARC
  8
_0-0_0
  6
CONTINUOUS
 62
    7
 10
186.47505880580204
 20
133.44990409181992
 40
178.95482245684869
 50
311.87182060480899
 51
69.669511604809031
  0
ARC
  8
_0-0_0
  6
CONTINUOUS
 62
    7
 10
186.47505880580204
 20
133.44990409181992
 40
188.34056366274879
 50
311.73849560480903
 51
71.013173604809026
  0
ARC
  8
_0-0_0
  6
CONTINUOUS
 62
    7
 10
160.50701915301732
 20
145.75615521146352
 40
85.815026963258404
 50
245.35686360480904
 51
8.4364286048090431
  0
ARC
  8
_0-0_0
  6
CONTINUOUS
 62
    7
 10
200.48309838418464
 20
146.65445622998641
 40
46.407313244755969
 50
14.592259604808969
 51
75.872853604808981
  0
ARC
  8
_0-0_0
  6
CONTINUOUS
 62
    7
 10
137.30620514915739
 20
125.90185435646806
 40
122.0870169485913
 50
15.864956604808951
 51
35.93116360480893
  0
ARC
  8
_0-0_0
  6
CONTINUOUS
 62
    7
 10
186.67414007409656
 20
31.139227183551725
 40
18.150064218734109
 50
168.5731896048089
 51
311.65748960480897
  0
ARC
  8
_0-0_0
  6
CONTINUOUS
 62
    7
 10
188.67053089503653
 20
148.34046865608656
 40
183.23371773672039
 50
237.27243360480901
 51
267.33030660480892
  0
ARC
  8
_0-0_0
  6
CONTINUOUS
 62
    7
 10
197.90953819609075
 20
25.593736941339614
 40
26.334957716076751
 50
71.837768604808929
 51
148.50101460480889
  0
ARC
  8
_0-0_0
  6
CONTINUOUS
 62
    7
 10
187.89790316113235
 20
32.394230914249405
 40
14.256685912459529
 50
150.78243460480891
 51
320.16361560480908
  0
ARC
  8
_0-0_0
  6
CONTINUOUS
 62
    7
 10
120.79198288987993
 20
49.387816944597006
 40
75.004893843304274
 50
207.4269559457411
 51
237.92262883986081
  0
ARC
  8
_0-0_0
  6
CONTINUOUS
 62
    7
 10
133.8244904146903
 20
42.733391711948215
 40
84.352350154056737
 50
176.120388839264
 51
199.3104142338195
  0
ARC
  8
_0-0_0
  6
CONTINUOUS
 62
    7
 10
202.78039360211528
 20
373.18698663363682
 40
37.313205007460468
 50
100.68098406136627
 51
174.49213806136626
  0
ARC
  8
_0-0_0
  6
CONTINUOUS
 62
    7
 10
202.78039360211528
 20
373.18698663363682
 40
34.184624605493752
 50
100.38851506136625
 51
174.42821006136626
  0
ARC
  8
_0-0_0
  6
CONTINUOUS
 62
    7
 10
245.12943923553152
 20
399.59166496404123
 40
83.422706337317933
 50
229.50056106136631
 51
265.45047006136639
  0
LINE
  8
_0-0_0
  6
CONTINUOUS
 62
    7
 10
238.51228208606898
 20
316.43181126362163
 11
232.36443581185341
 21
315.71387609437818
  0
ARC
  8
_0-0_0
  6
CONTINUOUS
 62
    7
 10
202.58740791354006
 20
387.82834006959871
 40
23.02849014317972
 50
15.276278061366265
 51
106.97341206136626
  0
ARC
  8
_0-0_0
  6
CONTINUOUS
 62
    7
 10
202.58740791354006
 20
387.82834006959871
 40
19.899910523358113
 50
16.183723061366258
 51
107.46146306136626
  0
ARC
  8
_0-0_0
  6
CONTINUOUS
 62
    7
 10
216.45832725300579
 20
391.77085234843304
 40
8.6102122708135074
 50
209.17490206136631
 51
14.287471061366318
  0
ARC
  8
_0-0_0
  6
CONTINUOUS
 62
    7
 10
214.65319895283227
 20
391.93975044550268
 40
7.1902067229531559
 50
217.39019906136633
 51
11.512693061366292
  0
ARC
  8
_0-0_0
  6
CONTINUOUS
 62
    7
 10
245.12943923553152
 20
399.59166496404123
 40
86.551286739284635
 50
229.51586106136625
 51
238.64378006136627
  0
ARC
  8
_0-0_0
  6
CONTINUOUS
 62
    7
 10
242.81341460035651
 20
398.72466654495349
 40
84.396731184587722
 50
210.96613306136626
 51
230.32963706136633
  0
ARC
  8
_0-0_0
  6
CONTINUOUS
 62
    7
 10
242.81341460035651
 20
398.72466654495349
 40
81.268141396879813
 50
210.99768806136612
 51
230.34523706136622
  0
ARC
  8
_0-0_0
  6
CONTINUOUS
 62
    7
 10
203.76190502609481
 20
374.03065647648765
 40
38.220620031537088
 50
175.89239206136625
 51
209.34513706136624
  0
ARC
  8
_0-0_0
  6
CONTINUOUS
 62
    7
 10
203.76190502609481
 20
374.03065647648765
 40
35.092037283135085
 50
175.95496206136627
 51
209.2736660613663
  0
ARC
  8
_0-0_0
  6
CONTINUOUS
 62
    7
 10
304.60675670944738
 20
-74.017779333522753
 40
37.313205007460468
 50
309.26413172183817
 51
23.075285721838167
  0
ARC
  8
_0-0_0
  6
CONTINUOUS
 62
    7
 10
304.60675670944738
 20
-74.017779333522753
 40
34.184624605493752
 50
308.97166272183813
 51
23.011357721838159
  0
ARC
  8
_0-0_0
  6
CONTINUOUS
 62
    7
 10
280.05193983985509
 20
-117.46556031591683
 40
83.422706337317933
 50
78.083708721838164
 51
114.03361772183821
  0
LINE
  8
_0-0_0
  6
CONTINUOUS
 62
    7
 10
246.07615464353282
 20
-41.27504872484505
 11
251.13124006753165
 21
-37.703276605196663
  0
ARC
  8
_0-0_0
  6
CONTINUOUS
 62
    7
 10
311.78113741450528
 20
-86.782368453883862
 40
23.02849014317972
 50
223.85942572183814
 51
315.55655972183814
  0
ARC
  8
_0-0_0
  6
CONTINUOUS
 62
    7
 10
311.78113741450528
 20
-86.782368453883862
 40
19.899910523358113
 50
224.76687072183813
 51
316.04461072183813
  0
ARC
  8
_0-0_0
  6
CONTINUOUS
 62
    7
 10
301.48698425434105
 20
-96.880695894891346
 40
8.6102122708135074
 50
57.758049721838198
 51
222.87061872183818
  0
ARC
  8
_0-0_0
  6
CONTINUOUS
 62
    7
 10
303.15291678270125
 20
-96.165375296675052
 40
7.1902067229531559
 50
65.973346721838197
 51
220.09584072183816
  0
ARC
  8
_0-0_0
  6
CONTINUOUS
 62
    7
 10
280.05193983985509
 20
-117.46556031591683
 40
86.551286739284635
 50
78.09900872183816
 51
87.22692772183818
  0
ARC
  8
_0-0_0
  6
CONTINUOUS
 62
    7
 10
281.67089486935754
 20
-115.59616442903609
 40
84.396731184587722
 50
59.549280721838144
 51
78.912784721838179
  0
ARC
  8
_0-0_0
  6
CONTINUOUS
 62
    7
 10
281.67089486935754
 20
-115.59616442903609
 40
81.268141396879813
 50
59.580835721838007
 51
78.928384721838086
  0
ARC
  8
_0-0_0
  6
CONTINUOUS
 62
    7
 10
304.14850823007441
 20
-75.228213887842259
 40
38.220620031537088
 50
24.475539721838128
 51
57.928284721838125
  0
ARC
  8
_0-0_0
  6
CONTINUOUS
 62
    7
 10
304.14850823007441
 20
-75.228213887842259
 40
35.092037283135085
 50
24.538109721838161
 51
57.856813721838193
  0
LINE
  8
_0-0_0
  6
CONTINUOUS
 62
    7
 10
272.72502630474025
 20
-29.745467728080001
 11
284.23932717803052
 21
-31.015626470658589
  0
LINE
  8
_0-0_0
  6
CONTINUOUS
 62
    7
 10
206.75492497644686
 20
321.03687168788616
 11
200.09184220538461
 21
325.68131299410709
  0
ENDSEC
  0
EOF
