  0
SECTION
  2
HEADER
  9
$ACADVER
  1
AC1009
  9
$INSBASE
 10
0
 20
0
 30
0
  9
$EXTMIN
 10
0
 20
0
  9
$EXTMAX
 10
420
 20
297
  9
$LIMMIN
 10
0
 20
0
  9
$LIMMAX
 10
420
 20
297
  9
$LTSCALE
 40
1
  0
ENDSEC
  0
SECTION
  2
TABLES
  0
TABLE
  2
LTYPE
 70
     9
  0
LTYPE
  2
CONTINUOUS
 70
    64
  3
実線
 72
    65
 73
     0
 40
0.0
  0
LTYPE
  2
DASHED1
 70
    64
  3
--  --  --  --  --  --  --  --  
 72
    65
 73
     2
 40
2.5
 49
1.25
 49
-1.25
  0
LTYPE
  2
DASHED2
 70
    64
  3
----    ----    ----    ----    
 72
    65
 73
     2
 40
5.0
 49
2.5
 49
-2.5
  0
LTYPE
  2
DASHED3
 70
    64
  3
------  ------  ------  ------  
 72
    65
 73
     2
 40
5.0
 49
3.75
 49
-1.25
  0
LTYPE
  2
CENTER1
 70
    64
  3
----- - ----- - ----- - ----- - 
 72
    65
 73
     4
 40
10.0
 49
6.25
 49
-1.25
 49
1.25
 49
-1.25
  0
LTYPE
  2
CENTER2
 70
    64
  3
----------  --  ----------  --  
 72
    65
 73
     4
 40
20.0
 49
12.5
 49
-2.5
 49
2.5
 49
-2.5
  0
LTYPE
  2
PHANTOM1
 70
    64
  3
--- - - --- - - --- - - --- - - 
 72
    65
 73
     6
 40
10.0
 49
3.25
 49
-1.25
 49
1.25
 49
-1.25
 49
1.25
 49
-1.25
  0
LTYPE
  2
PHANTOM2
 70
    64
  3
--------  -  -  --------  -  -  
 72
    65
 73
     6
 40
20.0
 49
10.0
 49
-2.5
 49
1.25
 49
-2.5
 49
1.25
 49
-2.5
  0
LTYPE
  2
DOT
 70
    64
  3
-   -   -   -   -   -   -   -   
 72
    65
 73
     2
 40
2.5
 49
0.625
 49
-1.875
  0
LTYPE
  2
DUMMY
 70
    64
  3
ダミー
 72
    65
 73
     0
 40
0.0
  0
LTYPE
  2
RAND1
 70
    64
  3
ランダム線1
 72
    65
 73
     4
 40
10.0
 49
1.0
 49
-2.0
 49
3.0
 49
-4.0
  0
LTYPE
  2
RAND2
 70
    64
  3
ランダム線2
 72
    65
 73
     4
 40
14.0
 49
2.0
 49
-3.0
 49
4.0
 49
-5.0
  0
LTYPE
  2
RAND3
 70
    64
  3
ランダム線3
 72
    65
 73
     4
 40
18.0
 49
3.0
 49
-4.0
 49
5.0
 49
-6.0
  0
LTYPE
  2
RAND4
 70
    64
  3
ランダム線4
 72
    65
 73
     4
 40
22.0
 49
4.0
 49
-5.0
 49
6.0
 49
-7.0
  0
LTYPE
  2
RAND5
 70
    64
  3
ランダム線5
 72
    65
 73
     4
 40
26.0
 49
5.0
 49
-6.0
 49
7.0
 49
-8.0
  0
LTYPE
  2
LONG1
 70
    64
  3
----------  --  ----------  --  
 72
    65
 73
     4
 40
40.0
 49
32.5
 49
-2.5
 49
2.5
 49
-2.5
  0
LTYPE
  2
LONG2
 70
    64
  3
--------  -  -  --------  -  -  
 72
    65
 73
     6
 40
40.0
 49
30.0
 49
-2.5
 49
1.25
 49
-2.5
 49
1.25
 49
-2.5
  0
LTYPE
  2
LONG3
 70
    64
  3
+++++++++++++++..+++++++++++++++
 72
    65
 73
     2
 40
40.0
 49
37.5
 49
-2.5
  0
LTYPE
  2
LONG4
 70
    64
  3
+++++++++++++++..+++++++++++++++
 72
    65
 73
     2
 40
80.0
 49
75.0
 49
-5.0
  0
LTYPE
  2
LONG5
 70
    64
  3
----------  --  ----------  --  
 72
    65
 73
     4
 40
60.0
 49
37.5
 49
-7.5
 49
7.5
 49
-7.5
  0
LTYPE
  2
dashed
 70
   64
  3
-------   -------------   ------
 72
   65
 73
    2
 40
7.5
 49
6
 49
-1.5
  0
LTYPE
  2
dashed_spaced
 70
   64
  3
----        --------        ----
 72
   65
 73
    2
 40
12
 49
6
 49
-6
  0
LTYPE
  2
long_dashed_dotted
 70
   64
  3
------------- --- --------------
 72
   65
 73
    4
 40
15.25
 49
12
 49
-1.5
 49
0.25
 49
-1.5
  0
LTYPE
  2
long_dashed_double-dotted
 70
   64
  3
----------- --- --- ------------
 72
   65
 73
    6
 40
17
 49
12
 49
-1.5
 49
0.25
 49
-1.5
 49
0.25
 49
-1.5
  0
LTYPE
  2
long_dashed_triplicate-dotted
 70
   64
  3
--------- --- --- --- ----------
 72
   65
 73
    8
 40
18.75
 49
12
 49
-1.5
 49
0.25
 49
-1.5
 49
0.25
 49
-1.5
 49
0.25
 49
-1.5
  0
LTYPE
  2
dotted
 70
   64
  3
   -       -       -       -    
 72
   65
 73
    2
 40
1.75
 49
0.25
 49
-1.5
  0
LTYPE
  2
chain
 70
   64
  3
-------------- -- --------------
 72
   65
 73
    4
 40
18.5
 49
12
 49
-1.5
 49
3.5
 49
-1.5
  0
LTYPE
  2
chain_double_dash
 70
   64
  3
------------ -- -- -------------
 72
   65
 73
    6
 40
23.5
 49
12
 49
-1.5
 49
3.5
 49
-1.5
 49
3.5
 49
-1.5
  0
LTYPE
  2
dashed_dotted
 70
   64
  3
-----------     -     ----------
 72
   65
 73
    4
 40
9.25
 49
6
 49
-1.5
 49
0.25
 49
-1.5
  0
LTYPE
  2
double-dashed_dotted
 70
   64
  3
------   -----------   -   -----
 72
   65
 73
    6
 40
16.75
 49
6
 49
-1.5
 49
6
 49
-1.5
 49
0.25
 49
-1.5
  0
LTYPE
  2
dashed_double-dotted
 70
   64
  3
---------    -    -    ---------
 72
   65
 73
    6
 40
11
 49
6
 49
-1.5
 49
0.25
 49
-1.5
 49
0.25
 49
-1.5
  0
LTYPE
  2
double-dashed_double-dotted
 70
   64
  3
-----   ---------   -   -   ----
 72
   65
 73
    8
 40
18.5
 49
6
 49
-1.5
 49
6
 49
-1.5
 49
0.25
 49
-1.5
 49
0.25
 49
-1.5
  0
LTYPE
  2
dashed_triplicate-dotted
 70
   64
  3
-------    -    -    -    ------
 72
   65
 73
    8
 40
12.75
 49
6
 49
-1.5
 49
0.25
 49
-1.5
 49
0.25
 49
-1.5
 49
0.25
 49
-1.5
  0
LTYPE
  2
double-dashed_triplicate-dotted
 70
   64
  3
-----  ---------  -  -  -  -----
 72
   65
 73
   10
 40
20.25
 49
6
 49
-1.5
 49
6
 49
-1.5
 49
0.25
 49
-1.5
 49
0.25
 49
-1.5
 49
0.25
 49
-1.5
  0
LTYPE
  2
undefined
 70
   64
  3
--------------------------------
 72
   65
 73
    0
 40
0
  0
LTYPE
  2
BORDER
 70
   64
  3
----     --------     -     ----
 72
   65
 73
    6
 40
1.76
 49
0.5
 49
-0.25
 49
0.5
 49
-0.25
 49
0.01
 49
-0.25
  0
LTYPE
  2
BORDER2
 70
   64
  3
----     --------     -     ----
 72
   65
 73
    6
 40
0.885
 49
0.25
 49
-0.125
 49
0.25
 49
-0.125
 49
0.01
 49
-0.125
  0
LTYPE
  2
BORDERX2
 70
   64
  3
----     --------     -     ----
 72
   65
 73
    6
 40
3.5099999999999998
 49
1
 49
-0.5
 49
1
 49
-0.5
 49
0.01
 49
-0.5
  0
LTYPE
  2
CENTER
 70
   64
  3
----------    ----    ----------
 72
   65
 73
    4
 40
2
 49
1.25
 49
-0.25
 49
0.25
 49
-0.25
  0
LTYPE
  2
CENTER2_21
 70
   64
  3
----------    ----    ----------
 72
   65
 73
    4
 40
1.125
 49
0.75
 49
-0.125
 49
0.125
 49
-0.125
  0
LTYPE
  2
CENTERX2
 70
   64
  3
----------    ----    ----------
 72
   65
 73
    4
 40
4
 49
2.5
 49
-0.5
 49
0.5
 49
-0.5
  0
LTYPE
  2
DASHDOT
 70
   64
  3
--------        -        -------
 72
   65
 73
    4
 40
1.01
 49
0.5
 49
-0.25
 49
0.01
 49
-0.25
  0
LTYPE
  2
DASHDOT2
 70
   64
  3
--------        -        -------
 72
   65
 73
    4
 40
0.51
 49
0.25
 49
-0.125
 49
0.01
 49
-0.125
  0
LTYPE
  2
DASHDOTX2
 70
   64
  3
--------        -        -------
 72
   65
 73
    4
 40
2.0099999999999998
 49
1
 49
-0.5
 49
0.01
 49
-0.5
  0
LTYPE
  2
DASHED
 70
   64
  3
------     -----------     -----
 72
   65
 73
    2
 40
0.75
 49
0.5
 49
-0.25
  0
LTYPE
  2
DASHED2_27
 70
   64
  3
------     -----------     -----
 72
   65
 73
    2
 40
0.375
 49
0.25
 49
-0.125
  0
LTYPE
  2
DASHEDX2
 70
   64
  3
------     -----------     -----
 72
   65
 73
    2
 40
1.5
 49
1
 49
-0.5
  0
LTYPE
  2
DIVIDE
 70
   64
  3
------      -      -      ------
 72
   65
 73
    6
 40
1.27
 49
0.5
 49
-0.25
 49
0.01
 49
-0.25
 49
0.01
 49
-0.25
  0
LTYPE
  2
DIVIDE2
 70
   64
  3
------      -      -      ------
 72
   65
 73
    6
 40
0.645
 49
0.25
 49
-0.125
 49
0.01
 49
-0.125
 49
0.01
 49
-0.125
  0
LTYPE
  2
DIVIDEX2
 70
   64
  3
------      -      -      ------
 72
   65
 73
    6
 40
2.5199999999999996
 49
1
 49
-0.5
 49
0.01
 49
-0.5
 49
0.01
 49
-0.5
  0
LTYPE
  2
DOT_32
 70
   64
  3
-               -               
 72
   65
 73
    2
 40
0.26
 49
0.01
 49
-0.25
  0
ENDTAB
  0
TABLE
  2
STYLE
  5
3
100
AcDbSymbolTable
 70
     1
  0
STYLE
  5
10
100
AcDbSymbolTableRecord
100
AcDbTextStyleTableRecord
  2
STANDARD
 70
     0
 40
0.0
 41
1.0
 50
0.0
 71
     0
 42
0.2
  3
txt
  4
bigfont.shx
  0
STYLE
  5
26
100
AcDbSymbolTableRecord
100
AcDbTextStyleTableRecord
  2
TATEGAKI
 70
    68
 40
0.0
 41
1.0
 50
0.0
 71
     0
 42
1.0
  3
txt
  4
bigfont.shx
  0
ENDTAB
  0
TABLE
  2
LAYER
 70
    2
  0
LAYER
  2
_0-0_0
 70
   64
 62
    7
  6
CONTINUOUS
  0
LAYER
  2
ADD_LINE
 70
   64
 62
    7
  6
CONTINUOUS
  0
ENDTAB
  0
ENDSEC
  0
SECTION
  2
BLOCKS
  0
ENDSEC
  0
SECTION
  2
ENTITIES
  0
ARC
  8
_0-0_0
  6
CONTINUOUS
 62
    7
 10
560.11577377156527
 20
191.0410901204111
 40
47.571759517683361
 50
50.507041309977005
 51
113.71610930928743
  0
ARC
  8
_0-0_0
  6
CONTINUOUS
 62
    7
 10
555.08174771342647
 20
183.56670150254612
 40
54.261871752530482
 50
38.384605630680198
 51
72.231858376808304
  0
ARC
  8
_0-0_0
  6
CONTINUOUS
 62
    7
 10
560.68175995540923
 20
175.16918531169514
 40
61.06249375118891
 50
79.661136584422849
 51
124.15999082109184
  0
ARC
  8
_0-0_0
  6
CONTINUOUS
 62
    7
 10
556.99125526958051
 20
185.54461417879324
 40
48.858454155338869
 50
25.022339937607757
 51
75.20550218341414
  0
ARC
  8
_0-0_0
  6
CONTINUOUS
 62
    7
 10
554.52997641352431
 20
184.29166134936204
 40
48.036555962733523
 50
14.507200288427747
 51
67.403317049886738
  0
ARC
  8
_0-0_0
  6
CONTINUOUS
 62
    7
 10
577.53121926980816
 20
139.47305222599979
 40
101.9001966415138
 50
111.07028715675807
 51
128.79280292875526
  0
ARC
  8
_0-0_0
  6
CONTINUOUS
 62
    7
 10
631.03539842400778
 20
182.21534025721022
 40
9.6590860259182101
 50
276.60960599618681
 51
337.34044820505653
  0
ARC
  8
_0-0_0
  6
CONTINUOUS
 62
    7
 10
632.08845004931595
 20
192.20149459055969
 40
19.581129186985581
 50
184.56444067242566
 51
270.17189189704891
  0
ARC
  8
_0-0_0
  6
CONTINUOUS
 62
    7
 10
629.37196027173604
 20
188.43123646288032
 40
18.558439272386849
 50
185.29285468316047
 51
307.80400171738137
  0
ARC
  8
_0-0_0
  6
CONTINUOUS
 62
    7
 10
564.49986037580152
 20
185.78820972408036
 40
42.055508290963623
 50
354.35550449958077
 51
29.051772099483994
  0
ARC
  8
_0-0_0
  6
CONTINUOUS
 62
    7
 10
536.52466255664967
 20
172.54505175137146
 40
75.70671400694178
 50
10.790917738150132
 51
36.201922370456927
  0
ARC
  8
_0-0_0
  6
CONTINUOUS
 62
    7
 10
562.24854799409309
 20
195.09611802866945
 40
29.75159200411025
 50
0.4342936885637044
 51
67.81664172357894
  0
ARC
  8
_0-0_0
  6
CONTINUOUS
 62
    7
 10
552.80590162295675
 20
180.08599153834766
 40
60.688826345738867
 50
10.017953419750127
 51
51.719251525227357
  0
ARC
  8
_0-0_0
  6
CONTINUOUS
 62
    7
 10
580.72038013624774
 20
188.16146937004245
 40
21.893447394723001
 50
340.80458674845266
 51
21.89278226893985
  0
ARC
  8
_0-0_0
  6
CONTINUOUS
 62
    7
 10
564.24518798113309
 20
205.36969170575483
 40
12.45906913386801
 50
27.018248803984626
 51
71.60206508427413
  0
ARC
  8
_0-0_0
  6
CONTINUOUS
 62
    7
 10
568.8996772232706
 20
210.09431968223933
 40
11.0680748760626
 50
339.79529658297781
 51
80.306043745697025
  0
ARC
  8
_0-0_0
  6
CONTINUOUS
 62
    7
 10
26.975331562401777
 20
191.04109012041113
 40
47.571759517683361
 50
66.283890690712468
 51
129.49295869002302
  0
ARC
  8
_0-0_0
  6
CONTINUOUS
 62
    7
 10
9.5598860641587748
 20
139.47305222599982
 40
101.9001966415138
 50
51.207197071244686
 51
68.929712843241859
  0
ARC
  8
_0-0_0
  6
CONTINUOUS
 62
    7
 10
26.409345378557703
 20
175.16918531169517
 40
61.06249375118891
 50
55.840009178908183
 51
100.33886341557712
  0
ARC
  8
_0-0_0
  6
CONTINUOUS
 62
    7
 10
32.561128920442627
 20
184.29166134936207
 40
48.036555962733523
 50
112.59668295011326
 51
165.4927997115723
  0
ARC
  8
_0-0_0
  6
CONTINUOUS
 62
    7
 10
30.09985006438643
 20
185.54461417879327
 40
48.858454155338869
 50
104.79449781658593
 51
154.97766006239229
  0
ARC
  8
_0-0_0
  6
CONTINUOUS
 62
    7
 10
32.00935762054047
 20
183.56670150254615
 40
54.261871752530482
 50
107.76814162319168
 51
141.6153943693198
  0
ARC
  8
_0-0_0
  6
CONTINUOUS
 62
    7
 10
-43.944293090040844
 20
182.21534025721024
 40
9.6590860259182101
 50
202.65955179494361
 51
263.39039400381313
  0
ARC
  8
_0-0_0
  6
CONTINUOUS
 62
    7
 10
-42.280854937769107
 20
188.43123646288035
 40
18.558439272386849
 50
232.1959982826186
 51
354.70714531683791
  0
ARC
  8
_0-0_0
  6
CONTINUOUS
 62
    7
 10
-44.997344715349016
 20
192.20149459055972
 40
19.581129186985581
 50
269.82810810295103
 51
355.43555932757431
  0
ARC
  8
_0-0_0
  6
CONTINUOUS
 62
    7
 10
50.566442777317377
 20
172.54505175137149
 40
75.70671400694178
 50
143.79807762954314
 51
169.20908226184986
  0
ARC
  8
_0-0_0
  6
CONTINUOUS
 62
    7
 10
22.591244958165532
 20
185.78820972408039
 40
42.055508290963623
 50
150.94822790051612
 51
185.64449550041937
  0
ARC
  8
_0-0_0
  6
CONTINUOUS
 62
    7
 10
24.842557339873963
 20
195.09611802866948
 40
29.75159200411025
 50
112.18335827642115
 51
179.56570631143629
  0
ARC
  8
_0-0_0
  6
CONTINUOUS
 62
    7
 10
34.285203711010183
 20
180.08599153834768
 40
60.688826345738867
 50
128.28074847477271
 51
169.98204658024986
  0
ARC
  8
_0-0_0
  6
CONTINUOUS
 62
    7
 10
6.3707251977191959
 20
188.16146937004248
 40
21.893447394723001
 50
158.10721773105868
 51
199.19541325154739
  0
ARC
  8
_0-0_0
  6
CONTINUOUS
 62
    7
 10
22.845917352833851
 20
205.36969170575486
 40
12.45906913386801
 50
108.39793491572588
 51
152.98175119601544
  0
ARC
  8
_0-0_0
  6
CONTINUOUS
 62
    7
 10
18.191428110696222
 20
210.09431968223936
 40
11.0680748760626
 50
99.693956254302648
 51
200.20470341702213
  0
ARC
  8
_0-0_0
  6
CONTINUOUS
 62
    7
 10
9.5598860641588885
 20
139.47305222599982
 40
103.9001966415138
 50
46.546389454185856
 51
73.748802880711111
  0
ARC
  8
_0-0_0
  6
CONTINUOUS
 62
    7
 10
26.975331562401891
 20
191.04109012041113
 40
49.571759517683361
 50
76.394625033240132
 51
129.49295869001372
  0
ARC
  8
_0-0_0
  6
CONTINUOUS
 62
    7
 10
17.927247704309991
 20
137.09742820656049
 40
96.911152239413966
 50
49.416159908581356
 51
67.007563849211138
  0
ARC
  8
_0-0_0
  6
CONTINUOUS
 62
    7
 10
34.285203711010411
 20
180.08599153834768
 40
62.688826345738882
 50
128.28074847476643
 51
170.06359643820662
  0
ARC
  8
_0-0_0
  6
CONTINUOUS
 62
    7
 10
52.829874222474075
 20
222.55173198059157
 40
4.778576166672396
 50
51.850502711849899
 51
161.70897575962806
  0
ARC
  8
_0-0_0
  6
CONTINUOUS
 62
    7
 10
-43.709832775565417
 20
191.5821512827772
 40
16.260727590410809
 50
262.75991324876964
 51
357.60718445534781
  0
ARC
  8
_0-0_0
  6
CONTINUOUS
 62
    7
 10
44.592951789075926
 20
225.65355729853411
 40
4.0317656720047408
 50
224.65021182781939
 51
336.58618740916688
  0
ARC
  8
_0-0_0
  6
CONTINUOUS
 62
    7
 10
-44.776406951229831
 20
182.08771091844039
 40
6.7090006017751911
 50
159.03925069665829
 51
261.57711557620371
  0
ARC
  8
_0-0_0
  6
CONTINUOUS
 62
    7
 10
36.586710497863066
 20
221.10872590899487
 40
5.4155282247995311
 50
18.422232640610577
 51
105.70022551922274
  0
ARC
  8
_0-0_0
  6
CONTINUOUS
 62
    7
 10
-54.002678688884828
 20
185.21366393746291
 40
3.0489208420267069
 50
346.22546562967221
 51
178.22033136384303
  0
ARC
  8
_0-0_0
  6
CONTINUOUS
 62
    7
 10
35.749213912015136
 20
231.16881415317619
 40
4.8871228381703906
 50
153.72713298600002
 51
262.61739750777002
  0
ARC
  8
_0-0_0
  6
CONTINUOUS
 62
    7
 10
-43.793223022849872
 20
178.18677512837087
 40
15.04866778696703
 50
151.75542022121761
 51
242.54216666896963
  0
ARC
  8
_0-0_0
  6
CONTINUOUS
 62
    7
 10
28.058134461316229
 20
216.79291312871317
 40
16.866901923873719
 50
78.686798690753221
 51
143.29474896010015
  0
ARC
  8
_0-0_0
  6
CONTINUOUS
 62
    7
 10
-40.669491103230769
 20
182.14101345269557
 40
20.02028625314481
 50
239.82647195950884
 51
345.46060919255513
  0
ARC
  8
_0-0_0
  6
CONTINUOUS
 62
    7
 10
17.741793787491076
 20
225.67516695240363
 40
3.4230878350440022
 50
159.49500271518653
 51
261.37698993925363
  0
ARC
  8
_0-0_0
  6
CONTINUOUS
 62
    7
 10
-18.505578507445477
 20
176.48317375784916
 40
2.8555495873242829
 50
37.669444008016512
 51
167.21659840052382
  0
ARC
  8
_0-0_0
  6
CONTINUOUS
 62
    7
 10
17.651926639443843
 20
217.3054190428079
 40
5.0032979406001656
 50
321.02644292188927
 51
94.854008408291875
  0
ARC
  8
_0-0_0
  6
CONTINUOUS
 62
    7
 10
-13.485118478149218
 20
188.73362092736045
 40
10.861951979966671
 50
255.27903373738221
 51
12.313759265981389
  0
ARC
  8
_0-0_0
  6
CONTINUOUS
 62
    7
 10
20.788612334556262
 20
206.64715652571533
 40
7.5490348928200621
 50
84.274892766999059
 51
203.61470135450628
  0
ARC
  8
_0-0_0
  6
CONTINUOUS
 62
    7
 10
-0.6854482893862154
 20
192.67104126042625
 40
2.7226967315793931
 50
82.933788371387976
 51
216.53728594157326
  0
ARC
  8
_0-0_0
  6
CONTINUOUS
 62
    7
 10
0.496588207189859
 20
210.29660024498651
 40
14.94756459464968
 50
266.75122309719399
 51
333.48330836961424
  0
ARC
  8
_0-0_0
  6
CONTINUOUS
 62
    7
 10
577.53121926980816
 20
139.47305222599979
 40
103.9001966415138
 50
106.251197119289
 51
133.45361054581426
  0
ARC
  8
_0-0_0
  6
CONTINUOUS
 62
    7
 10
569.16385762965729
 20
137.09742820656047
 40
96.91115223941398
 50
112.99243615078895
 51
130.58384009141881
  0
ARC
  8
_0-0_0
  6
CONTINUOUS
 62
    7
 10
560.11577377156527
 20
191.04109012041104
 40
49.571759517683361
 50
50.507041309986519
 51
103.60537496675995
  0
ARC
  8
_0-0_0
  6
CONTINUOUS
 62
    7
 10
534.26123111149309
 20
222.55173198059154
 40
4.778576166672396
 50
18.291024240372288
 51
128.14949728814943
  0
ARC
  8
_0-0_0
  6
CONTINUOUS
 62
    7
 10
552.80590162295675
 20
180.0859915383476
 40
62.688826345738867
 50
9.9364035617933251
 51
51.719251525233574
  0
ARC
  8
_0-0_0
  6
CONTINUOUS
 62
    7
 10
542.49815354489124
 20
225.65355729853414
 40
4.0317656720047408
 50
203.41381259083352
 51
315.34978817217939
  0
ARC
  8
_0-0_0
  6
CONTINUOUS
 62
    7
 10
630.80093810953258
 20
191.58215128277718
 40
16.260727590410809
 50
182.39281554465259
 51
277.24008675123076
  0
ARC
  8
_0-0_0
  6
CONTINUOUS
 62
    7
 10
550.50439483610398
 20
221.10872590899484
 40
5.4155282247995311
 50
74.299774480776037
 51
161.57776735938967
  0
ARC
  8
_0-0_0
  6
CONTINUOUS
 62
    7
 10
631.86751228519688
 20
182.08771091844037
 40
6.7090006017751911
 50
278.42288442379709
 51
20.960749303341693
  0
ARC
  8
_0-0_0
  6
CONTINUOUS
 62
    7
 10
551.34189142195214
 20
231.16881415317621
 40
4.8871228381703906
 50
277.38260249222981
 51
26.272867013999981
  0
ARC
  8
_0-0_0
  6
CONTINUOUS
 62
    7
 10
641.09378402285211
 20
185.21366393746283
 40
3.0489208420267069
 50
1.7796686361580609
 51
193.77453437032617
  0
ARC
  8
_0-0_0
  6
CONTINUOUS
 62
    7
 10
559.03297087265105
 20
216.79291312871314
 40
16.866901923873719
 50
36.705251039899402
 51
101.31320130924674
  0
ARC
  8
_0-0_0
  6
CONTINUOUS
 62
    7
 10
630.88432835681715
 20
178.18677512837078
 40
15.04866778696703
 50
297.45783333103003
 51
28.244579778782629
  0
ARC
  8
_0-0_0
  6
CONTINUOUS
 62
    7
 10
569.34931154647597
 20
225.67516695240366
 40
3.4230878350440022
 50
278.62301006074796
 51
20.50499728481082
  0
ARC
  8
_0-0_0
  6
CONTINUOUS
 62
    7
 10
627.76059643719782
 20
182.1410134526956
 40
20.02028625314481
 50
194.53939080744522
 51
300.17352804049091
  0
ARC
  8
_0-0_0
  6
CONTINUOUS
 62
    7
 10
569.43917869452321
 20
217.30541904280787
 40
5.0032979406001656
 50
85.145991591708054
 51
218.97355707811147
  0
ARC
  8
_0-0_0
  6
CONTINUOUS
 62
    7
 10
605.59668384141241
 20
176.48317375784907
 40
2.855549587324282
 50
12.783401599476194
 51
142.3305559919836
  0
ARC
  8
_0-0_0
  6
CONTINUOUS
 62
    7
 10
566.30249299941079
 20
206.6471565257153
 40
7.5490348928200612
 50
336.385298645494
 51
95.725107233000131
  0
ARC
  8
_0-0_0
  6
CONTINUOUS
 62
    7
 10
600.57622381211627
 20
188.73362092736042
 40
10.861951979966671
 50
167.68624073401858
 51
284.72096626261776
  0
ARC
  8
_0-0_0
  6
CONTINUOUS
 62
    7
 10
586.59451712677742
 20
210.29660024498642
 40
14.94756459464968
 50
206.51669163038508
 51
273.24877690280556
  0
ARC
  8
_0-0_0
  6
CONTINUOUS
 62
    7
 10
587.77655362335327
 20
192.67104126042616
 40
2.7226967315793931
 50
323.46271405842776
 51
97.066211628611981
  0
ARC
  8
_0-0_0
  6
CONTINUOUS
 62
    7
 10
330.80467519599284
 20
189.54357302647145
 40
50.728742938936932
 50
356.27448125919824
 51
8.9538840070920127
  0
ARC
  8
_0-0_0
  6
CONTINUOUS
 62
    7
 10
351.08898832939337
 20
182.88315648265865
 40
30.523195589826429
 50
267.19770340622762
 51
6.3279233339762868
  0
ARC
  8
_0-0_0
  6
CONTINUOUS
 62
    7
 10
296.91409275389191
 20
153.14663176809762
 40
100.46104369795189
 50
46.972891498998891
 51
91.921534033119841
  0
ARC
  8
_0-0_0
  6
CONTINUOUS
 62
    7
 10
348.6986299568207
 20
167.30886326632623
 40
14.9394207710301
 50
161.53484935324298
 51
273.44642142694647
  0
ARC
  8
_0-0_0
  6
CONTINUOUS
 62
    7
 10
290.17701258007514
 20
153.14663176809711
 40
100.46104369795241
 50
88.078465966880046
 51
132.88844080352879
  0
ARC
  8
_0-0_0
  6
CONTINUOUS
 62
    7
 10
346.83056934056845
 20
165.71824782371698
 40
13.83173223619322
 50
92.703032497709216
 51
152.80051658364064
  0
ARC
  8
_0-0_0
  6
CONTINUOUS
 62
    7
 10
256.28643013797404
 20
189.54357302647145
 40
50.728742938936932
 50
132.8204687508921
 51
155.69130431746839
  0
ARC
  8
_0-0_0
  6
CONTINUOUS
 62
    7
 10
347.76461170627482
 20
169.19868688968131
 40
10.456929378954779
 50
319.9617511462618
 51
98.725574715885301
  0
ARC
  8
_0-0_0
  6
CONTINUOUS
 62
    7
 10
236.07915144924397
 20
182.91561612068404
 40
30.596788251507991
 50
173.74223866558418
 51
274.12208915161756
  0
ARC
  8
_0-0_0
  6
CONTINUOUS
 62
    7
 10
347.11585664243512
 20
168.68817763184495
 40
10.65590911552643
 50
225.44242881718191
 51
324.31152448705092
  0
ARC
  8
_0-0_0
  6
CONTINUOUS
 62
    7
 10
238.43574371291959
 20
167.29874938516502
 40
14.90160160080481
 50
269.3954313286261
 51
18.554728071798195
  0
ARC
  8
_0-0_0
  6
CONTINUOUS
 62
    7
 10
343.77948660257704
 20
166.12299785958913
 40
6.5128744049363858
 50
84.610415857708645
 51
230.5297399246719
  0
ARC
  8
_0-0_0
  6
CONTINUOUS
 62
    7
 10
240.26053599339855
 20
165.71824782371698
 40
13.83173223619322
 50
27.199483416359648
 51
87.29696750229013
  0
ARC
  8
_0-0_0
  6
CONTINUOUS
 62
    7
 10
341.34773881225601
 20
165.30879955145002
 40
7.907444909661641
 50
30.191490167318999
 51
67.363181086223307
  0
ARC
  8
_0-0_0
  6
CONTINUOUS
 62
    7
 10
239.32649362769206
 20
169.19868688968154
 40
10.456929378954779
 50
81.274425284112127
 51
220.03824885373763
  0
ARC
  8
_0-0_0
  6
CONTINUOUS
 62
    7
 10
349.94389724391573
 20
169.29508997300712
 40
1.761389077706186
 50
180.31562791700793
 51
320.09184459264037
  0
ARC
  8
_0-0_0
  6
CONTINUOUS
 62
    7
 10
239.9752486915317
 20
168.68817763184501
 40
10.65590911552643
 50
215.6884755129488
 51
314.55757118281809
  0
ARC
  8
_0-0_0
  6
CONTINUOUS
 62
    7
 10
342.84877632070561
 20
167.91299297067297
 40
8.4499967378661651
 50
1.7093791962691878
 51
150.24571656737561
  0
ARC
  8
_0-0_0
  6
CONTINUOUS
 62
    7
 10
243.3116187313899
 20
166.12299785958919
 40
6.5128744049363858
 50
309.47026007532662
 51
95.389584142290204
  0
ARC
  8
_0-0_0
  6
CONTINUOUS
 62
    7
 10
346.44639612440636
 20
166.54240229541307
 40
12.26797462114096
 50
153.02818071054924
 51
233.61048626692971
  0
ARC
  8
_0-0_0
  6
CONTINUOUS
 62
    7
 10
245.74336652171098
 20
165.30879955145008
 40
7.907444909661641
 50
112.63681891377709
 51
149.80850983268192
  0
ARC
  8
_0-0_0
  6
CONTINUOUS
 62
    7
 10
347.58965770724905
 20
169.01489530817452
 40
14.94659746910836
 50
235.7060086831961
 51
331.88425013035169
  0
ARC
  8
_0-0_0
  6
CONTINUOUS
 62
    7
 10
237.14720809005121
 20
169.29508997300718
 40
1.761389077706186
 50
219.90815540736199
 51
359.68437208298838
  0
ARC
  8
_0-0_0
  6
CONTINUOUS
 62
    7
 10
341.99216002816763
 20
170.22644243981767
 40
20.514630848493152
 50
336.27136821910887
 51
56.014539771452021
  0
ARC
  8
_0-0_0
  6
CONTINUOUS
 62
    7
 10
244.24232901326127
 20
167.91299297067303
 40
8.4499967378661651
 50
29.754283432624234
 51
178.29062080373001
  0
ARC
  8
_0-0_0
  6
CONTINUOUS
 62
    7
 10
341.66686434033005
 20
170.14169381909846
 40
20.767927639563201
 50
55.401080617385269
 51
174.17687979227679
  0
ARC
  8
_0-0_0
  6
CONTINUOUS
 62
    7
 10
240.65922808935773
 20
166.48630554136656
 40
12.28060811163337
 50
309.89333754450746
 51
27.235797752882998
  0
ARC
  8
_0-0_0
  6
CONTINUOUS
 62
    7
 10
346.68598602466608
 20
169.3080737143664
 40
25.847709136931769
 50
173.46732913927812
 51
273.95027591848657
  0
ARC
  8
_0-0_0
  6
CONTINUOUS
 62
    7
 10
239.53412040375594
 20
169.05741985673745
 40
14.995470949602421
 50
208.20022690774312
 51
306.88958288522912
  0
ARC
  8
_0-0_0
  6
CONTINUOUS
 62
    7
 10
349.62594115918256
 20
183.43869874272571
 40
39.933756278922907
 50
268.33645389798659
 51
4.2585728128410096
  0
ARC
  8
_0-0_0
  6
CONTINUOUS
 62
    7
 10
245.09894530579942
 20
170.2264424398179
 40
20.514630848493152
 50
123.98546022854846
 51
203.7286317808917
  0
ARC
  8
_0-0_0
  6
CONTINUOUS
 62
    7
 10
330.80467519599284
 20
189.54357302647145
 40
58.728742938936918
 50
356.93565648872197
 51
8.6165868046289624
  0
ARC
  8
_0-0_0
  6
CONTINUOUS
 62
    7
 10
245.42424099363694
 20
170.14169381909846
 40
20.767927639563201
 50
5.8231202077226012
 51
124.59891938261404
  0
ARC
  8
_0-0_0
  6
CONTINUOUS
 62
    7
 10
296.91409275389191
 20
153.14663176809762
 40
108.46104369795189
 50
47.114022230205386
 51
91.779755796659487
  0
ARC
  8
_0-0_0
  6
CONTINUOUS
 62
    7
 10
240.4051193093008
 20
169.30807371436646
 40
25.847709136931769
 50
266.04972408151349
 51
6.5326708607219075
  0
ARC
  8
_0-0_0
  6
CONTINUOUS
 62
    7
 10
290.17701258007514
 20
153.14663176809711
 40
108.46104369795241
 50
88.220244203339888
 51
132.88597776979381
  0
ARC
  8
_0-0_0
  6
CONTINUOUS
 62
    7
 10
237.4651641747846
 20
183.43869874272571
 40
39.933756278922907
 50
175.74142718715908
 51
271.66354610201296
  0
ARC
  8
_0-0_0
  6
CONTINUOUS
 62
    7
 10
256.28643013797404
 20
189.54357302647145
 40
58.728742938936918
 50
132.82517910653243
 51
158.18495244972505
  0
ARC
  8
_0-0_0
  6
CONTINUOUS
 62
    7
 10
416.79281843861617
 20
220.70784503904218
 40
12.69451429696363
 50
156.27136821910898
 51
236.01453977145181
  0
ARC
  8
_0-0_0
  6
CONTINUOUS
 62
    7
 10
416.99411237319833
 20
220.76028773641832
 40
12.85125510109318
 50
235.4010806173853
 51
354.17687979227651
  0
ARC
  8
_0-0_0
  6
CONTINUOUS
 62
    7
 10
413.32907030494977
 20
221.45755399055486
 40
9.2489987591706218
 50
55.706008683195499
 51
151.88425013035229
  0
ARC
  8
_0-0_0
  6
CONTINUOUS
 62
    7
 10
413.88826501720348
 20
221.27613432492933
 40
15.994638928959301
 50
353.46732913927769
 51
93.950275918486753
  0
ARC
  8
_0-0_0
  6
CONTINUOUS
 62
    7
 10
414.23855903925676
 20
223.03537104430666
 40
7.4343056947282973
 50
331.99337533939996
 51
54.645291638079108
  0
ARC
  8
_0-0_0
  6
CONTINUOUS
 62
    7
 10
412.06901207703697
 20
212.53206172755586
 40
24.7111265982875
 50
88.336453897986615
 51
180.629014766338
  0
ARC
  8
_0-0_0
  6
CONTINUOUS
 62
    7
 10
416.26274174101695
 20
222.1394144188792
 40
5.2288829952802791
 50
181.70937919626883
 51
330.24571656737504
  0
ARC
  8
_0-0_0
  6
CONTINUOUS
 62
    7
 10
423.71566717023433
 20
208.75434744897461
 40
36.341519980887107
 50
196.64380009867372
 51
227.17482089346751
  0
ARC
  8
_0-0_0
  6
CONTINUOUS
 62
    7
 10
411.87225991058267
 20
221.28416870251721
 40
1.0899527753919671
 50
0.3156279170074666
 51
140.09184459263687
  0
ARC
  8
_0-0_0
  6
CONTINUOUS
 62
    7
 10
444.68725990914407
 20
231.27688244277937
 40
67.116014909348578
 50
227.11402223020539
 51
271.77975579665951
  0
ARC
  8
_0-0_0
  6
CONTINUOUS
 62
    7
 10
417.19158819465378
 20
223.75089701569186
 40
4.8931503179120224
 50
210.1914901673193
 51
247.36318108622362
  0
ARC
  8
_0-0_0
  6
CONTINUOUS
 62
    7
 10
448.85618506397276
 20
231.27688244277965
 40
67.116014909348863
 50
268.2202442033398
 51
312.88597776979367
  0
ARC
  8
_0-0_0
  6
CONTINUOUS
 62
    7
 10
415.68681546348336
 20
223.24706869240555
 40
4.0301859613460387
 50
264.61041585770948
 51
50.529739924670992
  0
ARC
  8
_0-0_0
  6
CONTINUOUS
 62
    7
 10
469.82777780288268
 20
208.75434744897458
 40
36.341519980887107
 50
312.82517910653252
 51
3.0643435112780111
  0
ARC
  8
_0-0_0
  6
CONTINUOUS
 62
    7
 10
413.62225980641426
 20
221.65972785582517
 40
6.5939081045726669
 50
45.442428817181245
 51
144.31152448705112
  0
ARC
  8
_0-0_0
  6
CONTINUOUS
 62
    7
 10
481.47443289608003
 20
212.53206172755586
 40
24.7111265982875
 50
5.4929078116731098
 51
91.663546102013143
  0
ARC
  8
_0-0_0
  6
CONTINUOUS
 62
    7
 10
413.22080825244956
 20
221.34382321585389
 40
6.4707788545574072
 50
139.96175114626215
 51
278.72557471588522
  0
ARC
  8
_0-0_0
  6
CONTINUOUS
 62
    7
 10
479.65517995591364
 20
221.27613432492933
 40
15.994638928959301
 50
86.049724081513205
 51
186.53267086072228
  0
ARC
  8
_0-0_0
  6
CONTINUOUS
 62
    7
 10
413.79879643332384
 20
223.49752921275433
 40
8.5591168527911865
 50
272.70303249770939
 51
332.80051658364459
  0
ARC
  8
_0-0_0
  6
CONTINUOUS
 62
    7
 10
476.54933259991873
 20
220.76028773641832
 40
12.85125510109318
 50
185.82312020772281
 51
304.59891938261393
  0
ARC
  8
_0-0_0
  6
CONTINUOUS
 62
    7
 10
413.61099197616636
 20
222.6642662109075
 40
8.3861512914378658
 50
338.45969379173101
 51
100.08347538744894
  0
ARC
  8
_0-0_0
  6
CONTINUOUS
 62
    7
 10
476.75062653450095
 20
220.70784503904218
 40
12.69451429696363
 50
303.98546022854833
 51
23.728631780891419
  0
ARC
  8
_0-0_0
  6
CONTINUOUS
 62
    7
 10
414.58420535969788
 20
211.88738452501065
 40
19.189447479156222
 50
97.309585848474242
 51
176.14283339870968
  0
ARC
  8
_0-0_0
  6
CONTINUOUS
 62
    7
 10
480.19415665701723
 20
221.4312396740217
 40
9.2792418135768333
 50
28.200226907743186
 51
126.88958288522635
  0
ARC
  8
_0-0_0
  6
CONTINUOUS
 62
    7
 10
423.71566717023433
 20
208.75434744897461
 40
28.34151998088711
 50
199.5580620076791
 51
227.4020592938069
  0
ARC
  8
_0-0_0
  6
CONTINUOUS
 62
    7
 10
478.65152629684104
 20
223.19346387448076
 40
6.9460529289183857
 50
125.43792856891517
 51
211.6912067284708
  0
ARC
  8
_0-0_0
  6
CONTINUOUS
 62
    7
 10
446.85583376491394
 20
234.84356285943616
 40
63.211845567912448
 50
227.96812138210981
 51
269.92376076607093
  0
ARC
  8
_0-0_0
  6
CONTINUOUS
 62
    7
 10
477.28070323210005
 20
222.1394144188792
 40
5.2288829952802791
 50
209.7542834326249
 51
358.29062080373029
  0
ARC
  8
_0-0_0
  6
CONTINUOUS
 62
    7
 10
446.68761120820318
 20
234.84356285943599
 40
63.211845567912277
 50
270.07623923392896
 51
312.03187861789013
  0
ARC
  8
_0-0_0
  6
CONTINUOUS
 62
    7
 10
481.67118506253433
 20
221.28416870251715
 40
1.0899527753919671
 50
39.908155407364291
 51
179.68437208299102
  0
ARC
  8
_0-0_0
  6
CONTINUOUS
 62
    7
 10
469.82777780288268
 20
208.75434744897458
 40
28.34151998088711
 50
312.59794070619313
 51
3.7902730188612912
  0
ARC
  8
_0-0_0
  6
CONTINUOUS
 62
    7
 10
476.35185677846317
 20
223.75089701569186
 40
4.8931503179120224
 50
292.63681891377757
 51
329.80850983268141
  0
ARC
  8
_0-0_0
  6
CONTINUOUS
 62
    7
 10
478.95923961341924
 20
211.88738452501062
 40
19.189447479156222
 50
356.2365798137248
 51
82.690414151525985
  0
ARC
  8
_0-0_0
  6
CONTINUOUS
 62
    7
 10
477.85662950963376
 20
223.24706869240555
 40
4.0301859613460387
 50
129.47026007532921
 51
275.38958414228966
  0
ARC
  8
_0-0_0
  6
CONTINUOUS
 62
    7
 10
479.93245299695064
 20
222.6642662109075
 40
8.3861512914378658
 50
79.916524612551129
 51
201.54030620826913
  0
ARC
  8
_0-0_0
  6
CONTINUOUS
 62
    7
 10
479.92118516670274
 20
221.65972785582517
 40
6.5939081045726669
 50
35.688475512948784
 51
134.55757118281875
  0
ARC
  8
_0-0_0
  6
CONTINUOUS
 62
    7
 10
479.74464853979316
 20
223.49752921275433
 40
8.5591168527911865
 50
207.19948341635572
 51
267.29696750229061
  0
ARC
  8
_0-0_0
  6
CONTINUOUS
 62
    7
 10
480.32263672066756
 20
221.34382321585389
 40
6.4707788545574072
 50
261.27442528411302
 51
40.038248853737514
  0
ARC
  8
_0-0_0
  6
CONTINUOUS
 62
    7
 10
330.80467519599284
 20
189.54357302647145
 40
58.728742938936918
 50
22.481744649964924
 51
47.174820893467597
  0
ARC
  8
_0-0_0
  6
CONTINUOUS
 62
    7
 10
330.80467519599284
 20
189.54357302647145
 40
50.728742938936932
 50
25.091079287529301
 51
46.90491944636991
  0
ARC
  8
_0-0_0
  6
CONTINUOUS
 62
    7
 10
256.28643013797404
 20
189.54357302647145
 40
50.728742938936932
 50
171.78976973267461
 51
183.72175067066468
  0
ARC
  8
_0-0_0
  6
CONTINUOUS
 62
    7
 10
256.28643013797404
 20
189.54357302647145
 40
58.728742938936918
 50
172.02565571533185
 51
183.06434351127805
  0
ARC
  8
_0-0_0
  6
CONTINUOUS
 62
    7
 10
170.29828689535086
 20
220.70784503904221
 40
12.69451429696363
 50
303.98546022854816
 51
23.728631780891014
  0
ARC
  8
_0-0_0
  6
CONTINUOUS
 62
    7
 10
173.76203502901726
 20
221.45755399055486
 40
9.2489987591706218
 50
28.115749869647711
 51
124.29399131680461
  0
ARC
  8
_0-0_0
  6
CONTINUOUS
 62
    7
 10
170.0969929607688
 20
220.76028773641832
 40
12.85125510109318
 50
185.82312020772358
 51
304.59891938261461
  0
ARC
  8
_0-0_0
  6
CONTINUOUS
 62
    7
 10
172.85254629471038
 20
223.03537104430666
 40
7.4343056947282973
 50
125.35470836192094
 51
208.00662466060001
  0
ARC
  8
_0-0_0
  6
CONTINUOUS
 62
    7
 10
173.20284031676366
 20
221.27613432492933
 40
15.994638928959301
 50
86.049724081513205
 51
186.53267086072228
  0
ARC
  8
_0-0_0
  6
CONTINUOUS
 62
    7
 10
170.82836359295018
 20
222.1394144188792
 40
5.2288829952802791
 50
209.7542834326249
 51
358.29062080373114
  0
ARC
  8
_0-0_0
  6
CONTINUOUS
 62
    7
 10
175.02209325693016
 20
212.53206172755586
 40
24.7111265982875
 50
357.83932784626131
 51
91.663546102013427
  0
ARC
  8
_0-0_0
  6
CONTINUOUS
 62
    7
 10
175.21884542338447
 20
221.28416870251721
 40
1.0899527753919671
 50
39.908155407363118
 51
179.68437208299258
  0
ARC
  8
_0-0_0
  6
CONTINUOUS
 62
    7
 10
163.37543816373281
 20
208.75434744897461
 40
36.341519980887107
 50
312.82517910653252
 51
342.30050282779672
  0
ARC
  8
_0-0_0
  6
CONTINUOUS
 62
    7
 10
169.89951713931325
 20
223.75089701569189
 40
4.8931503179120224
 50
292.63681891377632
 51
329.80850983268067
  0
ARC
  8
_0-0_0
  6
CONTINUOUS
 62
    7
 10
142.40384542482292
 20
231.27688244277937
 40
67.116014909348578
 50
268.2202442033406
 51
312.88597776979469
  0
ARC
  8
_0-0_0
  6
CONTINUOUS
 62
    7
 10
171.40428987048378
 20
223.24706869240558
 40
4.0301859613460387
 50
129.47026007532901
 51
275.3895841422904
  0
ARC
  8
_0-0_0
  6
CONTINUOUS
 62
    7
 10
138.23492026999423
 20
231.27688244277965
 40
67.116014909348863
 50
227.1140222302063
 51
271.7797557966602
  0
ARC
  8
_0-0_0
  6
CONTINUOUS
 62
    7
 10
173.46884552755287
 20
221.6597278558252
 40
6.5939081045726669
 50
35.688475512948884
 51
134.5575711828188
  0
ARC
  8
_0-0_0
  6
CONTINUOUS
 62
    7
 10
117.26332753108444
 20
208.75434744897461
 40
36.341519980887107
 50
176.93565648872195
 51
227.17482089346751
  0
ARC
  8
_0-0_0
  6
CONTINUOUS
 62
    7
 10
173.87029708151746
 20
221.34382321585392
 40
6.4707788545574072
 50
261.27442528411478
 51
40.038248853737741
  0
ARC
  8
_0-0_0
  6
CONTINUOUS
 62
    7
 10
105.61667243788709
 20
212.53206172755586
 40
24.7111265982875
 50
88.336453897986971
 51
174.50709218832705
  0
ARC
  8
_0-0_0
  6
CONTINUOUS
 62
    7
 10
173.29230890064329
 20
223.49752921275433
 40
8.5591168527911865
 50
207.19948341635541
 51
267.29696750229061
  0
ARC
  8
_0-0_0
  6
CONTINUOUS
 62
    7
 10
107.43592537805348
 20
221.27613432492933
 40
15.994638928959301
 50
353.46732913927769
 51
93.950275918486753
  0
ARC
  8
_0-0_0
  6
CONTINUOUS
 62
    7
 10
173.48011335780078
 20
222.66426621090753
 40
8.3861512914378658
 50
79.916524612551129
 51
201.54030620826893
  0
ARC
  8
_0-0_0
  6
CONTINUOUS
 62
    7
 10
110.54177273404839
 20
220.76028773641832
 40
12.85125510109318
 50
235.40108061738607
 51
354.17687979227713
  0
ARC
  8
_0-0_0
  6
CONTINUOUS
 62
    7
 10
172.50689997426926
 20
211.88738452501065
 40
19.189447479156222
 50
1.8661015197992357
 51
82.690414151525815
  0
ARC
  8
_0-0_0
  6
CONTINUOUS
 62
    7
 10
110.34047879946623
 20
220.70784503904218
 40
12.69451429696363
 50
156.27136821910864
 51
236.01453977145161
  0
ARC
  8
_0-0_0
  6
CONTINUOUS
 62
    7
 10
163.37543816373281
 20
208.75434744897461
 40
28.34151998088711
 50
312.59794070619301
 51
339.07241331614603
  0
ARC
  8
_0-0_0
  6
CONTINUOUS
 62
    7
 10
106.89694867694989
 20
221.4312396740217
 40
9.2792418135768333
 50
53.110417114773803
 51
151.79977309225691
  0
ARC
  8
_0-0_0
  6
CONTINUOUS
 62
    7
 10
140.23527156905305
 20
234.84356285943619
 40
63.211845567912448
 50
270.07623923392913
 51
312.03187861789013
  0
ARC
  8
_0-0_0
  6
CONTINUOUS
 62
    7
 10
108.43957903712608
 20
223.19346387448076
 40
6.9460529289183857
 50
328.308793271529
 51
54.562071431084924
  0
ARC
  8
_0-0_0
  6
CONTINUOUS
 62
    7
 10
140.40349412576387
 20
234.84356285943602
 40
63.211845567912277
 50
227.9681213821099
 51
269.9237607660711
  0
ARC
  8
_0-0_0
  6
CONTINUOUS
 62
    7
 10
109.81040210186707
 20
222.1394144188792
 40
5.2288829952802791
 50
181.70937919626965
 51
330.24571656737481
  0
ARC
  8
_0-0_0
  6
CONTINUOUS
 62
    7
 10
117.26332753108444
 20
208.75434744897461
 40
28.34151998088711
 50
176.20972698113872
 51
227.4020592938069
  0
ARC
  8
_0-0_0
  6
CONTINUOUS
 62
    7
 10
105.41992027143279
 20
221.28416870251715
 40
1.0899527753919671
 50
0.3156279170089933
 51
140.09184459263565
  0
ARC
  8
_0-0_0
  6
CONTINUOUS
 62
    7
 10
108.13186572054788
 20
211.88738452501065
 40
19.189447479156222
 50
97.309585848473915
 51
183.76342018627523
  0
ARC
  8
_0-0_0
  6
CONTINUOUS
 62
    7
 10
110.73924855550395
 20
223.75089701569186
 40
4.8931503179120224
 50
210.19149016731831
 51
247.36318108622231
  0
ARC
  8
_0-0_0
  6
CONTINUOUS
 62
    7
 10
107.15865233701648
 20
222.6642662109075
 40
8.3861512914378658
 50
338.45969379173067
 51
100.0834753874489
  0
ARC
  8
_0-0_0
  6
CONTINUOUS
 62
    7
 10
109.23447582433342
 20
223.24706869240555
 40
4.0301859613460387
 50
264.61041585771034
 51
50.52973992467065
  0
ARC
  8
_0-0_0
  6
CONTINUOUS
 62
    7
 10
107.34645679417402
 20
223.49752921275433
 40
8.5591168527911865
 50
272.70303249770927
 51
332.80051658364408
  0
ARC
  8
_0-0_0
  6
CONTINUOUS
 62
    7
 10
107.16992016726438
 20
221.65972785582517
 40
6.5939081045726669
 50
45.442428817181245
 51
144.31152448705126
  0
ARC
  8
_0-0_0
  6
CONTINUOUS
 62
    7
 10
106.76846861329962
 20
221.34382321585389
 40
6.4707788545574072
 50
139.96175114626254
 51
278.72557471588692
  0
ARC
  8
_0-0_0
  6
CONTINUOUS
 62
    7
 10
211.24839587650203
 20
203.99296191786109
 40
3
 50
266.47899657584816
 51
86.478994575852028
  0
LINE
  8
_0-0_0
  6
CONTINUOUS
 62
    7
 10
211.61688277358954
 20
209.98163601207219
 11
211.43263932504581
 21
206.98729896496664
  0
LINE
  8
_0-0_0
  6
CONTINUOUS
 62
    7
 10
190.71793792669868
 20
212.2694525009137
 11
210.68018490740232
 21
211.04116284395525
  0
ARC
  8
_0-0_0
  6
CONTINUOUS
 62
    7
 10
210.61877042455436
 20
210.04305049492012
 40
1
 50
356.47899857584929
 51
86.478994575851956
  0
LINE
  8
_0-0_0
  6
CONTINUOUS
 62
    7
 10
211.43263932504581
 20
206.98729896496664
 11
189.47416764627178
 21
208.33841758762091
  0
ARC
  8
_0-0_0
  6
CONTINUOUS
 62
    7
 10
190.65652344385072
 20
211.27134015187855
 40
1
 50
86.478994575851956
 51
176.4789935758489
  0
LINE
  8
_0-0_0
  6
CONTINUOUS
 62
    7
 10
189.47416764627178
 20
208.33841758762091
 11
189.65841109481559
 21
211.33275463472643
  0
ARC
  8
_0-0_0
  6
CONTINUOUS
 62
    7
 10
189.91954964967576
 20
199.29399196345636
 40
1
 50
176.47899357584888
 51
266.47899657584816
  0
LINE
  8
_0-0_0
  6
CONTINUOUS
 62
    7
 10
209.82038214753143
 20
197.06758995746279
 11
189.85813516682779
 21
198.29587961442118
  0
LINE
  8
_0-0_0
  6
CONTINUOUS
 62
    7
 10
189.85813516682779
 20
198.29587961442118
 11
209.82038214753143
 21
197.06758995746279
  0
LINE
  8
_0-0_0
  6
CONTINUOUS
 62
    7
 10
189.10568074918436
 20
202.34974349340982
 11
211.06415242795819
 21
200.99862487075561
  0
ARC
  8
_0-0_0
  6
CONTINUOUS
 62
    7
 10
209.88179663037928
 20
198.06570230649797
 40
1
 50
266.47899657584816
 51
356.47899857584923
  0
LINE
  8
_0-0_0
  6
CONTINUOUS
 62
    7
 10
211.06415242795819
 20
200.99862487075561
 11
210.87990897941444
 21
198.00428782365006
  0
LINE
  8
_0-0_0
  6
CONTINUOUS
 62
    7
 10
189.10568074918436
 20
202.34974349340982
 11
188.92143730064055
 21
199.35540644630433
  0
ARC
  8
_0-0_0
  6
CONTINUOUS
 62
    7
 10
189.28992419772808
 20
205.34408054051534
 40
3
 50
86.478994575851956
 51
266.47899657584816
  0
ARC
  8
_0-0_0
  6
CONTINUOUS
 62
    7
 10
397.15451702654798
 20
208.24851051740637
 40
3
 50
283.52100342415179
 51
103.52100542414809
  0
ARC
  8
_0-0_0
  6
CONTINUOUS
 62
    7
 10
375.76426315962811
 20
203.10486983120728
 40
3
 50
103.52100542414811
 51
283.52100342415184
  0
LINE
  8
_0-0_0
  6
CONTINUOUS
 62
    7
 10
374.36145206339199
 20
208.93857543127632
 11
375.06285761151008
 21
206.0217226312418
  0
LINE
  8
_0-0_0
  6
CONTINUOUS
 62
    7
 10
394.54561981426099
 20
214.82069853478089
 11
375.09993448069747
 21
210.14466154732719
  0
ARC
  8
_0-0_0
  6
CONTINUOUS
 62
    7
 10
375.33373633007022
 20
209.17237728064902
 40
1
 50
103.52100542414811
 51
193.52100142415085
  0
LINE
  8
_0-0_0
  6
CONTINUOUS
 62
    7
 10
375.06285761151008
 20
206.0217226312418
 11
396.45311147842983
 21
211.16536331744089
  0
ARC
  8
_0-0_0
  6
CONTINUOUS
 62
    7
 10
394.77942166363363
 20
213.84841426810272
 40
1
 50
13.521006424151121
 51
103.52100542414811
  0
LINE
  8
_0-0_0
  6
CONTINUOUS
 62
    7
 10
396.45311147842983
 20
211.16536331744089
 11
395.75170593031186
 21
214.08221611747541
  0
ARC
  8
_0-0_0
  6
CONTINUOUS
 62
    7
 10
397.58504385610587
 20
202.18100306796464
 40
1
 50
283.52100342415179
 51
13.521006424151109
  0
LINE
  8
_0-0_0
  6
CONTINUOUS
 62
    7
 10
397.81884570547862
 20
201.20871880128647
 11
378.37316037191511
 21
196.53268181383277
  0
LINE
  8
_0-0_0
  6
CONTINUOUS
 62
    7
 10
378.37316037191511
 20
196.53268181383277
 11
397.81884570547862
 21
201.20871880128647
  0
LINE
  8
_0-0_0
  6
CONTINUOUS
 62
    7
 10
397.85592257466595
 20
205.33165771737185
 11
376.46566870774626
 21
200.18801703117282
  0
LINE
  8
_0-0_0
  6
CONTINUOUS
 62
    7
 10
397.85592257466595
 20
205.33165771737185
 11
398.5573281227841
 21
202.41480491733739
  0
ARC
  8
_0-0_0
  6
CONTINUOUS
 62
    7
 10
378.13935852254247
 20
197.504966080511
 40
1
 50
193.52100142415085
 51
283.52100342415179
  0
LINE
  8
_0-0_0
  6
CONTINUOUS
 62
    7
 10
376.46566870774626
 20
200.18801703117282
 11
377.16707425586429
 21
197.2711642311383
  0
ENDSEC
  0
EOF
