  0
SECTION
  2
HEADER
  9
$ACADVER
  1
AC1009
  9
$INSBASE
 10
0
 20
0
 30
0
  9
$EXTMIN
 10
0
 20
0
  9
$EXTMAX
 10
1260
 20
891
  9
$LIMMIN
 10
0
 20
0
  9
$LIMMAX
 10
1260
 20
891
  9
$LTSCALE
 40
3
  0
ENDSEC
  0
SECTION
  2
TABLES
  0
TABLE
  2
LTYPE
 70
     9
  0
LTYPE
  2
CONTINUOUS
 70
    64
  3
実線
 72
    65
 73
     0
 40
0.0
  0
LTYPE
  2
DASHED1
 70
    64
  3
--  --  --  --  --  --  --  --  
 72
    65
 73
     2
 40
2.5
 49
1.25
 49
-1.25
  0
LTYPE
  2
DASHED2
 70
    64
  3
----    ----    ----    ----    
 72
    65
 73
     2
 40
5.0
 49
2.5
 49
-2.5
  0
LTYPE
  2
DASHED3
 70
    64
  3
------  ------  ------  ------  
 72
    65
 73
     2
 40
5.0
 49
3.75
 49
-1.25
  0
LTYPE
  2
CENTER1
 70
    64
  3
----- - ----- - ----- - ----- - 
 72
    65
 73
     4
 40
10.0
 49
6.25
 49
-1.25
 49
1.25
 49
-1.25
  0
LTYPE
  2
CENTER2
 70
    64
  3
----------  --  ----------  --  
 72
    65
 73
     4
 40
20.0
 49
12.5
 49
-2.5
 49
2.5
 49
-2.5
  0
LTYPE
  2
PHANTOM1
 70
    64
  3
--- - - --- - - --- - - --- - - 
 72
    65
 73
     6
 40
10.0
 49
3.25
 49
-1.25
 49
1.25
 49
-1.25
 49
1.25
 49
-1.25
  0
LTYPE
  2
PHANTOM2
 70
    64
  3
--------  -  -  --------  -  -  
 72
    65
 73
     6
 40
20.0
 49
10.0
 49
-2.5
 49
1.25
 49
-2.5
 49
1.25
 49
-2.5
  0
LTYPE
  2
DOT
 70
    64
  3
-   -   -   -   -   -   -   -   
 72
    65
 73
     2
 40
2.5
 49
0.625
 49
-1.875
  0
LTYPE
  2
DUMMY
 70
    64
  3
ダミー
 72
    65
 73
     0
 40
0.0
  0
LTYPE
  2
RAND1
 70
    64
  3
ランダム線1
 72
    65
 73
     4
 40
10.0
 49
1.0
 49
-2.0
 49
3.0
 49
-4.0
  0
LTYPE
  2
RAND2
 70
    64
  3
ランダム線2
 72
    65
 73
     4
 40
14.0
 49
2.0
 49
-3.0
 49
4.0
 49
-5.0
  0
LTYPE
  2
RAND3
 70
    64
  3
ランダム線3
 72
    65
 73
     4
 40
18.0
 49
3.0
 49
-4.0
 49
5.0
 49
-6.0
  0
LTYPE
  2
RAND4
 70
    64
  3
ランダム線4
 72
    65
 73
     4
 40
22.0
 49
4.0
 49
-5.0
 49
6.0
 49
-7.0
  0
LTYPE
  2
RAND5
 70
    64
  3
ランダム線5
 72
    65
 73
     4
 40
26.0
 49
5.0
 49
-6.0
 49
7.0
 49
-8.0
  0
LTYPE
  2
LONG1
 70
    64
  3
----------  --  ----------  --  
 72
    65
 73
     4
 40
40.0
 49
32.5
 49
-2.5
 49
2.5
 49
-2.5
  0
LTYPE
  2
LONG2
 70
    64
  3
--------  -  -  --------  -  -  
 72
    65
 73
     6
 40
40.0
 49
30.0
 49
-2.5
 49
1.25
 49
-2.5
 49
1.25
 49
-2.5
  0
LTYPE
  2
LONG3
 70
    64
  3
+++++++++++++++..+++++++++++++++
 72
    65
 73
     2
 40
40.0
 49
37.5
 49
-2.5
  0
LTYPE
  2
LONG4
 70
    64
  3
+++++++++++++++..+++++++++++++++
 72
    65
 73
     2
 40
80.0
 49
75.0
 49
-5.0
  0
LTYPE
  2
LONG5
 70
    64
  3
----------  --  ----------  --  
 72
    65
 73
     4
 40
60.0
 49
37.5
 49
-7.5
 49
7.5
 49
-7.5
  0
LTYPE
  2
dashed
 70
   64
  3
-------   -------------   ------
 72
   65
 73
    2
 40
7.5
 49
6
 49
-1.5
  0
LTYPE
  2
dashed_spaced
 70
   64
  3
----        --------        ----
 72
   65
 73
    2
 40
12
 49
6
 49
-6
  0
LTYPE
  2
long_dashed_dotted
 70
   64
  3
------------- --- --------------
 72
   65
 73
    4
 40
15.25
 49
12
 49
-1.5
 49
0.25
 49
-1.5
  0
LTYPE
  2
long_dashed_double-dotted
 70
   64
  3
----------- --- --- ------------
 72
   65
 73
    6
 40
17
 49
12
 49
-1.5
 49
0.25
 49
-1.5
 49
0.25
 49
-1.5
  0
LTYPE
  2
long_dashed_triplicate-dotted
 70
   64
  3
--------- --- --- --- ----------
 72
   65
 73
    8
 40
18.75
 49
12
 49
-1.5
 49
0.25
 49
-1.5
 49
0.25
 49
-1.5
 49
0.25
 49
-1.5
  0
LTYPE
  2
dotted
 70
   64
  3
   -       -       -       -    
 72
   65
 73
    2
 40
1.75
 49
0.25
 49
-1.5
  0
LTYPE
  2
chain
 70
   64
  3
-------------- -- --------------
 72
   65
 73
    4
 40
18.5
 49
12
 49
-1.5
 49
3.5
 49
-1.5
  0
LTYPE
  2
chain_double_dash
 70
   64
  3
------------ -- -- -------------
 72
   65
 73
    6
 40
23.5
 49
12
 49
-1.5
 49
3.5
 49
-1.5
 49
3.5
 49
-1.5
  0
LTYPE
  2
dashed_dotted
 70
   64
  3
-----------     -     ----------
 72
   65
 73
    4
 40
9.25
 49
6
 49
-1.5
 49
0.25
 49
-1.5
  0
LTYPE
  2
double-dashed_dotted
 70
   64
  3
------   -----------   -   -----
 72
   65
 73
    6
 40
16.75
 49
6
 49
-1.5
 49
6
 49
-1.5
 49
0.25
 49
-1.5
  0
LTYPE
  2
dashed_double-dotted
 70
   64
  3
---------    -    -    ---------
 72
   65
 73
    6
 40
11
 49
6
 49
-1.5
 49
0.25
 49
-1.5
 49
0.25
 49
-1.5
  0
LTYPE
  2
double-dashed_double-dotted
 70
   64
  3
-----   ---------   -   -   ----
 72
   65
 73
    8
 40
18.5
 49
6
 49
-1.5
 49
6
 49
-1.5
 49
0.25
 49
-1.5
 49
0.25
 49
-1.5
  0
LTYPE
  2
dashed_triplicate-dotted
 70
   64
  3
-------    -    -    -    ------
 72
   65
 73
    8
 40
12.75
 49
6
 49
-1.5
 49
0.25
 49
-1.5
 49
0.25
 49
-1.5
 49
0.25
 49
-1.5
  0
LTYPE
  2
double-dashed_triplicate-dotted
 70
   64
  3
-----  ---------  -  -  -  -----
 72
   65
 73
   10
 40
20.25
 49
6
 49
-1.5
 49
6
 49
-1.5
 49
0.25
 49
-1.5
 49
0.25
 49
-1.5
 49
0.25
 49
-1.5
  0
LTYPE
  2
undefined
 70
   64
  3
--------------------------------
 72
   65
 73
    0
 40
0
  0
LTYPE
  2
BORDER
 70
   64
  3
----     --------     -     ----
 72
   65
 73
    0
 40
0
  0
LTYPE
  2
BORDER2
 70
   64
  3
----     --------     -     ----
 72
   65
 73
    0
 40
0
  0
LTYPE
  2
BORDERX2
 70
   64
  3
----     --------     -     ----
 72
   65
 73
    0
 40
0
  0
LTYPE
  2
CENTER
 70
   64
  3
----------    ----    ----------
 72
   65
 73
    0
 40
0
  0
LTYPE
  2
CENTER2_21
 70
   64
  3
----------    ----    ----------
 72
   65
 73
    0
 40
0
  0
LTYPE
  2
CENTERX2
 70
   64
  3
----------    ----    ----------
 72
   65
 73
    0
 40
0
  0
LTYPE
  2
DASHDOT
 70
   64
  3
--------        -        -------
 72
   65
 73
    0
 40
0
  0
LTYPE
  2
DASHDOT2
 70
   64
  3
--------        -        -------
 72
   65
 73
    0
 40
0
  0
LTYPE
  2
DASHDOTX2
 70
   64
  3
--------        -        -------
 72
   65
 73
    0
 40
0
  0
LTYPE
  2
DASHED
 70
   64
  3
------     -----------     -----
 72
   65
 73
    0
 40
0
  0
LTYPE
  2
DASHED2_27
 70
   64
  3
------     -----------     -----
 72
   65
 73
    0
 40
0
  0
LTYPE
  2
DASHEDX2
 70
   64
  3
------     -----------     -----
 72
   65
 73
    0
 40
0
  0
LTYPE
  2
DIVIDE
 70
   64
  3
------      -      -      ------
 72
   65
 73
    0
 40
0
  0
LTYPE
  2
DIVIDE2
 70
   64
  3
------      -      -      ------
 72
   65
 73
    0
 40
0
  0
LTYPE
  2
DIVIDEX2
 70
   64
  3
------      -      -      ------
 72
   65
 73
    0
 40
0
  0
LTYPE
  2
DOT_32
 70
   64
  3
-               -               
 72
   65
 73
    0
 40
0
  0
ENDTAB
  0
TABLE
  2
STYLE
  5
3
100
AcDbSymbolTable
 70
     1
  0
STYLE
  5
10
100
AcDbSymbolTableRecord
100
AcDbTextStyleTableRecord
  2
STANDARD
 70
     0
 40
0.0
 41
1.0
 50
0.0
 71
     0
 42
0.2
  3
txt
  4
bigfont.shx
  0
STYLE
  5
26
100
AcDbSymbolTableRecord
100
AcDbTextStyleTableRecord
  2
TATEGAKI
 70
    68
 40
0.0
 41
1.0
 50
0.0
 71
     0
 42
1.0
  3
txt
  4
bigfont.shx
  0
ENDTAB
  0
TABLE
  2
LAYER
 70
    2
  0
LAYER
  2
_0-0_0
 70
   64
 62
    7
  6
CONTINUOUS
  0
LAYER
  2
ADD_LINE
 70
   64
 62
    7
  6
CONTINUOUS
  0
ENDTAB
  0
ENDSEC
  0
SECTION
  2
BLOCKS
  0
ENDSEC
  0
SECTION
  2
ENTITIES
  0
ARC
  8
_0-0_0
  6
CONTINUOUS
 62
    7
 10
650.65892500000336
 20
236.31966749999992
 40
2.5
 50
270.000001
 51
90.000002999999992
  0
ARC
  8
_0-0_0
  6
CONTINUOUS
 62
    7
 10
734.23115900000266
 20
245.64934849999918
 40
92.581778
 50
117.14650100000003
 51
180.82292000000004
  0
ARC
  8
_0-0_0
  6
CONTINUOUS
 62
    7
 10
995.12477900000511
 20
225.30480549999996
 40
353.96840900000001
 50
149.98251200000001
 51
171.93726699999999
  0
ARC
  8
_0-0_0
  6
CONTINUOUS
 62
    7
 10
737.54372000000149
 20
243.76226349999709
 40
89.886542000000006
 50
121.799458
 51
179.644699
  0
ARC
  8
_0-0_0
  6
CONTINUOUS
 62
    7
 10
748.45655400000396
 20
234.2602804999988
 40
100.97253999999998
 50
183.37287500000005
 51
226.10626800000003
  0
ARC
  8
_0-0_0
  6
CONTINUOUS
 62
    7
 10
746.32447400000819
 20
233.72802349999986
 40
104.80521199999998
 50
182.95799600000001
 51
225.98997700000004
  0
ARC
  8
_0-0_0
  6
CONTINUOUS
 62
    7
 10
860.23794000000623
 20
224.26320949999717
 40
224.61562799999996
 50
178.965204
 51
214.73064299999999
  0
ARC
  8
_0-0_0
  6
CONTINUOUS
 62
    7
 10
880.48610800000461
 20
233.28194749999966
 40
238.87873500000001
 50
181.19030200000006
 51
213.25618200000002
  0
ARC
  8
_0-0_0
  6
CONTINUOUS
 62
    7
 10
995.12477900000511
 20
225.30480549999996
 40
359.96840900000001
 50
149.970395
 51
174.13014000000001
  0
ARC
  8
_0-0_0
  6
CONTINUOUS
 62
    7
 10
650.65892500000336
 20
656.4725234999969
 40
2.5
 50
270.000001
 51
90.000002999999992
  0
ARC
  8
_0-0_0
  6
CONTINUOUS
 62
    7
 10
734.23115900000266
 20
647.14287249999688
 40
92.581778
 50
179.17709000000002
 51
242.85349600000004
  0
ARC
  8
_0-0_0
  6
CONTINUOUS
 62
    7
 10
995.12477900000511
 20
667.48741549999977
 40
353.96840900000001
 50
188.06274300000001
 51
210.017484
  0
ARC
  8
_0-0_0
  6
CONTINUOUS
 62
    7
 10
737.54372000000149
 20
649.029957499999
 40
89.886542000000006
 50
180.35532500000002
 51
238.20055200000002
  0
ARC
  8
_0-0_0
  6
CONTINUOUS
 62
    7
 10
748.45655400000396
 20
658.53197149999687
 40
100.97253999999998
 50
133.893742
 51
176.62714800000001
  0
ARC
  8
_0-0_0
  6
CONTINUOUS
 62
    7
 10
746.32447400000819
 20
659.06419849999656
 40
104.80521199999998
 50
134.01003299999999
 51
177.04201399999999
  0
ARC
  8
_0-0_0
  6
CONTINUOUS
 62
    7
 10
860.23794000000623
 20
668.52898049999931
 40
224.61562799999996
 50
145.26935399999999
 51
181.03479200000001
  0
ARC
  8
_0-0_0
  6
CONTINUOUS
 62
    7
 10
880.48610800000461
 20
659.51030449999962
 40
238.87873500000001
 50
146.74382800000001
 51
178.809708
  0
ARC
  8
_0-0_0
  6
CONTINUOUS
 62
    7
 10
995.12477900000511
 20
667.48741549999977
 40
359.96840900000001
 50
185.869856
 51
210.02960100000001
  0
ARC
  8
_0-0_0
  6
CONTINUOUS
 62
    7
 10
618.03915800000686
 20
675.8777964999972
 40
20.781637
 50
303.996174
 51
305.56345700000003
  0
ARC
  8
_0-0_0
  6
CONTINUOUS
 62
    7
 10
618.03915800000686
 20
675.8777964999972
 40
20.781637
 50
326.71425800000003
 51
328.44934500000005
  0
ARC
  8
_0-0_0
  6
CONTINUOUS
 62
    7
 10
625.75008000000525
 20
656.43394949999856
 40
11.450499000000001
 50
44.590166000000004
 51
47.247489000000002
  0
ARC
  8
_0-0_0
  6
CONTINUOUS
 62
    7
 10
641.27869000000646
 20
675.8777964999972
 40
20.781637
 50
234.43651700000007
 51
236.003827
  0
ARC
  8
_0-0_0
  6
CONTINUOUS
 62
    7
 10
641.27869000000646
 20
675.8777964999972
 40
20.781637
 50
211.55064300000001
 51
213.28574299999994
  0
ARC
  8
_0-0_0
  6
CONTINUOUS
 62
    7
 10
633.56776800000807
 20
656.43394949999856
 40
11.450499000000001
 50
132.752568
 51
135.40989400000001
  0
LINE
  8
_0-0_0
  6
CONTINUOUS
 62
    7
 10
509.30745600000228
 20
455.39611449999938
 11
509.30745600000228
 21
446.39611449999938
  0
LINE
  8
_0-0_0
  6
CONTINUOUS
 62
    7
 10
514.30745600000228
 20
446.39611449999938
 11
514.30745600000228
 21
455.39611449999938
  0
ARC
  8
_0-0_0
  6
CONTINUOUS
 62
    7
 10
511.80745600000228
 20
455.39611449999938
 40
2.5
 50
0
 51
180.00000500000002
  0
LINE
  8
_0-0_0
  6
CONTINUOUS
 62
    7
 10
503.80745700000267
 20
446.39611449999938
 11
503.80745700000267
 21
452.39611449999938
  0
ARC
  8
_0-0_0
  6
CONTINUOUS
 62
    7
 10
506.80745600000233
 20
452.39611449999938
 40
3
 50
90.000003000000007
 51
180.00000499999999
  0
LINE
  8
_0-0_0
  6
CONTINUOUS
 62
    7
 10
506.80745600000233
 20
455.39611449999938
 11
509.30745600000228
 21
455.39611449999938
  0
LINE
  8
_0-0_0
  6
CONTINUOUS
 62
    7
 10
514.30745600000228
 20
455.39611449999938
 11
516.80745600000228
 21
455.39611449999938
  0
ARC
  8
_0-0_0
  6
CONTINUOUS
 62
    7
 10
516.80745600000228
 20
452.39611449999938
 40
3
 50
0
 51
90.000003000000007
  0
LINE
  8
_0-0_0
  6
CONTINUOUS
 62
    7
 10
519.80745600000228
 20
452.39611449999938
 11
519.80745600000228
 21
446.39611449999938
  0
ARC
  8
_0-0_0
  6
CONTINUOUS
 62
    7
 10
503.10399600000528
 20
469.70144249999794
 40
23.315942
 50
119.37325200000001
 51
271.72891299999998
  0
ARC
  8
_0-0_0
  6
CONTINUOUS
 62
    7
 10
501.81795500000595
 20
464.84440249999898
 40
27.144757999999999
 50
56.647519000000003
 51
111.958466
  0
ARC
  8
_0-0_0
  6
CONTINUOUS
 62
    7
 10
509.36232700000255
 20
478.27294549999715
 40
11.829526
 50
303.12447800000001
 51
51.404390000000049
  0
ARC
  8
_0-0_0
  6
CONTINUOUS
 62
    7
 10
503.10399600000528
 20
469.70144249999794
 40
17.315940999999999
 50
120.645251
 51
258.05307099999999
  0
ARC
  8
_0-0_0
  6
CONTINUOUS
 62
    7
 10
501.81795500000595
 20
464.84440249999898
 40
21.144757999999999
 50
68.653694000000002
 51
110.89163200000002
  0
ARC
  8
_0-0_0
  6
CONTINUOUS
 62
    7
 10
502.85472800000571
 20
466.59403549999843
 40
14.229861
 50
256.44475299999999
 51
273.838977
  0
ARC
  8
_0-0_0
  6
CONTINUOUS
 62
    7
 10
509.03316400000773
 20
477.86022549999689
 40
11.674524999999999
 50
252.54668200000003
 51
305.58504000000005
  0
ARC
  8
_0-0_0
  6
CONTINUOUS
 62
    7
 10
508.21892500000831
 20
472.62025049999647
 40
6.4805219999999988
 50
73.059596999999997
 51
245.50134200000005
  0
ARC
  8
_0-0_0
  6
CONTINUOUS
 62
    7
 10
509.91728900000453
 20
481.03817349999736
 40
2.2267060000000001
 50
274.89257400000008
 51
27.538918000000052
  0
ARC
  8
_0-0_0
  6
CONTINUOUS
 62
    7
 10
488.93287600000627
 20
462.36034749999817
 40
30.256993999999999
 50
40.642074000000001
 51
47.138049000000002
  0
LINE
  8
_0-0_0
  6
CONTINUOUS
 62
    7
 10
507.91094200000225
 20
477.92354949999935
 11
503.60988600000564
 21
472.47269749999759
  0
LINE
  8
_0-0_0
  6
CONTINUOUS
 62
    7
 10
505.07405800000566
 20
469.82195649999994
 11
506.58400700000493
 21
471.31533449999915
  0
LINE
  8
_0-0_0
  6
CONTINUOUS
 62
    7
 10
506.58400700000493
 20
471.31533449999915
 11
508.91756400000304
 21
477.06484549999732
  0
LINE
  8
_0-0_0
  6
CONTINUOUS
 62
    7
 10
510.381736000003
 20
477.32619849999901
 11
507.7278970000043
 21
468.36590149999756
  0
LINE
  8
_0-0_0
  6
CONTINUOUS
 62
    7
 10
511.11385300000256
 20
468.51523949999682
 11
511.7086710000076
 21
477.32619849999901
  0
LINE
  8
_0-0_0
  6
CONTINUOUS
 62
    7
 10
513.03560600000492
 20
477.77422649999789
 11
514.3625100000063
 21
471.16598149999845
  0
LINE
  8
_0-0_0
  6
CONTINUOUS
 62
    7
 10
516.74181300000782
 20
473.07004949999828
 11
513.63042400000268
 21
478.96892849999858
  0
LINE
  8
_0-0_0
  6
CONTINUOUS
 62
    7
 10
513.63042400000268
 20
478.96892849999858
 11
513.49315600000409
 21
479.86492549999821
  0
LINE
  8
_0-0_0
  6
CONTINUOUS
 62
    7
 10
513.49315600000409
 20
479.86492549999821
 11
519.07537000000593
 21
476.31815649999771
  0
LINE
  8
_0-0_0
  6
CONTINUOUS
 62
    7
 10
520.26503700000467
 20
479.1182514999964
 11
513.63042400000268
 21
480.87298149999697
  0
ARC
  8
_0-0_0
  6
CONTINUOUS
 62
    7
 10
453.50270100000489
 20
562.15352449999773
 40
143.40012899999999
 50
311.42411400000003
 51
328.55387400000006
  0
ARC
  8
_0-0_0
  6
CONTINUOUS
 62
    7
 10
523.1855080000023
 20
488.37697949999711
 40
42.11656099999999
 50
265.39951300000001
 51
306.74199199999998
  0
ARC
  8
_0-0_0
  6
CONTINUOUS
 62
    7
 10
453.50270100000489
 20
562.15352449999773
 40
137.40012899999999
 50
311.52921700000002
 51
328.52322000000004
  0
ARC
  8
_0-0_0
  6
CONTINUOUS
 62
    7
 10
523.1855080000023
 20
488.37697949999711
 40
36.11656099999999
 50
280.69785300000001
 51
306.36354500000004
  0
ARC
  8
_0-0_0
  6
CONTINUOUS
 62
    7
 10
523.19976000000315
 20
486.43041549999907
 40
34.202940999999996
 50
264.30796700000002
 51
281.27972999999997
  0
LINE
  8
_0-0_0
  6
CONTINUOUS
 62
    7
 10
608.65892400000303
 20
233.81966749999992
 11
608.65892400000303
 21
231.31966749999995
  0
ARC
  8
_0-0_0
  6
CONTINUOUS
 62
    7
 10
611.65892400000303
 20
231.31966749999995
 40
3
 50
180.00000500000002
 51
270.00000100000005
  0
LINE
  8
_0-0_0
  6
CONTINUOUS
 62
    7
 10
611.65892400000303
 20
228.31966749999995
 11
629.65892400000303
 21
228.31966749999995
  0
LINE
  8
_0-0_0
  6
CONTINUOUS
 62
    7
 10
629.65892400000303
 20
244.31966749999992
 11
611.65892400000303
 21
244.31966749999992
  0
ARC
  8
_0-0_0
  6
CONTINUOUS
 62
    7
 10
611.65892400000303
 20
241.31966749999992
 40
3
 50
90.000003000000007
 51
180.00000499999999
  0
LINE
  8
_0-0_0
  6
CONTINUOUS
 62
    7
 10
608.65892400000303
 20
241.31966749999992
 11
608.65892400000303
 21
238.81966749999995
  0
LINE
  8
_0-0_0
  6
CONTINUOUS
 62
    7
 10
608.65892400000303
 20
233.81966749999992
 11
629.65892400000303
 21
233.81966749999992
  0
ARC
  8
_0-0_0
  6
CONTINUOUS
 62
    7
 10
608.65892400000303
 20
236.31966749999992
 40
2.5
 50
90.000003000000007
 51
270.00000100000005
  0
LINE
  8
_0-0_0
  6
CONTINUOUS
 62
    7
 10
608.65892400000303
 20
238.81966749999995
 11
625.61308600000484
 21
238.81966749999995
  0
LINE
  8
_0-0_0
  6
CONTINUOUS
 62
    7
 10
625.61308600000484
 20
238.81966749999995
 11
629.65892400000303
 21
238.81966749999995
  0
LINE
  8
_0-0_0
  6
CONTINUOUS
 62
    7
 10
509.30745600000228
 20
437.39611449999938
 11
509.30745600000228
 21
446.39611449999938
  0
LINE
  8
_0-0_0
  6
CONTINUOUS
 62
    7
 10
514.30745600000228
 20
446.39611449999938
 11
514.30745600000228
 21
437.39611449999938
  0
ARC
  8
_0-0_0
  6
CONTINUOUS
 62
    7
 10
511.80745600000228
 20
437.39611449999938
 40
2.5
 50
180.00000500000002
 51
0.0000000000000254
  0
LINE
  8
_0-0_0
  6
CONTINUOUS
 62
    7
 10
503.80745700000267
 20
446.39611449999938
 11
503.80745700000267
 21
440.39611449999938
  0
ARC
  8
_0-0_0
  6
CONTINUOUS
 62
    7
 10
506.80745600000233
 20
440.39611449999938
 40
3
 50
180.00000500000002
 51
270.00000100000005
  0
LINE
  8
_0-0_0
  6
CONTINUOUS
 62
    7
 10
506.80745600000233
 20
437.39611449999938
 11
509.30745600000228
 21
437.39611449999938
  0
LINE
  8
_0-0_0
  6
CONTINUOUS
 62
    7
 10
514.30745600000228
 20
437.39611449999938
 11
516.80745600000228
 21
437.39611449999938
  0
ARC
  8
_0-0_0
  6
CONTINUOUS
 62
    7
 10
516.80745600000228
 20
440.39611449999938
 40
3
 50
270.000001
 51
0
  0
LINE
  8
_0-0_0
  6
CONTINUOUS
 62
    7
 10
519.80745600000228
 20
440.39611449999938
 11
519.80745600000228
 21
446.39611449999938
  0
ARC
  8
_0-0_0
  6
CONTINUOUS
 62
    7
 10
503.10399600000528
 20
423.09078649999719
 40
23.315942
 50
88.271077000000005
 51
240.62674499999997
  0
ARC
  8
_0-0_0
  6
CONTINUOUS
 62
    7
 10
501.81795500000595
 20
427.94781149999835
 40
27.144757999999999
 50
248.04151600000003
 51
303.35247000000004
  0
ARC
  8
_0-0_0
  6
CONTINUOUS
 62
    7
 10
509.36232700000255
 20
414.51926849999654
 40
11.829526
 50
308.59556900000001
 51
56.875515000000014
  0
ARC
  8
_0-0_0
  6
CONTINUOUS
 62
    7
 10
503.10399600000528
 20
423.09078649999719
 40
17.315940999999999
 50
101.94695299999999
 51
239.354772
  0
ARC
  8
_0-0_0
  6
CONTINUOUS
 62
    7
 10
501.81795500000595
 20
427.94781149999835
 40
21.144757999999999
 50
249.10836400000002
 51
291.34630900000002
  0
ARC
  8
_0-0_0
  6
CONTINUOUS
 62
    7
 10
502.85472800000571
 20
426.19817749999856
 40
14.229861
 50
86.161019999999994
 51
103.555244
  0
ARC
  8
_0-0_0
  6
CONTINUOUS
 62
    7
 10
509.03316400000773
 20
414.93198849999681
 40
11.674524999999999
 50
54.414966000000014
 51
107.45333500000001
  0
ARC
  8
_0-0_0
  6
CONTINUOUS
 62
    7
 10
508.21892500000831
 20
420.17196349999722
 40
6.4805219999999988
 50
114.49870900000001
 51
286.94040000000001
  0
ARC
  8
_0-0_0
  6
CONTINUOUS
 62
    7
 10
509.91728900000453
 20
411.75404049999997
 40
2.2267060000000001
 50
332.46107000000006
 51
85.107436000000106
  0
ARC
  8
_0-0_0
  6
CONTINUOUS
 62
    7
 10
488.93287600000627
 20
430.43186649999916
 40
30.256993999999999
 50
312.86195099999998
 51
319.35792600000002
  0
LINE
  8
_0-0_0
  6
CONTINUOUS
 62
    7
 10
507.91094200000225
 20
414.86866449999798
 11
503.60988600000564
 21
420.3195154999994
  0
LINE
  8
_0-0_0
  6
CONTINUOUS
 62
    7
 10
505.07405800000566
 20
422.97027249999883
 11
506.58400700000493
 21
421.47687949999818
  0
LINE
  8
_0-0_0
  6
CONTINUOUS
 62
    7
 10
506.58400700000493
 20
421.47687949999818
 11
508.91756400000304
 21
415.72736849999637
  0
LINE
  8
_0-0_0
  6
CONTINUOUS
 62
    7
 10
510.381736000003
 20
415.46601549999832
 11
507.7278970000043
 21
424.42631149999943
  0
LINE
  8
_0-0_0
  6
CONTINUOUS
 62
    7
 10
511.11385300000256
 20
424.27697449999687
 11
511.7086710000076
 21
415.46601549999832
  0
LINE
  8
_0-0_0
  6
CONTINUOUS
 62
    7
 10
513.03560600000492
 20
415.01800249999724
 11
514.3625100000063
 21
421.62621749999744
  0
LINE
  8
_0-0_0
  6
CONTINUOUS
 62
    7
 10
516.74181300000782
 20
419.72216449999905
 11
513.63042400000268
 21
413.82330049999655
  0
LINE
  8
_0-0_0
  6
CONTINUOUS
 62
    7
 10
513.63042400000268
 20
413.82330049999655
 11
513.49315600000409
 21
412.92727349999768
  0
LINE
  8
_0-0_0
  6
CONTINUOUS
 62
    7
 10
513.49315600000409
 20
412.92727349999768
 11
519.07537000000593
 21
416.47405649999928
  0
LINE
  8
_0-0_0
  6
CONTINUOUS
 62
    7
 10
520.26503700000467
 20
413.67396249999729
 11
513.63042400000268
 21
411.91923249999672
  0
ARC
  8
_0-0_0
  6
CONTINUOUS
 62
    7
 10
525.0866920000044
 20
245.64934849999918
 40
92.581778
 50
359.17708199999998
 51
62.853497999999988
  0
ARC
  8
_0-0_0
  6
CONTINUOUS
 62
    7
 10
540.78560500000458
 20
273.32009349999862
 40
60.811106999999993
 50
64.120197000000005
 51
154.18713600000004
  0
ARC
  8
_0-0_0
  6
CONTINUOUS
 62
    7
 10
535.03362200000265
 20
274.05269849999968
 40
55.344825
 50
152.27665000000002
 51
184.55094600000001
  0
ARC
  8
_0-0_0
  6
CONTINUOUS
 62
    7
 10
508.08016200000566
 20
272.5856574999998
 40
28.367999999999999
 50
185.91684799999999
 51
318.40186299999999
  0
ARC
  8
_0-0_0
  6
CONTINUOUS
 62
    7
 10
453.50270100000489
 20
330.63866649999909
 40
143.40012899999999
 50
31.446126000000003
 51
48.575896
  0
ARC
  8
_0-0_0
  6
CONTINUOUS
 62
    7
 10
523.1855080000023
 20
404.41523449999659
 40
42.11656099999999
 50
53.25800000000001
 51
94.600476
  0
ARC
  8
_0-0_0
  6
CONTINUOUS
 62
    7
 10
264.19308800000726
 20
225.30480549999996
 40
353.96840900000001
 50
8.0627380000000013
 51
30.017490000000002
  0
ARC
  8
_0-0_0
  6
CONTINUOUS
 62
    7
 10
453.50270100000489
 20
330.63866649999909
 40
137.40012899999999
 50
31.476780000000005
 51
48.470782
  0
ARC
  8
_0-0_0
  6
CONTINUOUS
 62
    7
 10
523.1855080000023
 20
404.41523449999659
 40
36.11656099999999
 50
53.636450999999994
 51
79.302137000000002
  0
ARC
  8
_0-0_0
  6
CONTINUOUS
 62
    7
 10
471.27992300000187
 20
245.46343549999804
 40
146.38345099999998
 50
359.55230499999999
 51
11.621400000000012
  0
ARC
  8
_0-0_0
  6
CONTINUOUS
 62
    7
 10
523.19976000000315
 20
406.3618134999997
 40
34.202940999999996
 50
78.720273000000006
 51
95.692042999999998
  0
ARC
  8
_0-0_0
  6
CONTINUOUS
 62
    7
 10
521.7741010000027
 20
243.76226349999709
 40
89.886542000000006
 50
0.355304
 51
58.200541000000008
  0
ARC
  8
_0-0_0
  6
CONTINUOUS
 62
    7
 10
541.33583700000599
 20
269.82100949999949
 40
57.504126999999997
 50
61.085148000000004
 51
123.58726
  0
ARC
  8
_0-0_0
  6
CONTINUOUS
 62
    7
 10
544.75075400000787
 20
271.6794994999982
 40
57.974566999999993
 50
127.41767100000001
 51
180.03769400000004
  0
ARC
  8
_0-0_0
  6
CONTINUOUS
 62
    7
 10
508.19264900000417
 20
274.32219949999853
 40
21.583582
 50
187.134998
 51
306.83911799999998
  0
ARC
  8
_0-0_0
  6
CONTINUOUS
 62
    7
 10
519.14266100000532
 20
259.5586504999992
 40
3.2038899999999995
 50
308.41741100000002
 51
84.107544000000019
  0
ARC
  8
_0-0_0
  6
CONTINUOUS
 62
    7
 10
519.78624700000364
 20
271.37896249999903
 40
8.6390829999999994
 50
60.065857999999999
 51
267.91261300000008
  0
ARC
  8
_0-0_0
  6
CONTINUOUS
 62
    7
 10
517.35659000000305
 20
264.37615449999794
 40
15.980615999999999
 50
318.33227700000003
 51
65.051787000000033
  0
LINE
  8
_0-0_0
  6
CONTINUOUS
 62
    7
 10
518.65023000000656
 20
264.82677749999857
 11
512.38188900000387
 21
270.54107149999982
  0
LINE
  8
_0-0_0
  6
CONTINUOUS
 62
    7
 10
513.20326900000509
 20
273.32766249999986
 11
519.34191100000317
 21
265.92022249999718
  0
LINE
  8
_0-0_0
  6
CONTINUOUS
 62
    7
 10
520.33620400000655
 20
265.92022249999718
 11
517.26686800000607
 21
277.48992449999787
  0
LINE
  8
_0-0_0
  6
CONTINUOUS
 62
    7
 10
520.72527200000332
 20
277.63103749999937
 11
521.4169530000072
 21
266.06133549999868
  0
LINE
  8
_0-0_0
  6
CONTINUOUS
 62
    7
 10
522.1086040000082
 20
265.53222149999783
 11
524.22689000000537
 21
276.22008749999804
  0
LINE
  8
_0-0_0
  6
CONTINUOUS
 62
    7
 10
527.98787600000651
 20
272.76330049999888
 11
521.8492350000015
 21
263.83910649999962
  0
LINE
  8
_0-0_0
  6
CONTINUOUS
 62
    7
 10
522.97322800000256
 20
262.60454849999951
 11
530.49523100000806
 21
268.70684349999647
  0
LINE
  8
_0-0_0
  6
CONTINUOUS
 62
    7
 10
531.74889300000359
 20
266.06133549999868
 11
523.79457800000819
 21
262.04015649999928
  0
LINE
  8
_0-0_0
  6
CONTINUOUS
 62
    7
 10
523.79457800000819
 20
260.34704149999743
 11
531.61919300000591
 21
261.3346814999968
  0
ARC
  8
_0-0_0
  6
CONTINUOUS
 62
    7
 10
510.86128900000773
 20
234.2602804999988
 40
100.97253999999998
 50
313.89371999999997
 51
356.62712599999998
  0
ARC
  8
_0-0_0
  6
CONTINUOUS
 62
    7
 10
567.12877500000468
 20
176.0926324999964
 40
20.045020999999998
 50
217.18181999999999
 51
313.26799199999999
  0
ARC
  8
_0-0_0
  6
CONTINUOUS
 62
    7
 10
561.0542820000046
 20
173.56846249999944
 40
13.780241999999998
 50
113.75361100000002
 51
224.10076100000003
  0
ARC
  8
_0-0_0
  6
CONTINUOUS
 62
    7
 10
557.9782930000074
 20
183.56293849999932
 40
3.6028519999999995
 50
299.272088
 51
133.384469
  0
ARC
  8
_0-0_0
  6
CONTINUOUS
 62
    7
 10
512.99333900000784
 20
233.72802349999986
 40
104.80521199999998
 50
314.01002399999999
 51
357.04199199999999
  0
ARC
  8
_0-0_0
  6
CONTINUOUS
 62
    7
 10
568.09435100000701
 20
177.92994349999938
 40
26.404957999999997
 50
229.02045000000001
 51
312.13923499999999
  0
ARC
  8
_0-0_0
  6
CONTINUOUS
 62
    7
 10
562.67827500000567
 20
174.44172349999644
 40
20.299819999999997
 50
171.98084399999999
 51
234.11126300000004
  0
ARC
  8
_0-0_0
  6
CONTINUOUS
 62
    7
 10
559.5911780000024
 20
175.12186849999853
 40
17.149747999999995
 50
106.23169400000003
 51
172.792147
  0
ARC
  8
_0-0_0
  6
CONTINUOUS
 62
    7
 10
557.83785100000387
 20
176.41270149999764
 40
15.476869000000001
 50
355.49334199999998
 51
101.3293400000001
  0
ARC
  8
_0-0_0
  6
CONTINUOUS
 62
    7
 10
565.22008400000777
 20
174.48505849999856
 40
8.0781770000000002
 50
132.717816
 51
5.0533140000000003
  0
ARC
  8
_0-0_0
  6
CONTINUOUS
 62
    7
 10
399.079911000008
 20
224.26320949999717
 40
224.61562799999996
 50
325.26934499999999
 51
1.0347959999999878
  0
ARC
  8
_0-0_0
  6
CONTINUOUS
 62
    7
 10
535.5911780000024
 20
135.03724349999902
 40
61.751655
 50
219.238854
 51
321.14279099999999
  0
ARC
  8
_0-0_0
  6
CONTINUOUS
 62
    7
 10
519.4460670000044
 20
120.28129349999656
 40
39.931575000000002
 50
129.353702
 51
217.49372700000001
  0
ARC
  8
_0-0_0
  6
CONTINUOUS
 62
    7
 10
512.26534200000606
 20
127.58802549999749
 40
29.742521
 50
42.611194000000012
 51
127.582633
  0
ARC
  8
_0-0_0
  6
CONTINUOUS
 62
    7
 10
519.76195500000176
 20
131.74815049999961
 40
21.503274999999999
 50
289.42197099999998
 51
47.98446600000004
  0
ARC
  8
_0-0_0
  6
CONTINUOUS
 62
    7
 10
378.83171200000652
 20
233.28194749999966
 40
238.87873500000001
 50
326.74381899999997
 51
358.80969900000002
  0
ARC
  8
_0-0_0
  6
CONTINUOUS
 62
    7
 10
534.91078900000139
 20
136.13761649999654
 40
55.260889999999996
 50
222.43400300000005
 51
322.22223400000001
  0
ARC
  8
_0-0_0
  6
CONTINUOUS
 62
    7
 10
518.99456000000646
 20
120.05546349999716
 40
32.682098000000003
 50
118.845046
 51
220.45225099999999
  0
ARC
  8
_0-0_0
  6
CONTINUOUS
 62
    7
 10
513.04192300000432
 20
129.81824949999645
 40
21.264775999999998
 50
11.749127
 51
117.48668499999999
  0
ARC
  8
_0-0_0
  6
CONTINUOUS
 62
    7
 10
523.01656300000468
 20
132.06709049999699
 40
11.042505
 50
292.29540500000002
 51
10.863805000000006
  0
ARC
  8
_0-0_0
  6
CONTINUOUS
 62
    7
 10
526.48336000000563
 20
122.87257149999644
 40
1.2519979999999999
 50
158.33138000000002
 51
305.24738300000007
  0
ARC
  8
_0-0_0
  6
CONTINUOUS
 62
    7
 10
520.71163100000558
 20
127.64121749999688
 40
6.3071519999999994
 50
316.939301
 51
159.41747599999999
  0
ARC
  8
_0-0_0
  6
CONTINUOUS
 62
    7
 10
531.24303400000645
 20
121.67326049999976
 40
18.361329999999995
 50
153.526219
 51
190.72638000000001
  0
ARC
  8
_0-0_0
  6
CONTINUOUS
 62
    7
 10
522.73622800000157
 20
120.27317549999864
 40
9.744806999999998
 50
191.94739899999999
 51
295.37502799999999
  0
LINE
  8
_0-0_0
  6
CONTINUOUS
 62
    7
 10
521.81633700000384
 20
132.98154949999665
 11
525.61861300000601
 21
125.28208649999944
  0
LINE
  8
_0-0_0
  6
CONTINUOUS
 62
    7
 10
525.01583000000392
 20
124.24158949999767
 11
518.89504200000374
 21
132.7545294999982
  0
LINE
  8
_0-0_0
  6
CONTINUOUS
 62
    7
 10
516.27516900000774
 20
129.91688249999791
 11
524.41301700000622
 21
123.2578864999996
  0
LINE
  8
_0-0_0
  6
CONTINUOUS
 62
    7
 10
523.74068400000397
 20
122.29310349999652
 11
514.86092300000746
 21
126.322552499998
  0
LINE
  8
_0-0_0
  6
CONTINUOUS
 62
    7
 10
514.79134300000442
 20
121.47962649999683
 11
524.11162500000501
 21
121.83909349999887
  0
LINE
  8
_0-0_0
  6
CONTINUOUS
 62
    7
 10
524.87673100000393
 20
121.32829049999782
 11
515.30141400000139
 21
118.03663349999988
  0
LINE
  8
_0-0_0
  6
CONTINUOUS
 62
    7
 10
517.8517370000045
 20
113.93153149999854
 11
525.38677100000496
 21
121.02561649999917
  0
LINE
  8
_0-0_0
  6
CONTINUOUS
 62
    7
 10
525.92003600000317
 20
121.02561649999917
 11
523.06832000000577
 21
112.66404449999757
  0
LINE
  8
_0-0_0
  6
CONTINUOUS
 62
    7
 10
561.92970900000364
 20
180.38471649999704
 11
559.82002900000225
 21
169.91862149999724
  0
LINE
  8
_0-0_0
  6
CONTINUOUS
 62
    7
 10
562.94237400000566
 20
168.48984949999797
 11
562.66811200000666
 21
180.86668049999935
  0
LINE
  8
_0-0_0
  6
CONTINUOUS
 62
    7
 10
562.66811200000666
 20
180.86668049999935
 11
562.87908000000607
 21
181.34870549999687
  0
LINE
  8
_0-0_0
  6
CONTINUOUS
 62
    7
 10
562.87908000000607
 20
181.34870549999687
 11
567.37270200000785
 21
169.59156449999864
  0
LINE
  8
_0-0_0
  6
CONTINUOUS
 62
    7
 10
571.04354000000603
 20
172.10480949999692
 11
562.54152500000782
 21
182.22660449999967
  0
LINE
  8
_0-0_0
  6
CONTINUOUS
 62
    7
 10
562.54152500000782
 20
183.93076749999818
 11
569.06044600000314
 21
184.94639249999821
  0
LINE
  8
_0-0_0
  6
CONTINUOUS
 62
    7
 10
567.64696400000685
 20
187.39078949999751
 11
562.33055700000841
 21
185.15296549999766
  0
LINE
  8
_0-0_0
  6
CONTINUOUS
 62
    7
 10
563.09004800000548
 20
182.76020449999851
 11
569.60893900000519
 21
183.37992549999763
  0
LINE
  8
_0-0_0
  6
CONTINUOUS
 62
    7
 10
570.95915800000512
 20
178.42231449999963
 11
564.10268300000462
 21
181.81345749999673
  0
ARC
  8
_0-0_0
  6
CONTINUOUS
 62
    7
 10
264.19308800000726
 20
225.30480549999996
 40
359.96840900000001
 50
5.8698579999999998
 51
30.029603000000009
  0
ARC
  8
_0-0_0
  6
CONTINUOUS
 62
    7
 10
264.19308800000726
 20
225.30480549999996
 40
359.96840900000001
 50
4.6997119999999999
 51
4.932887
  0
ARC
  8
_0-0_0
  6
CONTINUOUS
 62
    7
 10
641.27869000000646
 20
216.91439449999962
 40
20.781637
 50
146.71425300000007
 51
148.44925799999999
  0
LINE
  8
_0-0_0
  6
CONTINUOUS
 62
    7
 10
650.65892500000336
 20
233.81966749999992
 11
650.65892500000336
 21
231.31966749999995
  0
ARC
  8
_0-0_0
  6
CONTINUOUS
 62
    7
 10
647.65892300000269
 20
231.31966749999995
 40
3
 50
270.000001
 51
0
  0
LINE
  8
_0-0_0
  6
CONTINUOUS
 62
    7
 10
647.65892300000269
 20
228.31966749999995
 11
629.65892400000303
 21
228.31966749999995
  0
LINE
  8
_0-0_0
  6
CONTINUOUS
 62
    7
 10
629.65892400000303
 20
244.31966749999992
 11
647.65892300000269
 21
244.31966749999992
  0
ARC
  8
_0-0_0
  6
CONTINUOUS
 62
    7
 10
647.65892300000269
 20
241.31966749999992
 40
3
 50
0
 51
90.000003000000007
  0
LINE
  8
_0-0_0
  6
CONTINUOUS
 62
    7
 10
650.65892500000336
 20
241.31966749999992
 11
650.65892500000336
 21
238.81966749999995
  0
LINE
  8
_0-0_0
  6
CONTINUOUS
 62
    7
 10
650.65892500000336
 20
233.81966749999992
 11
629.65892400000303
 21
233.81966749999992
  0
LINE
  8
_0-0_0
  6
CONTINUOUS
 62
    7
 10
650.65892500000336
 20
238.81966749999995
 11
633.70474600000307
 21
238.81966749999995
  0
LINE
  8
_0-0_0
  6
CONTINUOUS
 62
    7
 10
633.70474600000307
 20
238.81966749999995
 11
629.65892400000303
 21
238.81966749999995
  0
ARC
  8
_0-0_0
  6
CONTINUOUS
 62
    7
 10
788.03788300000451
 20
245.46343549999804
 40
146.38345099999998
 50
168.378602
 51
180.44768300000001
  0
ARC
  8
_0-0_0
  6
CONTINUOUS
 62
    7
 10
618.03915800000686
 20
216.91439449999962
 40
20.781637
 50
31.550767999999998
 51
33.28574900000001
  0
ARC
  8
_0-0_0
  6
CONTINUOUS
 62
    7
 10
641.27869000000646
 20
463.62566749999678
 40
20.781637
 50
211.55078
 51
236.00390899999999
  0
ARC
  8
_0-0_0
  6
CONTINUOUS
 62
    7
 10
633.56776800000807
 20
458.33190549999927
 40
11.450499000000001
 50
141.77930499999999
 51
209.16604699999999
  0
ARC
  8
_0-0_0
  6
CONTINUOUS
 62
    7
 10
641.27869000000646
 20
477.77581349999673
 40
20.781637
 50
211.55078
 51
236.00393600000001
  0
ARC
  8
_0-0_0
  6
CONTINUOUS
 62
    7
 10
633.56776800000807
 20
472.48203649999778
 40
11.450499000000001
 50
141.77930499999999
 51
209.165978
  0
ARC
  8
_0-0_0
  6
CONTINUOUS
 62
    7
 10
641.27869000000646
 20
491.92592949999744
 40
20.781637
 50
211.55071199999998
 51
236.00388199999998
  0
ARC
  8
_0-0_0
  6
CONTINUOUS
 62
    7
 10
633.56776800000807
 20
486.63216749999992
 40
11.450499000000001
 50
141.779236
 51
209.16592399999999
  0
ARC
  8
_0-0_0
  6
CONTINUOUS
 62
    7
 10
641.27869000000646
 20
506.07607549999739
 40
20.781637
 50
211.55071199999998
 51
236.00390900000002
  0
ARC
  8
_0-0_0
  6
CONTINUOUS
 62
    7
 10
633.56776800000807
 20
500.78231349999987
 40
11.450499000000001
 50
141.779236
 51
209.16592399999999
  0
ARC
  8
_0-0_0
  6
CONTINUOUS
 62
    7
 10
641.27869000000646
 20
520.22622249999768
 40
20.781637
 50
211.55078
 51
236.00390899999999
  0
ARC
  8
_0-0_0
  6
CONTINUOUS
 62
    7
 10
641.27869000000646
 20
463.62566749999678
 40
20.781637
 50
211.55078
 51
236.00390899999999
  0
ARC
  8
_0-0_0
  6
CONTINUOUS
 62
    7
 10
633.56776800000807
 20
458.33190549999927
 40
11.450499000000001
 50
141.77930499999999
 51
209.16604699999999
  0
ARC
  8
_0-0_0
  6
CONTINUOUS
 62
    7
 10
641.27869000000646
 20
477.77581349999673
 40
20.781637
 50
211.55078
 51
236.00393600000001
  0
ARC
  8
_0-0_0
  6
CONTINUOUS
 62
    7
 10
633.56776800000807
 20
472.48203649999778
 40
11.450499000000001
 50
141.77930499999999
 51
209.165978
  0
ARC
  8
_0-0_0
  6
CONTINUOUS
 62
    7
 10
641.27869000000646
 20
491.92592949999744
 40
20.781637
 50
211.55071199999998
 51
236.00388199999998
  0
ARC
  8
_0-0_0
  6
CONTINUOUS
 62
    7
 10
633.56776800000807
 20
486.63216749999992
 40
11.450499000000001
 50
141.779236
 51
209.16592399999999
  0
ARC
  8
_0-0_0
  6
CONTINUOUS
 62
    7
 10
641.27869000000646
 20
506.07607549999739
 40
20.781637
 50
211.55071199999998
 51
236.00390900000002
  0
ARC
  8
_0-0_0
  6
CONTINUOUS
 62
    7
 10
633.56776800000807
 20
500.78231349999987
 40
11.450499000000001
 50
141.779236
 51
209.16592399999999
  0
ARC
  8
_0-0_0
  6
CONTINUOUS
 62
    7
 10
641.27869000000646
 20
520.22622249999768
 40
20.781637
 50
211.55078
 51
236.00390899999999
  0
ARC
  8
_0-0_0
  6
CONTINUOUS
 62
    7
 10
633.56776800000807
 20
514.93245949999982
 40
11.450499000000001
 50
141.779236
 51
209.16604699999999
  0
ARC
  8
_0-0_0
  6
CONTINUOUS
 62
    7
 10
618.03915800000686
 20
499.91723149999962
 40
20.781637
 50
31.550806000000001
 51
56.003917999999999
  0
ARC
  8
_0-0_0
  6
CONTINUOUS
 62
    7
 10
625.75008000000525
 20
505.21099349999713
 40
11.450499000000001
 50
321.77920000000006
 51
29.166089000000088
  0
ARC
  8
_0-0_0
  6
CONTINUOUS
 62
    7
 10
618.03915800000686
 20
485.76708549999967
 40
20.781637
 50
31.550806000000001
 51
56.003917999999999
  0
ARC
  8
_0-0_0
  6
CONTINUOUS
 62
    7
 10
625.75008000000525
 20
491.06084749999718
 40
11.450499000000001
 50
321.77920000000006
 51
29.166089000000088
  0
ARC
  8
_0-0_0
  6
CONTINUOUS
 62
    7
 10
618.03915800000686
 20
471.61695449999752
 40
20.781637
 50
31.550767999999998
 51
56.003894000000003
  0
ARC
  8
_0-0_0
  6
CONTINUOUS
 62
    7
 10
625.75008000000525
 20
476.91071649999867
 40
11.450499000000001
 50
321.77920000000006
 51
29.166021000000022
  0
ARC
  8
_0-0_0
  6
CONTINUOUS
 62
    7
 10
618.03915800000686
 20
457.46680849999757
 40
20.781637
 50
31.550767999999998
 51
56.003917999999999
  0
ARC
  8
_0-0_0
  6
CONTINUOUS
 62
    7
 10
625.75008000000525
 20
462.76057049999872
 40
11.450499000000001
 50
321.77931000000001
 51
29.166020999999997
  0
ARC
  8
_0-0_0
  6
CONTINUOUS
 62
    7
 10
618.03915800000686
 20
443.31667749999906
 40
20.781637
 50
31.550733999999999
 51
56.003894000000003
  0
ARC
  8
_0-0_0
  6
CONTINUOUS
 62
    7
 10
625.75008000000525
 20
448.61042449999877
 40
11.450499000000001
 50
330.19104299999998
 51
29.166021000000022
  0
ARC
  8
_0-0_0
  6
CONTINUOUS
 62
    7
 10
641.27869000000646
 20
463.6256364999972
 40
20.781637
 50
219.63012900000004
 51
236.00388200000003
  0
LINE
  8
_0-0_0
  6
CONTINUOUS
 62
    7
 10
623.9337960000048
 20
450.37057149999964
 11
624.53079600000638
 21
451.32181949999722
  0
ARC
  8
_0-0_0
  6
CONTINUOUS
 62
    7
 10
633.56776800000807
 20
260.22991449999972
 40
11.450499000000001
 50
141.779236
 51
209.16592399999999
  0
ARC
  8
_0-0_0
  6
CONTINUOUS
 62
    7
 10
641.27869000000646
 20
279.67382349999752
 40
20.781637
 50
211.55078
 51
236.00390899999999
  0
ARC
  8
_0-0_0
  6
CONTINUOUS
 62
    7
 10
633.56776800000807
 20
274.38006149999637
 40
11.450499000000001
 50
141.779236
 51
209.16604699999999
  0
ARC
  8
_0-0_0
  6
CONTINUOUS
 62
    7
 10
641.27869000000646
 20
293.82396949999747
 40
20.781637
 50
211.55075200000002
 51
236.00390900000002
  0
ARC
  8
_0-0_0
  6
CONTINUOUS
 62
    7
 10
633.56776800000807
 20
288.53020749999996
 40
11.450499000000001
 50
141.779236
 51
209.165978
  0
ARC
  8
_0-0_0
  6
CONTINUOUS
 62
    7
 10
641.27869000000646
 20
307.97411549999742
 40
20.781637
 50
211.55075200000002
 51
236.00390900000002
  0
ARC
  8
_0-0_0
  6
CONTINUOUS
 62
    7
 10
633.56776800000807
 20
302.68035349999991
 40
11.450499000000001
 50
141.779236
 51
209.165978
  0
ARC
  8
_0-0_0
  6
CONTINUOUS
 62
    7
 10
641.27869000000646
 20
322.12426149999737
 40
20.781637
 50
211.55075200000002
 51
236.00390900000002
  0
ARC
  8
_0-0_0
  6
CONTINUOUS
 62
    7
 10
641.27869000000646
 20
336.27440849999766
 40
20.781637
 50
211.55078
 51
236.00390899999999
  0
ARC
  8
_0-0_0
  6
CONTINUOUS
 62
    7
 10
633.56776800000807
 20
330.98064649999651
 40
11.450499000000001
 50
141.779236
 51
209.16604699999999
  0
ARC
  8
_0-0_0
  6
CONTINUOUS
 62
    7
 10
641.27869000000646
 20
350.42453949999981
 40
20.781637
 50
211.55075200000002
 51
236.00390900000002
  0
ARC
  8
_0-0_0
  6
CONTINUOUS
 62
    7
 10
633.56776800000807
 20
345.13076149999688
 40
11.450499000000001
 50
141.77927700000004
 51
209.16595100000004
  0
ARC
  8
_0-0_0
  6
CONTINUOUS
 62
    7
 10
641.27869000000646
 20
364.57467049999832
 40
20.781637
 50
211.55075200000002
 51
236.00390900000002
  0
ARC
  8
_0-0_0
  6
CONTINUOUS
 62
    7
 10
633.56776800000807
 20
359.28090849999717
 40
11.450499000000001
 50
141.779236
 51
209.165978
  0
ARC
  8
_0-0_0
  6
CONTINUOUS
 62
    7
 10
641.27869000000646
 20
378.72481649999827
 40
20.781637
 50
211.55075200000002
 51
236.00390900000002
  0
ARC
  8
_0-0_0
  6
CONTINUOUS
 62
    7
 10
633.56776800000807
 20
373.43105449999712
 40
11.450499000000001
 50
141.779236
 51
209.165978
  0
ARC
  8
_0-0_0
  6
CONTINUOUS
 62
    7
 10
641.27869000000646
 20
392.87496249999822
 40
20.781637
 50
211.55071199999998
 51
236.00390900000002
  0
ARC
  8
_0-0_0
  6
CONTINUOUS
 62
    7
 10
633.56776800000807
 20
387.58120049999707
 40
11.450499000000001
 50
141.779236
 51
209.16592399999999
  0
ARC
  8
_0-0_0
  6
CONTINUOUS
 62
    7
 10
641.27869000000646
 20
407.02511249999952
 40
20.781637
 50
211.55071199999998
 51
236.00390900000002
  0
ARC
  8
_0-0_0
  6
CONTINUOUS
 62
    7
 10
633.56776800000807
 20
401.73134649999702
 40
11.450499000000001
 50
141.779236
 51
209.16592399999999
  0
ARC
  8
_0-0_0
  6
CONTINUOUS
 62
    7
 10
641.27869000000646
 20
421.17525949999981
 40
20.781637
 50
211.55075200000002
 51
236.00390900000002
  0
ARC
  8
_0-0_0
  6
CONTINUOUS
 62
    7
 10
633.56776800000807
 20
415.88151249999646
 40
11.450499000000001
 50
141.77930499999999
 51
209.16604699999999
  0
ARC
  8
_0-0_0
  6
CONTINUOUS
 62
    7
 10
641.27869000000646
 20
435.32542049999756
 40
20.781637
 50
211.55078
 51
236.00390899999999
  0
ARC
  8
_0-0_0
  6
CONTINUOUS
 62
    7
 10
633.56776800000807
 20
430.03165849999641
 40
11.450499000000001
 50
141.77930499999999
 51
209.16604699999999
  0
ARC
  8
_0-0_0
  6
CONTINUOUS
 62
    7
 10
641.27869000000646
 20
449.47555149999971
 40
20.781637
 50
211.55075200000002
 51
236.00388200000003
  0
ARC
  8
_0-0_0
  6
CONTINUOUS
 62
    7
 10
633.56776800000807
 20
444.18178949999856
 40
11.450499000000001
 50
147.283658
 51
209.165978
  0
ARC
  8
_0-0_0
  6
CONTINUOUS
 62
    7
 10
641.27869000000646
 20
463.62569749999966
 40
20.781637
 50
219.63012900000004
 51
236.00390900000002
  0
ARC
  8
_0-0_0
  6
CONTINUOUS
 62
    7
 10
641.27869000000646
 20
265.52367649999724
 40
20.781637
 50
211.55071199999998
 51
236.00390900000002
  0
ARC
  8
_0-0_0
  6
CONTINUOUS
 62
    7
 10
633.56776800000807
 20
260.22991449999972
 40
11.450499000000001
 50
141.779236
 51
209.16592399999999
  0
ARC
  8
_0-0_0
  6
CONTINUOUS
 62
    7
 10
641.27869000000646
 20
279.67382349999752
 40
20.781637
 50
211.55078
 51
236.00390899999999
  0
ARC
  8
_0-0_0
  6
CONTINUOUS
 62
    7
 10
633.56776800000807
 20
274.38006149999637
 40
11.450499000000001
 50
141.779236
 51
209.16604699999999
  0
ARC
  8
_0-0_0
  6
CONTINUOUS
 62
    7
 10
641.27869000000646
 20
293.82396949999747
 40
20.781637
 50
211.55075200000002
 51
236.00390900000002
  0
ARC
  8
_0-0_0
  6
CONTINUOUS
 62
    7
 10
633.56776800000807
 20
288.53020749999996
 40
11.450499000000001
 50
141.779236
 51
209.165978
  0
ARC
  8
_0-0_0
  6
CONTINUOUS
 62
    7
 10
641.27869000000646
 20
307.97411549999742
 40
20.781637
 50
211.55075200000002
 51
236.00390900000002
  0
ARC
  8
_0-0_0
  6
CONTINUOUS
 62
    7
 10
633.56776800000807
 20
302.68035349999991
 40
11.450499000000001
 50
141.779236
 51
209.165978
  0
ARC
  8
_0-0_0
  6
CONTINUOUS
 62
    7
 10
641.27869000000646
 20
322.12426149999737
 40
20.781637
 50
211.55075200000002
 51
236.00390900000002
  0
ARC
  8
_0-0_0
  6
CONTINUOUS
 62
    7
 10
633.56776800000807
 20
316.83049949999986
 40
11.450499000000001
 50
141.779236
 51
209.165978
  0
ARC
  8
_0-0_0
  6
CONTINUOUS
 62
    7
 10
641.27869000000646
 20
336.27440849999766
 40
20.781637
 50
211.55078
 51
236.00390899999999
  0
ARC
  8
_0-0_0
  6
CONTINUOUS
 62
    7
 10
633.56776800000807
 20
330.98064649999651
 40
11.450499000000001
 50
141.779236
 51
209.16604699999999
  0
ARC
  8
_0-0_0
  6
CONTINUOUS
 62
    7
 10
641.27869000000646
 20
350.42453949999981
 40
20.781637
 50
211.55075200000002
 51
236.00390900000002
  0
ARC
  8
_0-0_0
  6
CONTINUOUS
 62
    7
 10
633.56776800000807
 20
345.13076149999688
 40
11.450499000000001
 50
141.77927700000004
 51
209.16595100000004
  0
ARC
  8
_0-0_0
  6
CONTINUOUS
 62
    7
 10
641.27869000000646
 20
364.57467049999832
 40
20.781637
 50
211.55075200000002
 51
236.00390900000002
  0
ARC
  8
_0-0_0
  6
CONTINUOUS
 62
    7
 10
633.56776800000807
 20
359.28090849999717
 40
11.450499000000001
 50
141.779236
 51
209.165978
  0
ARC
  8
_0-0_0
  6
CONTINUOUS
 62
    7
 10
641.27869000000646
 20
378.72481649999827
 40
20.781637
 50
211.55075200000002
 51
236.00390900000002
  0
ARC
  8
_0-0_0
  6
CONTINUOUS
 62
    7
 10
633.56776800000807
 20
373.43105449999712
 40
11.450499000000001
 50
141.779236
 51
209.165978
  0
ARC
  8
_0-0_0
  6
CONTINUOUS
 62
    7
 10
641.27869000000646
 20
392.87496249999822
 40
20.781637
 50
211.55071199999998
 51
236.00390900000002
  0
ARC
  8
_0-0_0
  6
CONTINUOUS
 62
    7
 10
633.56776800000807
 20
387.58120049999707
 40
11.450499000000001
 50
141.779236
 51
209.16592399999999
  0
ARC
  8
_0-0_0
  6
CONTINUOUS
 62
    7
 10
641.27869000000646
 20
407.02511249999952
 40
20.781637
 50
211.55071199999998
 51
236.00390900000002
  0
ARC
  8
_0-0_0
  6
CONTINUOUS
 62
    7
 10
633.56776800000807
 20
401.73134649999702
 40
11.450499000000001
 50
141.779236
 51
209.16592399999999
  0
ARC
  8
_0-0_0
  6
CONTINUOUS
 62
    7
 10
641.27869000000646
 20
421.17525949999981
 40
20.781637
 50
211.55075200000002
 51
236.00390900000002
  0
ARC
  8
_0-0_0
  6
CONTINUOUS
 62
    7
 10
633.56776800000807
 20
415.88151249999646
 40
11.450499000000001
 50
141.77930499999999
 51
209.16604699999999
  0
ARC
  8
_0-0_0
  6
CONTINUOUS
 62
    7
 10
641.27869000000646
 20
435.32542049999756
 40
20.781637
 50
211.55078
 51
236.00390899999999
  0
ARC
  8
_0-0_0
  6
CONTINUOUS
 62
    7
 10
633.56776800000807
 20
430.03165849999641
 40
11.450499000000001
 50
141.77930499999999
 51
209.16604699999999
  0
ARC
  8
_0-0_0
  6
CONTINUOUS
 62
    7
 10
641.27869000000646
 20
449.47555149999971
 40
20.781637
 50
211.55075200000002
 51
236.00388200000003
  0
ARC
  8
_0-0_0
  6
CONTINUOUS
 62
    7
 10
633.56776800000807
 20
444.18178949999856
 40
11.450499000000001
 50
147.283658
 51
209.165978
  0
ARC
  8
_0-0_0
  6
CONTINUOUS
 62
    7
 10
641.27869000000646
 20
463.62569749999966
 40
20.781637
 50
219.63012900000004
 51
236.00390900000002
  0
ARC
  8
_0-0_0
  6
CONTINUOUS
 62
    7
 10
618.03915800000686
 20
429.16656149999835
 40
20.781637
 50
31.550767999999998
 51
56.003917999999999
  0
ARC
  8
_0-0_0
  6
CONTINUOUS
 62
    7
 10
625.75008000000525
 20
434.4603234999995
 40
11.450499000000001
 50
321.77931000000001
 51
29.166020999999997
  0
ARC
  8
_0-0_0
  6
CONTINUOUS
 62
    7
 10
618.03915800000686
 20
415.0164154999984
 40
20.781637
 50
31.550806000000001
 51
56.003917999999999
  0
ARC
  8
_0-0_0
  6
CONTINUOUS
 62
    7
 10
625.75008000000525
 20
420.31017749999955
 40
11.450499000000001
 50
321.77931000000001
 51
29.166088999999999
  0
ARC
  8
_0-0_0
  6
CONTINUOUS
 62
    7
 10
618.03915800000686
 20
400.86628049999854
 40
20.781637
 50
31.550767999999998
 51
56.003917999999999
  0
ARC
  8
_0-0_0
  6
CONTINUOUS
 62
    7
 10
625.75008000000525
 20
406.16004649999741
 40
11.450499000000001
 50
321.77925499999998
 51
29.166020999999997
  0
ARC
  8
_0-0_0
  6
CONTINUOUS
 62
    7
 10
618.03915800000686
 20
386.71613449999859
 40
20.781637
 50
31.550767999999998
 51
56.003917999999999
  0
ARC
  8
_0-0_0
  6
CONTINUOUS
 62
    7
 10
625.75008000000525
 20
392.00989649999974
 40
11.450499000000001
 50
321.77931000000001
 51
29.166020999999997
  0
ARC
  8
_0-0_0
  6
CONTINUOUS
 62
    7
 10
618.03915800000686
 20
372.5659874999983
 40
20.781637
 50
31.550806000000001
 51
56.003917999999999
  0
ARC
  8
_0-0_0
  6
CONTINUOUS
 62
    7
 10
625.75008000000525
 20
377.85975049999979
 40
11.450499000000001
 50
321.77931000000001
 51
29.166088999999999
  0
ARC
  8
_0-0_0
  6
CONTINUOUS
 62
    7
 10
618.03915800000686
 20
358.41585649999979
 40
20.781637
 50
31.550767999999998
 51
56.003917999999999
  0
ARC
  8
_0-0_0
  6
CONTINUOUS
 62
    7
 10
625.75008000000525
 20
363.7096184999973
 40
11.450499000000001
 50
321.77920000000006
 51
29.166021000000022
  0
ARC
  8
_0-0_0
  6
CONTINUOUS
 62
    7
 10
618.03915800000686
 20
344.26571049999984
 40
20.781637
 50
31.550788000000001
 51
56.003931000000001
  0
ARC
  8
_0-0_0
  6
CONTINUOUS
 62
    7
 10
625.75008000000525
 20
349.55947249999736
 40
11.450499000000001
 50
321.77922799999999
 51
29.166020999999997
  0
ARC
  8
_0-0_0
  6
CONTINUOUS
 62
    7
 10
618.03915800000686
 20
330.11556449999989
 40
20.781637
 50
31.550767999999998
 51
56.003917999999999
  0
ARC
  8
_0-0_0
  6
CONTINUOUS
 62
    7
 10
625.75008000000525
 20
335.40932649999741
 40
11.450499000000001
 50
321.77920000000006
 51
29.166021000000022
  0
ARC
  8
_0-0_0
  6
CONTINUOUS
 62
    7
 10
618.03915800000686
 20
315.96541849999994
 40
20.781637
 50
31.550788000000001
 51
56.003931000000001
  0
ARC
  8
_0-0_0
  6
CONTINUOUS
 62
    7
 10
625.75008000000525
 20
321.25918049999746
 40
11.450499000000001
 50
321.77917300000001
 51
29.166020999999997
  0
ARC
  8
_0-0_0
  6
CONTINUOUS
 62
    7
 10
618.03915800000686
 20
301.81527149999965
 40
20.781637
 50
31.550806000000001
 51
56.003931000000001
  0
ARC
  8
_0-0_0
  6
CONTINUOUS
 62
    7
 10
625.75008000000525
 20
307.10903349999717
 40
11.450499000000001
 50
321.77920000000006
 51
29.166089000000088
  0
ARC
  8
_0-0_0
  6
CONTINUOUS
 62
    7
 10
618.03915800000686
 20
287.6651254999997
 40
20.781637
 50
31.550806000000001
 51
56.003917999999999
  0
ARC
  8
_0-0_0
  6
CONTINUOUS
 62
    7
 10
625.75008000000525
 20
292.95888749999722
 40
11.450499000000001
 50
321.77920000000006
 51
29.166089000000088
  0
ARC
  8
_0-0_0
  6
CONTINUOUS
 62
    7
 10
618.03915800000686
 20
273.51497949999975
 40
20.781637
 50
31.550806000000001
 51
56.003917999999999
  0
ARC
  8
_0-0_0
  6
CONTINUOUS
 62
    7
 10
625.75008000000525
 20
278.80874149999727
 40
11.450499000000001
 50
321.77920000000006
 51
29.166089000000088
  0
ARC
  8
_0-0_0
  6
CONTINUOUS
 62
    7
 10
618.03915800000686
 20
259.36483249999947
 40
20.781637
 50
31.550806000000001
 51
56.003917999999999
  0
ARC
  8
_0-0_0
  6
CONTINUOUS
 62
    7
 10
625.75008000000525
 20
264.65859549999732
 40
11.450499000000001
 50
321.77936399999999
 51
29.166089000000088
  0
ARC
  8
_0-0_0
  6
CONTINUOUS
 62
    7
 10
618.03915800000686
 20
245.21471749999913
 40
20.781637
 50
31.550733999999999
 51
56.003869999999999
  0
ARC
  8
_0-0_0
  6
CONTINUOUS
 62
    7
 10
625.75008000000525
 20
250.50844849999703
 40
11.450499000000001
 50
330.19109700000001
 51
29.166088999999999
  0
ARC
  8
_0-0_0
  6
CONTINUOUS
 62
    7
 10
641.27869000000646
 20
265.52367649999724
 40
20.781637
 50
219.63012900000004
 51
236.00390900000002
  0
LINE
  8
_0-0_0
  6
CONTINUOUS
 62
    7
 10
635.68553500000417
 20
442.91827049999847
 11
634.79713800000172
 21
441.4566614999967
  0
ARC
  8
_0-0_0
  6
CONTINUOUS
 62
    7
 10
641.81135900000663
 20
267.21856249999837
 40
22.153106000000001
 50
214.56681399999999
 51
238.04395
  0
ARC
  8
_0-0_0
  6
CONTINUOUS
 62
    7
 10
745.35155100000702
 20
257.17141249999986
 40
122.423361
 50
181.11072999999999
 51
186.02589800000001
  0
ARC
  8
_0-0_0
  6
CONTINUOUS
 62
    7
 10
625.40485000000626
 20
240.15255249999973
 40
9.5032990000000002
 50
26.007817000000006
 51
60.486612000000001
  0
ARC
  8
_0-0_0
  6
CONTINUOUS
 62
    7
 10
641.27869000000646
 20
534.37636449999991
 40
20.781637
 50
211.55078
 51
236.00390899999999
  0
ARC
  8
_0-0_0
  6
CONTINUOUS
 62
    7
 10
633.56776800000807
 20
529.08260649999647
 40
11.450499000000001
 50
141.779236
 51
209.16604699999999
  0
ARC
  8
_0-0_0
  6
CONTINUOUS
 62
    7
 10
641.27869000000646
 20
548.52651049999986
 40
20.781637
 50
211.55078
 51
236.00390899999999
  0
ARC
  8
_0-0_0
  6
CONTINUOUS
 62
    7
 10
633.56776800000807
 20
543.23274849999871
 40
11.450499000000001
 50
141.779236
 51
209.16604699999999
  0
ARC
  8
_0-0_0
  6
CONTINUOUS
 62
    7
 10
641.27869000000646
 20
562.67665749999651
 40
20.781637
 50
211.55078
 51
236.00390899999999
  0
ARC
  8
_0-0_0
  6
CONTINUOUS
 62
    7
 10
633.56776800000807
 20
557.38289449999866
 40
11.450499000000001
 50
141.779236
 51
209.16604699999999
  0
ARC
  8
_0-0_0
  6
CONTINUOUS
 62
    7
 10
641.27869000000646
 20
576.82680349999646
 40
20.781637
 50
211.55078
 51
236.00390899999999
  0
ARC
  8
_0-0_0
  6
CONTINUOUS
 62
    7
 10
633.56776800000807
 20
571.53304149999894
 40
11.450499000000001
 50
141.779236
 51
209.16604699999999
  0
ARC
  8
_0-0_0
  6
CONTINUOUS
 62
    7
 10
641.27869000000646
 20
590.97694949999641
 40
20.781637
 50
211.55078
 51
236.00390899999999
  0
ARC
  8
_0-0_0
  6
CONTINUOUS
 62
    7
 10
633.56776800000807
 20
585.68318749999889
 40
11.450499000000001
 50
141.779236
 51
209.16604699999999
  0
ARC
  8
_0-0_0
  6
CONTINUOUS
 62
    7
 10
641.27869000000646
 20
605.12709549999636
 40
20.781637
 50
211.55078
 51
236.00390899999999
  0
ARC
  8
_0-0_0
  6
CONTINUOUS
 62
    7
 10
633.56776800000807
 20
599.83333349999884
 40
11.450499000000001
 50
141.779236
 51
209.16604699999999
  0
ARC
  8
_0-0_0
  6
CONTINUOUS
 62
    7
 10
641.27869000000646
 20
619.27724249999665
 40
20.781637
 50
211.55078
 51
236.00390899999999
  0
ARC
  8
_0-0_0
  6
CONTINUOUS
 62
    7
 10
633.56776800000807
 20
613.98348049999913
 40
11.450499000000001
 50
141.779236
 51
209.16604699999999
  0
ARC
  8
_0-0_0
  6
CONTINUOUS
 62
    7
 10
641.27869000000646
 20
633.4273884999966
 40
20.781637
 50
211.55078
 51
236.00390899999999
  0
ARC
  8
_0-0_0
  6
CONTINUOUS
 62
    7
 10
633.56776800000807
 20
628.13362649999908
 40
11.450499000000001
 50
141.779359
 51
209.16604699999999
  0
ARC
  8
_0-0_0
  6
CONTINUOUS
 62
    7
 10
641.27869000000646
 20
647.5775044999973
 40
20.781637
 50
211.55071199999998
 51
236.00388199999998
  0
ARC
  8
_0-0_0
  6
CONTINUOUS
 62
    7
 10
633.56776800000807
 20
642.28377249999903
 40
11.450499000000001
 50
147.283781
 51
209.16604699999999
  0
ARC
  8
_0-0_0
  6
CONTINUOUS
 62
    7
 10
641.27869000000646
 20
661.72765049999725
 40
20.781637
 50
219.63012900000004
 51
236.00388200000003
  0
ARC
  8
_0-0_0
  6
CONTINUOUS
 62
    7
 10
264.19308800000726
 20
667.48741549999977
 40
359.96840900000001
 50
356.89284800000013
 51
356.97202300000009
  0
ARC
  8
_0-0_0
  6
CONTINUOUS
 62
    7
 10
641.27869000000646
 20
534.37636449999991
 40
20.781637
 50
211.55078
 51
236.00390899999999
  0
ARC
  8
_0-0_0
  6
CONTINUOUS
 62
    7
 10
633.56776800000807
 20
529.08260649999647
 40
11.450499000000001
 50
141.779236
 51
209.16604699999999
  0
ARC
  8
_0-0_0
  6
CONTINUOUS
 62
    7
 10
641.27869000000646
 20
548.52651049999986
 40
20.781637
 50
211.55078
 51
236.00390899999999
  0
ARC
  8
_0-0_0
  6
CONTINUOUS
 62
    7
 10
633.56776800000807
 20
543.23274849999871
 40
11.450499000000001
 50
141.779236
 51
209.16604699999999
  0
ARC
  8
_0-0_0
  6
CONTINUOUS
 62
    7
 10
641.27869000000646
 20
562.67665749999651
 40
20.781637
 50
211.55078
 51
236.00390899999999
  0
ARC
  8
_0-0_0
  6
CONTINUOUS
 62
    7
 10
633.56776800000807
 20
557.38289449999866
 40
11.450499000000001
 50
141.779236
 51
209.16604699999999
  0
ARC
  8
_0-0_0
  6
CONTINUOUS
 62
    7
 10
641.27869000000646
 20
576.82680349999646
 40
20.781637
 50
211.55078
 51
236.00390899999999
  0
ARC
  8
_0-0_0
  6
CONTINUOUS
 62
    7
 10
633.56776800000807
 20
571.53304149999894
 40
11.450499000000001
 50
141.779236
 51
209.16604699999999
  0
ARC
  8
_0-0_0
  6
CONTINUOUS
 62
    7
 10
641.27869000000646
 20
590.97694949999641
 40
20.781637
 50
211.55078
 51
236.00390899999999
  0
ARC
  8
_0-0_0
  6
CONTINUOUS
 62
    7
 10
633.56776800000807
 20
585.68318749999889
 40
11.450499000000001
 50
141.779236
 51
209.16604699999999
  0
ARC
  8
_0-0_0
  6
CONTINUOUS
 62
    7
 10
641.27869000000646
 20
605.12709549999636
 40
20.781637
 50
211.55078
 51
236.00390899999999
  0
ARC
  8
_0-0_0
  6
CONTINUOUS
 62
    7
 10
633.56776800000807
 20
599.83333349999884
 40
11.450499000000001
 50
141.779236
 51
209.16604699999999
  0
ARC
  8
_0-0_0
  6
CONTINUOUS
 62
    7
 10
641.27869000000646
 20
619.27724249999665
 40
20.781637
 50
211.55078
 51
236.00390899999999
  0
ARC
  8
_0-0_0
  6
CONTINUOUS
 62
    7
 10
633.56776800000807
 20
613.98348049999913
 40
11.450499000000001
 50
141.779236
 51
209.16604699999999
  0
ARC
  8
_0-0_0
  6
CONTINUOUS
 62
    7
 10
641.27869000000646
 20
633.4273884999966
 40
20.781637
 50
211.55078
 51
236.00390899999999
  0
ARC
  8
_0-0_0
  6
CONTINUOUS
 62
    7
 10
633.56776800000807
 20
628.13362649999908
 40
11.450499000000001
 50
141.779359
 51
209.16604699999999
  0
ARC
  8
_0-0_0
  6
CONTINUOUS
 62
    7
 10
641.27869000000646
 20
647.5775044999973
 40
20.781637
 50
211.55071199999998
 51
236.00388199999998
  0
ARC
  8
_0-0_0
  6
CONTINUOUS
 62
    7
 10
633.56776800000807
 20
642.28377249999903
 40
11.450499000000001
 50
147.283781
 51
209.16604699999999
  0
ARC
  8
_0-0_0
  6
CONTINUOUS
 62
    7
 10
641.27869000000646
 20
661.72765049999725
 40
20.781637
 50
219.63012900000004
 51
236.00388200000003
  0
ARC
  8
_0-0_0
  6
CONTINUOUS
 62
    7
 10
618.03915800000686
 20
627.26851349999924
 40
20.781637
 50
31.550806000000001
 51
56.003917999999999
  0
ARC
  8
_0-0_0
  6
CONTINUOUS
 62
    7
 10
625.75008000000525
 20
632.5622764999971
 40
11.450499000000001
 50
321.77936399999999
 51
29.166089000000088
  0
ARC
  8
_0-0_0
  6
CONTINUOUS
 62
    7
 10
618.03915800000686
 20
613.11836749999929
 40
20.781637
 50
31.550806000000001
 51
56.003917999999999
  0
ARC
  8
_0-0_0
  6
CONTINUOUS
 62
    7
 10
625.75008000000525
 20
618.41212949999681
 40
11.450499000000001
 50
321.77936399999999
 51
29.166089000000088
  0
ARC
  8
_0-0_0
  6
CONTINUOUS
 62
    7
 10
618.03915800000686
 20
598.96825149999859
 40
20.781637
 50
31.550733999999999
 51
56.003917999999999
  0
ARC
  8
_0-0_0
  6
CONTINUOUS
 62
    7
 10
625.75008000000525
 20
604.26201449999644
 40
11.450499000000001
 50
321.77920000000006
 51
29.165953000000084
  0
ARC
  8
_0-0_0
  6
CONTINUOUS
 62
    7
 10
618.03915800000686
 20
584.81810549999864
 40
20.781637
 50
31.550733999999999
 51
56.003917999999999
  0
ARC
  8
_0-0_0
  6
CONTINUOUS
 62
    7
 10
625.75008000000525
 20
590.11186749999979
 40
11.450499000000001
 50
321.77925499999998
 51
29.165952999999995
  0
ARC
  8
_0-0_0
  6
CONTINUOUS
 62
    7
 10
618.03915800000686
 20
570.66795949999869
 40
20.781637
 50
31.550806000000001
 51
56.003917999999999
  0
ARC
  8
_0-0_0
  6
CONTINUOUS
 62
    7
 10
625.75008000000525
 20
575.96172149999984
 40
11.450499000000001
 50
321.77925499999998
 51
29.166088999999985
  0
ARC
  8
_0-0_0
  6
CONTINUOUS
 62
    7
 10
618.03915800000686
 20
556.51781349999874
 40
20.781637
 50
31.550806000000001
 51
56.003917999999999
  0
ARC
  8
_0-0_0
  6
CONTINUOUS
 62
    7
 10
625.75008000000525
 20
561.81157549999989
 40
11.450499000000001
 50
321.77920000000006
 51
29.166089000000088
  0
ARC
  8
_0-0_0
  6
CONTINUOUS
 62
    7
 10
618.03915800000686
 20
542.36766649999845
 40
20.781637
 50
31.550806000000001
 51
56.003965000000008
  0
ARC
  8
_0-0_0
  6
CONTINUOUS
 62
    7
 10
625.75008000000525
 20
547.66145949999918
 40
11.450499000000001
 50
321.77920000000006
 51
29.165953000000084
  0
ARC
  8
_0-0_0
  6
CONTINUOUS
 62
    7
 10
618.03915800000686
 20
528.21752449999985
 40
20.781637
 50
31.550806000000001
 51
56.003965000000008
  0
ARC
  8
_0-0_0
  6
CONTINUOUS
 62
    7
 10
625.75008000000525
 20
533.51128249999965
 40
11.450499000000001
 50
321.77920000000006
 51
29.166089000000088
  0
ARC
  8
_0-0_0
  6
CONTINUOUS
 62
    7
 10
618.03915800000686
 20
514.0673784999999
 40
20.781637
 50
31.550806000000001
 51
56.003917999999999
  0
ARC
  8
_0-0_0
  6
CONTINUOUS
 62
    7
 10
625.75008000000525
 20
519.36114049999742
 40
11.450499000000001
 50
321.77920000000006
 51
29.166089000000088
  0
ARC
  8
_0-0_0
  6
CONTINUOUS
 62
    7
 10
264.19308800000726
 20
667.48741549999977
 40
359.96840900000001
 50
356.89284800000013
 51
356.97202300000009
  0
ARC
  8
_0-0_0
  6
CONTINUOUS
 62
    7
 10
995.12477900000511
 20
667.48741549999977
 40
359.96840900000001
 50
183.02799200000001
 51
184.93289100000001
  0
LINE
  8
_0-0_0
  6
CONTINUOUS
 62
    7
 10
608.65892400000303
 20
658.9725234999969
 11
608.65892400000303
 21
661.4725234999969
  0
ARC
  8
_0-0_0
  6
CONTINUOUS
 62
    7
 10
611.65892400000303
 20
661.4725234999969
 40
3
 50
90.000003000000007
 51
180.00000499999999
  0
LINE
  8
_0-0_0
  6
CONTINUOUS
 62
    7
 10
611.65892400000303
 20
664.4725234999969
 11
629.65892400000303
 21
664.4725234999969
  0
LINE
  8
_0-0_0
  6
CONTINUOUS
 62
    7
 10
629.65892400000303
 20
648.4725234999969
 11
611.65892400000303
 21
648.4725234999969
  0
ARC
  8
_0-0_0
  6
CONTINUOUS
 62
    7
 10
611.65892400000303
 20
651.4725234999969
 40
3
 50
180.00000500000002
 51
270.00000100000005
  0
LINE
  8
_0-0_0
  6
CONTINUOUS
 62
    7
 10
608.65892400000303
 20
651.4725234999969
 11
608.65892400000303
 21
653.9725234999969
  0
LINE
  8
_0-0_0
  6
CONTINUOUS
 62
    7
 10
608.65892400000303
 20
658.9725234999969
 11
629.65892400000303
 21
658.9725234999969
  0
ARC
  8
_0-0_0
  6
CONTINUOUS
 62
    7
 10
608.65892400000303
 20
656.4725234999969
 40
2.5
 50
90.000003000000007
 51
270.00000100000005
  0
LINE
  8
_0-0_0
  6
CONTINUOUS
 62
    7
 10
608.65892400000303
 20
653.9725234999969
 11
625.61308600000484
 21
653.9725234999969
  0
LINE
  8
_0-0_0
  6
CONTINUOUS
 62
    7
 10
625.61308600000484
 20
653.9725234999969
 11
629.65892400000303
 21
653.9725234999969
  0
ARC
  8
_0-0_0
  6
CONTINUOUS
 62
    7
 10
525.0866920000044
 20
647.14287249999688
 40
92.581778
 50
297.14650600000004
 51
0.8229050000000743
  0
ARC
  8
_0-0_0
  6
CONTINUOUS
 62
    7
 10
540.78560500000458
 20
619.47209649999786
 40
60.811106999999993
 50
205.812847
 51
295.87980599999997
  0
ARC
  8
_0-0_0
  6
CONTINUOUS
 62
    7
 10
535.03362200000265
 20
618.73952249999638
 40
55.344825
 50
175.44909100000001
 51
207.72336000000001
  0
ARC
  8
_0-0_0
  6
CONTINUOUS
 62
    7
 10
508.08016200000566
 20
620.20653249999668
 40
28.367999999999999
 50
41.598173999999993
 51
174.08314899999999
  0
ARC
  8
_0-0_0
  6
CONTINUOUS
 62
    7
 10
264.19308800000726
 20
667.48741549999977
 40
353.96840900000001
 50
329.98250300000001
 51
351.93724500000002
  0
ARC
  8
_0-0_0
  6
CONTINUOUS
 62
    7
 10
471.27992300000187
 20
647.32875549999881
 40
146.38345099999998
 50
348.3786070000001
 51
0.4476860000000635
  0
ARC
  8
_0-0_0
  6
CONTINUOUS
 62
    7
 10
521.7741010000027
 20
649.029957499999
 40
89.886542000000006
 50
301.79944899999998
 51
359.644676
  0
ARC
  8
_0-0_0
  6
CONTINUOUS
 62
    7
 10
541.33583700000599
 20
622.97121149999657
 40
57.504126999999997
 50
236.41273699999999
 51
298.91484200000002
  0
ARC
  8
_0-0_0
  6
CONTINUOUS
 62
    7
 10
544.75075400000787
 20
621.11269149999862
 40
57.974566999999993
 50
179.96230199999999
 51
232.58231200000003
  0
ARC
  8
_0-0_0
  6
CONTINUOUS
 62
    7
 10
508.19264900000417
 20
618.46999149999829
 40
21.583582
 50
53.160936999999997
 51
172.86499800000001
  0
ARC
  8
_0-0_0
  6
CONTINUOUS
 62
    7
 10
519.14266100000532
 20
633.23354049999762
 40
3.2038899999999995
 50
275.89251400000006
 51
51.582934000000044
  0
ARC
  8
_0-0_0
  6
CONTINUOUS
 62
    7
 10
519.78624700000364
 20
621.41322849999779
 40
8.6390829999999994
 50
92.087377000000004
 51
299.93415199999998
  0
ARC
  8
_0-0_0
  6
CONTINUOUS
 62
    7
 10
517.35659000000305
 20
628.41603549999854
 40
15.980615999999999
 50
294.94822299999998
 51
41.667794000000058
  0
LINE
  8
_0-0_0
  6
CONTINUOUS
 62
    7
 10
518.65023000000656
 20
627.96544349999749
 11
512.38188900000387
 21
622.251119499997
  0
LINE
  8
_0-0_0
  6
CONTINUOUS
 62
    7
 10
513.20326900000509
 20
619.46452849999696
 11
519.34191100000317
 21
626.87196849999964
  0
LINE
  8
_0-0_0
  6
CONTINUOUS
 62
    7
 10
520.33620400000655
 20
626.87196849999964
 11
517.26686800000607
 21
615.30226649999895
  0
LINE
  8
_0-0_0
  6
CONTINUOUS
 62
    7
 10
520.72527200000332
 20
615.16115349999745
 11
521.4169530000072
 21
626.73085549999814
  0
LINE
  8
_0-0_0
  6
CONTINUOUS
 62
    7
 10
522.1086040000082
 20
627.25996949999899
 11
524.22689000000537
 21
616.57210349999878
  0
LINE
  8
_0-0_0
  6
CONTINUOUS
 62
    7
 10
527.98787600000651
 20
620.02889049999794
 11
521.8492350000015
 21
628.9530844999972
  0
LINE
  8
_0-0_0
  6
CONTINUOUS
 62
    7
 10
522.97322800000256
 20
630.18767249999655
 11
530.49523100000806
 21
624.08534749999671
  0
LINE
  8
_0-0_0
  6
CONTINUOUS
 62
    7
 10
531.74889300000359
 20
626.73085549999814
 11
523.79457800000819
 21
630.75203449999754
  0
LINE
  8
_0-0_0
  6
CONTINUOUS
 62
    7
 10
523.79457800000819
 20
632.44518049999897
 11
531.61919300000591
 21
631.45750949999638
  0
ARC
  8
_0-0_0
  6
CONTINUOUS
 62
    7
 10
510.86128900000773
 20
658.53197149999687
 40
100.97253999999998
 50
3.3728500000000001
 51
46.106259999999999
  0
ARC
  8
_0-0_0
  6
CONTINUOUS
 62
    7
 10
567.12877500000468
 20
716.69957349999822
 40
20.045020999999998
 50
46.732021000000003
 51
142.81818999999999
  0
ARC
  8
_0-0_0
  6
CONTINUOUS
 62
    7
 10
561.0542820000046
 20
719.22374349999882
 40
13.780241999999998
 50
135.899236
 51
246.246351
  0
ARC
  8
_0-0_0
  6
CONTINUOUS
 62
    7
 10
557.9782930000074
 20
709.22929749999821
 40
3.6028519999999995
 50
226.61552699999999
 51
60.727663000000064
  0
ARC
  8
_0-0_0
  6
CONTINUOUS
 62
    7
 10
512.99333900000784
 20
659.06419849999656
 40
104.80521199999998
 50
2.9579810000000002
 51
45.989969000000016
  0
ARC
  8
_0-0_0
  6
CONTINUOUS
 62
    7
 10
568.09435100000701
 20
714.86226249999891
 40
26.404957999999997
 50
47.860812000000003
 51
130.97958700000001
  0
ARC
  8
_0-0_0
  6
CONTINUOUS
 62
    7
 10
562.67827500000567
 20
718.35048249999818
 40
20.299819999999997
 50
125.88878799999999
 51
188.01907099999997
  0
ARC
  8
_0-0_0
  6
CONTINUOUS
 62
    7
 10
559.5911780000024
 20
717.67033749999973
 40
17.149747999999995
 50
187.20775299999997
 51
253.76830200000001
  0
ARC
  8
_0-0_0
  6
CONTINUOUS
 62
    7
 10
557.83785100000387
 20
716.37950549999732
 40
15.476869000000001
 50
258.67065700000001
 51
4.5066620000000448
  0
ARC
  8
_0-0_0
  6
CONTINUOUS
 62
    7
 10
565.22008400000777
 20
718.30717849999928
 40
8.0781770000000002
 50
354.94646199999994
 51
227.28233099999994
  0
ARC
  8
_0-0_0
  6
CONTINUOUS
 62
    7
 10
399.079911000008
 20
668.52898049999931
 40
224.61562799999996
 50
358.96520900000002
 51
34.730643999999998
  0
ARC
  8
_0-0_0
  6
CONTINUOUS
 62
    7
 10
535.5911780000024
 20
757.75494649999746
 40
61.751655
 50
38.857242999999997
 51
140.761101
  0
ARC
  8
_0-0_0
  6
CONTINUOUS
 62
    7
 10
519.4460670000044
 20
772.51092849999986
 40
39.931575000000002
 50
142.50622799999999
 51
230.64628099999999
  0
ARC
  8
_0-0_0
  6
CONTINUOUS
 62
    7
 10
512.26534200000606
 20
765.20416549999936
 40
29.742521
 50
232.41732200000004
 51
317.38883700000008
  0
ARC
  8
_0-0_0
  6
CONTINUOUS
 62
    7
 10
519.76195500000176
 20
761.04407049999645
 40
21.503274999999999
 50
312.01552700000002
 51
70.578052000000014
  0
ARC
  8
_0-0_0
  6
CONTINUOUS
 62
    7
 10
378.83171200000652
 20
659.51030449999962
 40
238.87873500000001
 50
1.1902889999999999
 51
33.256177000000001
  0
ARC
  8
_0-0_0
  6
CONTINUOUS
 62
    7
 10
534.91078900000139
 20
756.65460549999989
 40
55.260889999999996
 50
37.77777600000001
 51
137.56602000000004
  0
ARC
  8
_0-0_0
  6
CONTINUOUS
 62
    7
 10
518.99456000000646
 20
772.73675849999927
 40
32.682098000000003
 50
139.547786
 51
241.15493699999996
  0
ARC
  8
_0-0_0
  6
CONTINUOUS
 62
    7
 10
513.04192300000432
 20
762.97394149999673
 40
21.264775999999998
 50
242.51324299999999
 51
348.25088299999999
  0
ARC
  8
_0-0_0
  6
CONTINUOUS
 62
    7
 10
523.01656300000468
 20
760.72510049999983
 40
11.042505
 50
349.13618400000001
 51
67.704598000000004
  0
ARC
  8
_0-0_0
  6
CONTINUOUS
 62
    7
 10
526.48336000000563
 20
769.91961949999666
 40
1.2519979999999999
 50
54.752606
 51
201.66863000000001
  0
ARC
  8
_0-0_0
  6
CONTINUOUS
 62
    7
 10
520.71163100000558
 20
765.15100449999954
 40
6.3071519999999994
 50
200.58278000000001
 51
43.060494000000062
  0
ARC
  8
_0-0_0
  6
CONTINUOUS
 62
    7
 10
531.24303400000645
 20
771.11896049999996
 40
18.361329999999995
 50
169.27353400000001
 51
206.473873
  0
ARC
  8
_0-0_0
  6
CONTINUOUS
 62
    7
 10
522.73622800000157
 20
772.51904549999745
 40
9.744806999999998
 50
64.625050999999999
 51
168.05242000000004
  0
LINE
  8
_0-0_0
  6
CONTINUOUS
 62
    7
 10
521.81633700000384
 20
759.81067249999978
 11
525.61861300000601
 21
767.51013449999664
  0
LINE
  8
_0-0_0
  6
CONTINUOUS
 62
    7
 10
525.01583000000392
 20
768.55060149999917
 11
518.89504200000374
 21
760.03766149999865
  0
LINE
  8
_0-0_0
  6
CONTINUOUS
 62
    7
 10
516.27516900000774
 20
762.87530849999894
 11
524.41301700000622
 21
769.53430449999712
  0
LINE
  8
_0-0_0
  6
CONTINUOUS
 62
    7
 10
523.74068400000397
 20
770.49914849999902
 11
514.86092300000746
 21
766.46966849999808
  0
LINE
  8
_0-0_0
  6
CONTINUOUS
 62
    7
 10
514.79134300000442
 20
771.31256349999956
 11
524.11162500000501
 21
770.95312749999709
  0
LINE
  8
_0-0_0
  6
CONTINUOUS
 62
    7
 10
524.87673100000393
 20
771.46393149999858
 11
515.30141400000139
 21
774.75555749999694
  0
LINE
  8
_0-0_0
  6
CONTINUOUS
 62
    7
 10
517.8517370000045
 20
778.860720499997
 11
525.38677100000496
 21
771.76660449999679
  0
LINE
  8
_0-0_0
  6
CONTINUOUS
 62
    7
 10
525.92003600000317
 20
771.76660449999679
 11
523.06832000000577
 21
780.12817649999852
  0
LINE
  8
_0-0_0
  6
CONTINUOUS
 62
    7
 10
561.92970900000364
 20
712.40752049999719
 11
559.82002900000225
 21
722.87358449999738
  0
LINE
  8
_0-0_0
  6
CONTINUOUS
 62
    7
 10
562.94237400000566
 20
724.30237149999812
 11
562.66811200000666
 21
711.92552549999891
  0
LINE
  8
_0-0_0
  6
CONTINUOUS
 62
    7
 10
562.66811200000666
 20
711.92552549999891
 11
562.87908000000607
 21
711.44353149999733
  0
LINE
  8
_0-0_0
  6
CONTINUOUS
 62
    7
 10
562.87908000000607
 20
711.44353149999733
 11
567.37270200000785
 21
723.20064149999962
  0
LINE
  8
_0-0_0
  6
CONTINUOUS
 62
    7
 10
571.04354000000603
 20
720.68742749999728
 11
562.54152500000782
 21
710.56560149999859
  0
LINE
  8
_0-0_0
  6
CONTINUOUS
 62
    7
 10
562.54152500000782
 20
708.86143849999644
 11
569.06044600000314
 21
707.84581349999644
  0
LINE
  8
_0-0_0
  6
CONTINUOUS
 62
    7
 10
567.64696400000685
 20
705.40141649999714
 11
562.33055700000841
 21
707.63924049999696
  0
LINE
  8
_0-0_0
  6
CONTINUOUS
 62
    7
 10
563.09004800000548
 20
710.03200149999975
 11
569.60893900000519
 21
709.41228149999733
  0
LINE
  8
_0-0_0
  6
CONTINUOUS
 62
    7
 10
570.95915800000512
 20
714.36992249999821
 11
564.10268300000462
 21
710.97874849999789
  0
ARC
  8
_0-0_0
  6
CONTINUOUS
 62
    7
 10
264.19308800000726
 20
667.48741549999977
 40
359.96840900000001
 50
329.97039999999998
 51
355.30029300000001
  0
LINE
  8
_0-0_0
  6
CONTINUOUS
 62
    7
 10
650.65892500000336
 20
658.9725234999969
 11
650.65892500000336
 21
661.4725234999969
  0
ARC
  8
_0-0_0
  6
CONTINUOUS
 62
    7
 10
647.65892300000269
 20
661.4725234999969
 40
3
 50
0
 51
90.000003000000007
  0
LINE
  8
_0-0_0
  6
CONTINUOUS
 62
    7
 10
647.65892300000269
 20
664.4725234999969
 11
629.65892400000303
 21
664.4725234999969
  0
LINE
  8
_0-0_0
  6
CONTINUOUS
 62
    7
 10
629.65892400000303
 20
648.4725234999969
 11
647.65892300000269
 21
648.4725234999969
  0
ARC
  8
_0-0_0
  6
CONTINUOUS
 62
    7
 10
647.65892300000269
 20
651.4725234999969
 40
3
 50
270.000001
 51
0
  0
LINE
  8
_0-0_0
  6
CONTINUOUS
 62
    7
 10
650.65892500000336
 20
651.4725234999969
 11
650.65892500000336
 21
653.9725234999969
  0
LINE
  8
_0-0_0
  6
CONTINUOUS
 62
    7
 10
650.65892500000336
 20
658.9725234999969
 11
629.65892400000303
 21
658.9725234999969
  0
LINE
  8
_0-0_0
  6
CONTINUOUS
 62
    7
 10
650.65892500000336
 20
653.9725234999969
 11
633.70474600000307
 21
653.9725234999969
  0
LINE
  8
_0-0_0
  6
CONTINUOUS
 62
    7
 10
633.70474600000307
 20
653.9725234999969
 11
629.65892400000303
 21
653.9725234999969
  0
ARC
  8
_0-0_0
  6
CONTINUOUS
 62
    7
 10
788.03788300000451
 20
647.32875549999881
 40
146.38345099999998
 50
179.55231300000003
 51
191.62140799999997
  0
LINE
  8
_0-0_0
  6
CONTINUOUS
 62
    7
 10
750.01035700000648
 20
455.39611449999938
 11
750.01035700000648
 21
446.39611449999938
  0
LINE
  8
_0-0_0
  6
CONTINUOUS
 62
    7
 10
745.01036400000157
 20
446.39611449999938
 11
745.01036400000157
 21
455.39611449999938
  0
ARC
  8
_0-0_0
  6
CONTINUOUS
 62
    7
 10
747.51035700000648
 20
455.39611449999938
 40
2.5
 50
0
 51
180.00000500000002
  0
LINE
  8
_0-0_0
  6
CONTINUOUS
 62
    7
 10
755.51035700000648
 20
446.39611449999938
 11
755.51035700000648
 21
452.39611449999938
  0
ARC
  8
_0-0_0
  6
CONTINUOUS
 62
    7
 10
752.51035700000648
 20
452.39611449999938
 40
3
 50
0
 51
90.000003000000007
  0
LINE
  8
_0-0_0
  6
CONTINUOUS
 62
    7
 10
752.51035700000648
 20
455.39611449999938
 11
750.01035700000648
 21
455.39611449999938
  0
LINE
  8
_0-0_0
  6
CONTINUOUS
 62
    7
 10
745.01036400000157
 20
455.39611449999938
 11
742.51036400000157
 21
455.39611449999938
  0
ARC
  8
_0-0_0
  6
CONTINUOUS
 62
    7
 10
742.51036400000157
 20
452.39611449999938
 40
3
 50
90.000003000000007
 51
180.00000499999999
  0
LINE
  8
_0-0_0
  6
CONTINUOUS
 62
    7
 10
739.51036400000157
 20
452.39611449999938
 11
739.51036400000157
 21
446.39611449999938
  0
ARC
  8
_0-0_0
  6
CONTINUOUS
 62
    7
 10
756.21384800000669
 20
469.70144249999794
 40
23.315942
 50
268.271007
 51
60.62674700000003
  0
ARC
  8
_0-0_0
  6
CONTINUOUS
 62
    7
 10
757.49988900000608
 20
464.84440249999898
 40
27.144757999999999
 50
68.041532000000004
 51
123.35253300000001
  0
ARC
  8
_0-0_0
  6
CONTINUOUS
 62
    7
 10
749.95551700000215
 20
478.27294549999715
 40
11.829526
 50
128.59572800000001
 51
236.87538599999999
  0
ARC
  8
_0-0_0
  6
CONTINUOUS
 62
    7
 10
756.21384800000669
 20
469.70144249999794
 40
17.315940999999999
 50
281.94684799999999
 51
59.354746999999961
  0
ARC
  8
_0-0_0
  6
CONTINUOUS
 62
    7
 10
757.49988900000608
 20
464.84440249999898
 40
21.144757999999999
 50
69.108366000000004
 51
111.34630400000002
  0
ARC
  8
_0-0_0
  6
CONTINUOUS
 62
    7
 10
756.46308500000305
 20
466.59403549999843
 40
14.229861
 50
266.161025
 51
283.555249
  0
ARC
  8
_0-0_0
  6
CONTINUOUS
 62
    7
 10
750.28467900000396
 20
477.86022549999689
 40
11.674524999999999
 50
234.41485200000002
 51
287.45332000000008
  0
ARC
  8
_0-0_0
  6
CONTINUOUS
 62
    7
 10
751.09888800000772
 20
472.62025049999647
 40
6.4805219999999988
 50
294.49890600000003
 51
106.94040200000005
  0
ARC
  8
_0-0_0
  6
CONTINUOUS
 62
    7
 10
749.40055400000711
 20
481.03817349999736
 40
2.2267060000000001
 50
152.46144699999999
 51
265.10666199999997
  0
ARC
  8
_0-0_0
  6
CONTINUOUS
 62
    7
 10
770.38492900000711
 20
462.36034749999817
 40
30.256993999999999
 50
132.86190500000001
 51
139.357921
  0
LINE
  8
_0-0_0
  6
CONTINUOUS
 62
    7
 10
751.40690200000245
 20
477.92354949999935
 11
755.70795800000633
 21
472.47269749999759
  0
LINE
  8
_0-0_0
  6
CONTINUOUS
 62
    7
 10
754.24375500000315
 20
469.82195649999994
 11
752.73383700000704
 21
471.31533449999915
  0
LINE
  8
_0-0_0
  6
CONTINUOUS
 62
    7
 10
752.73383700000704
 20
471.31533449999915
 11
750.40028000000166
 21
477.06484549999732
  0
LINE
  8
_0-0_0
  6
CONTINUOUS
 62
    7
 10
748.93607700000575
 20
477.32619849999901
 11
751.58991600000445
 21
468.36590149999756
  0
LINE
  8
_0-0_0
  6
CONTINUOUS
 62
    7
 10
748.20399100000213
 20
468.51523949999682
 11
747.60917300000438
 21
477.32619849999901
  0
LINE
  8
_0-0_0
  6
CONTINUOUS
 62
    7
 10
746.28223800000706
 20
477.77422649999789
 11
744.95534100000805
 21
471.16598149999845
  0
LINE
  8
_0-0_0
  6
CONTINUOUS
 62
    7
 10
742.57600800000364
 20
473.07004949999828
 11
745.68742700000439
 21
478.96892849999858
  0
LINE
  8
_0-0_0
  6
CONTINUOUS
 62
    7
 10
745.68742700000439
 20
478.96892849999858
 11
745.82469500000298
 21
479.86492549999821
  0
LINE
  8
_0-0_0
  6
CONTINUOUS
 62
    7
 10
745.82469500000298
 20
479.86492549999821
 11
740.24248100000841
 21
476.31815649999771
  0
LINE
  8
_0-0_0
  6
CONTINUOUS
 62
    7
 10
739.0528140000024
 20
479.1182514999964
 11
745.68742700000439
 21
480.87298149999697
  0
ARC
  8
_0-0_0
  6
CONTINUOUS
 62
    7
 10
805.81510400000843
 20
562.15352449999773
 40
143.40012899999999
 50
211.44612799999999
 51
228.57591400000001
  0
ARC
  8
_0-0_0
  6
CONTINUOUS
 62
    7
 10
736.13231300000189
 20
488.37697949999711
 40
42.11656099999999
 50
233.25806400000002
 51
274.60048800000004
  0
ARC
  8
_0-0_0
  6
CONTINUOUS
 62
    7
 10
805.81510400000843
 20
562.15352449999773
 40
137.40012899999999
 50
211.47678199999999
 51
228.47078399999998
  0
ARC
  8
_0-0_0
  6
CONTINUOUS
 62
    7
 10
736.13231300000189
 20
488.37697949999711
 40
36.11656099999999
 50
233.636483
 51
259.302121
  0
ARC
  8
_0-0_0
  6
CONTINUOUS
 62
    7
 10
736.11806100000831
 20
486.43041549999907
 40
34.202940999999996
 50
258.72024399999998
 51
275.69203399999998
  0
LINE
  8
_0-0_0
  6
CONTINUOUS
 62
    7
 10
750.01035700000648
 20
437.39611449999938
 11
750.01035700000648
 21
446.39611449999938
  0
LINE
  8
_0-0_0
  6
CONTINUOUS
 62
    7
 10
745.01036400000157
 20
446.39611449999938
 11
745.01036400000157
 21
437.39611449999938
  0
ARC
  8
_0-0_0
  6
CONTINUOUS
 62
    7
 10
747.51035700000648
 20
437.39611449999938
 40
2.5
 50
180.00000500000002
 51
0.0000000000000254
  0
LINE
  8
_0-0_0
  6
CONTINUOUS
 62
    7
 10
755.51035700000648
 20
446.39611449999938
 11
755.51035700000648
 21
440.39611449999938
  0
ARC
  8
_0-0_0
  6
CONTINUOUS
 62
    7
 10
752.51035700000648
 20
440.39611449999938
 40
3
 50
270.000001
 51
0
  0
LINE
  8
_0-0_0
  6
CONTINUOUS
 62
    7
 10
752.51035700000648
 20
437.39611449999938
 11
750.01035700000648
 21
437.39611449999938
  0
LINE
  8
_0-0_0
  6
CONTINUOUS
 62
    7
 10
745.01036400000157
 20
437.39611449999938
 11
742.51036400000157
 21
437.39611449999938
  0
ARC
  8
_0-0_0
  6
CONTINUOUS
 62
    7
 10
742.51036400000157
 20
440.39611449999938
 40
3
 50
180.00000500000002
 51
270.00000100000005
  0
LINE
  8
_0-0_0
  6
CONTINUOUS
 62
    7
 10
739.51036400000157
 20
440.39611449999938
 11
739.51036400000157
 21
446.39611449999938
  0
ARC
  8
_0-0_0
  6
CONTINUOUS
 62
    7
 10
756.21384800000669
 20
423.09078649999719
 40
23.315942
 50
299.37325700000002
 51
91.728996999999993
  0
ARC
  8
_0-0_0
  6
CONTINUOUS
 62
    7
 10
757.49988900000608
 20
427.94781149999835
 40
27.144757999999999
 50
236.64747700000001
 51
291.958485
  0
ARC
  8
_0-0_0
  6
CONTINUOUS
 62
    7
 10
749.95551700000215
 20
414.51926849999654
 40
11.829526
 50
123.12461
 51
231.40432300000003
  0
ARC
  8
_0-0_0
  6
CONTINUOUS
 62
    7
 10
756.21384800000669
 20
423.09078649999719
 40
17.315940999999999
 50
300.64522899999997
 51
78.053147999999965
  0
ARC
  8
_0-0_0
  6
CONTINUOUS
 62
    7
 10
757.49988900000608
 20
427.94781149999835
 40
21.144757999999999
 50
248.65369199999998
 51
290.891637
  0
ARC
  8
_0-0_0
  6
CONTINUOUS
 62
    7
 10
756.46308500000305
 20
426.19817749999856
 40
14.229861
 50
76.444754000000003
 51
93.838978999999966
  0
ARC
  8
_0-0_0
  6
CONTINUOUS
 62
    7
 10
750.28467900000396
 20
414.93198849999681
 40
11.674524999999999
 50
72.546662999999995
 51
125.58515800000001
  0
ARC
  8
_0-0_0
  6
CONTINUOUS
 62
    7
 10
751.09888800000772
 20
420.17196349999722
 40
6.4805219999999988
 50
253.05960200000004
 51
65.501050000000006
  0
ARC
  8
_0-0_0
  6
CONTINUOUS
 62
    7
 10
749.40055400000711
 20
411.75404049999997
 40
2.2267060000000001
 50
94.893348000000003
 51
207.53854900000002
  0
ARC
  8
_0-0_0
  6
CONTINUOUS
 62
    7
 10
770.38492900000711
 20
430.43186649999916
 40
30.256993999999999
 50
220.642076
 51
227.138091
  0
LINE
  8
_0-0_0
  6
CONTINUOUS
 62
    7
 10
751.40690200000245
 20
414.86866449999798
 11
755.70795800000633
 21
420.3195154999994
  0
LINE
  8
_0-0_0
  6
CONTINUOUS
 62
    7
 10
754.24375500000315
 20
422.97027249999883
 11
752.73383700000704
 21
421.47687949999818
  0
LINE
  8
_0-0_0
  6
CONTINUOUS
 62
    7
 10
752.73383700000704
 20
421.47687949999818
 11
750.40028000000166
 21
415.72736849999637
  0
LINE
  8
_0-0_0
  6
CONTINUOUS
 62
    7
 10
748.93607700000575
 20
415.46601549999832
 11
751.58991600000445
 21
424.42631149999943
  0
LINE
  8
_0-0_0
  6
CONTINUOUS
 62
    7
 10
748.20399100000213
 20
424.27697449999687
 11
747.60917300000438
 21
415.46601549999832
  0
LINE
  8
_0-0_0
  6
CONTINUOUS
 62
    7
 10
746.28223800000706
 20
415.01800249999724
 11
744.95534100000805
 21
421.62621749999744
  0
LINE
  8
_0-0_0
  6
CONTINUOUS
 62
    7
 10
742.57600800000364
 20
419.72216449999905
 11
745.68742700000439
 21
413.82330049999655
  0
LINE
  8
_0-0_0
  6
CONTINUOUS
 62
    7
 10
745.68742700000439
 20
413.82330049999655
 11
745.82469500000298
 21
412.92727349999768
  0
LINE
  8
_0-0_0
  6
CONTINUOUS
 62
    7
 10
745.82469500000298
 20
412.92727349999768
 11
740.24248100000841
 21
416.47405649999928
  0
LINE
  8
_0-0_0
  6
CONTINUOUS
 62
    7
 10
739.0528140000024
 20
413.67396249999729
 11
745.68742700000439
 21
411.91923249999672
  0
ARC
  8
_0-0_0
  6
CONTINUOUS
 62
    7
 10
718.53223100000469
 20
273.32009349999862
 40
60.811106999999993
 50
25.812851999999999
 51
115.87978699999999
  0
ARC
  8
_0-0_0
  6
CONTINUOUS
 62
    7
 10
724.28421400000661
 20
274.05269849999968
 40
55.344825
 50
355.4490550000001
 51
27.723345000000091
  0
ARC
  8
_0-0_0
  6
CONTINUOUS
 62
    7
 10
751.23768200000632
 20
272.5856574999998
 40
28.367999999999999
 50
221.59812500000001
 51
354.08315399999998
  0
ARC
  8
_0-0_0
  6
CONTINUOUS
 62
    7
 10
805.81510400000843
 20
330.63866649999909
 40
143.40012899999999
 50
131.42409599999999
 51
148.55386899999996
  0
ARC
  8
_0-0_0
  6
CONTINUOUS
 62
    7
 10
736.13231300000189
 20
404.41523449999659
 40
42.11656099999999
 50
85.399522000000005
 51
126.74194600000001
  0
ARC
  8
_0-0_0
  6
CONTINUOUS
 62
    7
 10
805.81510400000843
 20
330.63866649999909
 40
137.40012899999999
 50
131.529212
 51
148.52321499999999
  0
ARC
  8
_0-0_0
  6
CONTINUOUS
 62
    7
 10
736.13231300000189
 20
404.41523449999659
 40
36.11656099999999
 50
100.69788200000002
 51
126.363527
  0
ARC
  8
_0-0_0
  6
CONTINUOUS
 62
    7
 10
736.11806100000831
 20
406.3618134999997
 40
34.202940999999996
 50
84.307955000000021
 51
101.279753
  0
ARC
  8
_0-0_0
  6
CONTINUOUS
 62
    7
 10
717.98199900000327
 20
269.82100949999949
 40
57.504126999999997
 50
56.412720999999998
 51
118.91485000000003
  0
ARC
  8
_0-0_0
  6
CONTINUOUS
 62
    7
 10
714.56709700000647
 20
271.6794994999982
 40
57.974566999999993
 50
359.96230700000007
 51
52.582324000000057
  0
ARC
  8
_0-0_0
  6
CONTINUOUS
 62
    7
 10
751.12519400000747
 20
274.32219949999853
 40
21.583582
 50
233.16088399999998
 51
352.86500299999994
  0
ARC
  8
_0-0_0
  6
CONTINUOUS
 62
    7
 10
740.17515900000581
 20
259.5586504999992
 40
3.2038899999999995
 50
95.892454999999998
 51
231.58302800000001
  0
ARC
  8
_0-0_0
  6
CONTINUOUS
 62
    7
 10
739.53157400000782
 20
271.37896249999903
 40
8.6390829999999994
 50
272.08738799999998
 51
119.93396899999999
  0
ARC
  8
_0-0_0
  6
CONTINUOUS
 62
    7
 10
741.96126200000435
 20
264.37615449999794
 40
15.980615999999999
 50
114.948218
 51
221.667711
  0
LINE
  8
_0-0_0
  6
CONTINUOUS
 62
    7
 10
740.66762100000778
 20
264.82677749999857
 11
746.93592400000489
 21
270.54107149999982
  0
LINE
  8
_0-0_0
  6
CONTINUOUS
 62
    7
 10
746.11457400000654
 20
273.32766249999986
 11
739.97594100000424
 21
265.92022249999718
  0
LINE
  8
_0-0_0
  6
CONTINUOUS
 62
    7
 10
738.9816470000078
 20
265.92022249999718
 11
742.05098300000827
 21
277.48992449999787
  0
LINE
  8
_0-0_0
  6
CONTINUOUS
 62
    7
 10
738.59257900000375
 20
277.63103749999937
 11
737.90089800000715
 21
266.06133549999868
  0
LINE
  8
_0-0_0
  6
CONTINUOUS
 62
    7
 10
737.20921700000326
 20
265.53222149999783
 11
735.0909460000039
 21
276.22008749999804
  0
LINE
  8
_0-0_0
  6
CONTINUOUS
 62
    7
 10
731.32994500000495
 20
272.76330049999888
 11
737.46858600000269
 21
263.83910649999962
  0
LINE
  8
_0-0_0
  6
CONTINUOUS
 62
    7
 10
736.3446230000045
 20
262.60454849999951
 11
728.82262000000628
 21
268.70684349999647
  0
LINE
  8
_0-0_0
  6
CONTINUOUS
 62
    7
 10
727.56895800000348
 20
266.06133549999868
 11
735.52325800000835
 21
262.04015649999928
  0
LINE
  8
_0-0_0
  6
CONTINUOUS
 62
    7
 10
735.52325800000835
 20
260.34704149999743
 11
727.69864300000336
 21
261.3346814999968
  0
ARC
  8
_0-0_0
  6
CONTINUOUS
 62
    7
 10
692.18907600000239
 20
176.0926324999964
 40
20.045020999999998
 50
226.73199500000001
 51
322.81818099999998
  0
ARC
  8
_0-0_0
  6
CONTINUOUS
 62
    7
 10
698.26355400000466
 20
173.56846249999944
 40
13.780241999999998
 50
315.89928200000008
 51
66.246333000000078
  0
ARC
  8
_0-0_0
  6
CONTINUOUS
 62
    7
 10
701.33954300000187
 20
183.56293849999932
 40
3.6028519999999995
 50
46.615347999999997
 51
240.72791400000003
  0
ARC
  8
_0-0_0
  6
CONTINUOUS
 62
    7
 10
691.22346900000412
 20
177.92994349999938
 40
26.404957999999997
 50
227.86078000000003
 51
310.97957800000006
  0
ARC
  8
_0-0_0
  6
CONTINUOUS
 62
    7
 10
696.6395610000036
 20
174.44172349999644
 40
20.299819999999997
 50
305.88873799999999
 51
8.0191420000000146
  0
ARC
  8
_0-0_0
  6
CONTINUOUS
 62
    7
 10
699.726674000005
 20
175.12186849999853
 40
17.149747999999995
 50
7.2078420000000003
 51
73.768351999999993
  0
ARC
  8
_0-0_0
  6
CONTINUOUS
 62
    7
 10
701.4799850000054
 20
176.41270149999764
 40
15.476869000000001
 50
78.670658000000003
 51
184.50665900000001
  0
ARC
  8
_0-0_0
  6
CONTINUOUS
 62
    7
 10
694.09773700000369
 20
174.48505849999856
 40
8.0781770000000002
 50
174.946662
 51
47.282101000000068
  0
ARC
  8
_0-0_0
  6
CONTINUOUS
 62
    7
 10
723.72664300000179
 20
135.03724349999902
 40
61.751655
 50
218.857224
 51
320.76117399999998
  0
ARC
  8
_0-0_0
  6
CONTINUOUS
 62
    7
 10
739.87178400000266
 20
120.28129349999656
 40
39.931575000000002
 50
322.50626
 51
50.646326999999999
  0
ARC
  8
_0-0_0
  6
CONTINUOUS
 62
    7
 10
747.05250100000558
 20
127.58802549999749
 40
29.742521
 50
52.417413000000018
 51
137.388845
  0
ARC
  8
_0-0_0
  6
CONTINUOUS
 62
    7
 10
739.55586600000242
 20
131.74815049999961
 40
21.503274999999999
 50
132.015536
 51
250.57813899999999
  0
ARC
  8
_0-0_0
  6
CONTINUOUS
 62
    7
 10
724.40704700000788
 20
136.13761649999654
 40
55.260889999999996
 50
217.777781
 51
317.56598400000001
  0
ARC
  8
_0-0_0
  6
CONTINUOUS
 62
    7
 10
740.32329200000822
 20
120.05546349999716
 40
32.682098000000003
 50
319.54772300000013
 51
61.15495300000007
  0
ARC
  8
_0-0_0
  6
CONTINUOUS
 62
    7
 10
746.27589000000444
 20
129.81824949999645
 40
21.264775999999998
 50
62.513238000000008
 51
168.25086400000006
  0
ARC
  8
_0-0_0
  6
CONTINUOUS
 62
    7
 10
736.30125800000678
 20
132.06709049999699
 40
11.042505
 50
169.136179
 51
247.70467899999997
  0
ARC
  8
_0-0_0
  6
CONTINUOUS
 62
    7
 10
732.83447600000363
 20
122.87257149999644
 40
1.2519979999999999
 50
234.7526180000001
 51
21.668367000000057
  0
ARC
  8
_0-0_0
  6
CONTINUOUS
 62
    7
 10
738.60622000000149
 20
127.64121749999688
 40
6.3071519999999994
 50
20.582619999999995
 51
223.06070000000003
  0
ARC
  8
_0-0_0
  6
CONTINUOUS
 62
    7
 10
728.07481800000824
 20
121.67326049999976
 40
18.361329999999995
 50
349.27363500000007
 51
26.473829000000066
  0
ARC
  8
_0-0_0
  6
CONTINUOUS
 62
    7
 10
736.58159200000227
 20
120.27317549999864
 40
9.744806999999998
 50
244.62522000000001
 51
348.0526430000001
  0
LINE
  8
_0-0_0
  6
CONTINUOUS
 62
    7
 10
737.50151400000323
 20
132.98154949999665
 11
733.69920700000512
 21
125.28208649999944
  0
LINE
  8
_0-0_0
  6
CONTINUOUS
 62
    7
 10
734.30200600000535
 20
124.24158949999767
 11
740.42277900000772
 21
132.7545294999982
  0
LINE
  8
_0-0_0
  6
CONTINUOUS
 62
    7
 10
743.04265200000373
 20
129.91688249999791
 11
734.90481900000304
 21
123.2578864999996
  0
LINE
  8
_0-0_0
  6
CONTINUOUS
 62
    7
 10
735.5771520000053
 20
122.29310349999652
 11
744.45692800000688
 21
126.322552499998
  0
LINE
  8
_0-0_0
  6
CONTINUOUS
 62
    7
 10
744.52647800000705
 20
121.47962649999683
 11
735.20624200000748
 21
121.83909349999887
  0
LINE
  8
_0-0_0
  6
CONTINUOUS
 62
    7
 10
734.44112000000314
 20
121.32829049999782
 11
744.0164070000028
 21
118.03663349999988
  0
LINE
  8
_0-0_0
  6
CONTINUOUS
 62
    7
 10
741.46608300000662
 20
113.93153149999854
 11
733.93106500000431
 21
121.02561649999917
  0
LINE
  8
_0-0_0
  6
CONTINUOUS
 62
    7
 10
733.39781600000424
 20
121.02561649999917
 11
736.2495310000013
 21
112.66404449999757
  0
LINE
  8
_0-0_0
  6
CONTINUOUS
 62
    7
 10
697.38812700000562
 20
180.38471649999704
 11
699.49780700000701
 21
169.91862149999724
  0
LINE
  8
_0-0_0
  6
CONTINUOUS
 62
    7
 10
696.37547700000141
 20
168.48984949999797
 11
696.64973900000768
 21
180.86668049999935
  0
LINE
  8
_0-0_0
  6
CONTINUOUS
 62
    7
 10
696.64973900000768
 20
180.86668049999935
 11
696.43878600000608
 21
181.34870549999687
  0
LINE
  8
_0-0_0
  6
CONTINUOUS
 62
    7
 10
696.43878600000608
 20
181.34870549999687
 11
691.9451490000065
 21
169.59156449999864
  0
LINE
  8
_0-0_0
  6
CONTINUOUS
 62
    7
 10
688.27429600000323
 20
172.10480949999692
 11
696.77631000000838
 21
182.22660449999967
  0
LINE
  8
_0-0_0
  6
CONTINUOUS
 62
    7
 10
696.77631000000838
 20
183.93076749999818
 11
690.25740500000393
 21
184.94639249999821
  0
LINE
  8
_0-0_0
  6
CONTINUOUS
 62
    7
 10
691.67088800000784
 20
187.39078949999751
 11
696.98726300000271
 21
185.15296549999766
  0
LINE
  8
_0-0_0
  6
CONTINUOUS
 62
    7
 10
696.22778800000378
 20
182.76020449999851
 11
689.70889700000407
 21
183.37992549999763
  0
LINE
  8
_0-0_0
  6
CONTINUOUS
 62
    7
 10
688.35870800000703
 20
178.42231449999963
 11
695.21515300000465
 21
181.81345749999673
  0
ARC
  8
_0-0_0
  6
CONTINUOUS
 62
    7
 10
718.53223100000469
 20
619.47209649999786
 40
60.811106999999993
 50
244.12019500000008
 51
334.1871680000001
  0
ARC
  8
_0-0_0
  6
CONTINUOUS
 62
    7
 10
724.28421400000661
 20
618.73952249999638
 40
55.344825
 50
332.27662700000013
 51
4.5509090000000922
  0
ARC
  8
_0-0_0
  6
CONTINUOUS
 62
    7
 10
751.23768200000632
 20
620.20653249999668
 40
28.367999999999999
 50
5.9168519999999996
 51
138.40183100000002
  0
ARC
  8
_0-0_0
  6
CONTINUOUS
 62
    7
 10
717.98199900000327
 20
622.97121149999657
 40
57.504126999999997
 50
241.08516000000006
 51
303.58726500000006
  0
ARC
  8
_0-0_0
  6
CONTINUOUS
 62
    7
 10
714.56709700000647
 20
621.11269149999862
 40
57.974566999999993
 50
307.417689
 51
0.0376999999999869
  0
ARC
  8
_0-0_0
  6
CONTINUOUS
 62
    7
 10
751.12519400000747
 20
618.46999149999829
 40
21.583582
 50
7.1350040000000003
 51
126.83905800000001
  0
ARC
  8
_0-0_0
  6
CONTINUOUS
 62
    7
 10
740.17515900000581
 20
633.23354049999762
 40
3.2038899999999995
 50
128.416641
 51
264.10748699999999
  0
ARC
  8
_0-0_0
  6
CONTINUOUS
 62
    7
 10
739.53157400000782
 20
621.41322849999779
 40
8.6390829999999994
 50
240.06604100000004
 51
87.912622000000042
  0
ARC
  8
_0-0_0
  6
CONTINUOUS
 62
    7
 10
741.96126200000435
 20
628.41603549999854
 40
15.980615999999999
 50
138.33220399999999
 51
245.05177900000001
  0
LINE
  8
_0-0_0
  6
CONTINUOUS
 62
    7
 10
740.66762100000778
 20
627.96544349999749
 11
746.93592400000489
 21
622.251119499997
  0
LINE
  8
_0-0_0
  6
CONTINUOUS
 62
    7
 10
746.11457400000654
 20
619.46452849999696
 11
739.97594100000424
 21
626.87196849999964
  0
LINE
  8
_0-0_0
  6
CONTINUOUS
 62
    7
 10
738.9816470000078
 20
626.87196849999964
 11
742.05098300000827
 21
615.30226649999895
  0
LINE
  8
_0-0_0
  6
CONTINUOUS
 62
    7
 10
738.59257900000375
 20
615.16115349999745
 11
737.90089800000715
 21
626.73085549999814
  0
LINE
  8
_0-0_0
  6
CONTINUOUS
 62
    7
 10
737.20921700000326
 20
627.25996949999899
 11
735.0909460000039
 21
616.57210349999878
  0
LINE
  8
_0-0_0
  6
CONTINUOUS
 62
    7
 10
731.32994500000495
 20
620.02889049999794
 11
737.46858600000269
 21
628.9530844999972
  0
LINE
  8
_0-0_0
  6
CONTINUOUS
 62
    7
 10
736.3446230000045
 20
630.18767249999655
 11
728.82262000000628
 21
624.08534749999671
  0
LINE
  8
_0-0_0
  6
CONTINUOUS
 62
    7
 10
727.56895800000348
 20
626.73085549999814
 11
735.52325800000835
 21
630.75203449999754
  0
LINE
  8
_0-0_0
  6
CONTINUOUS
 62
    7
 10
735.52325800000835
 20
632.44518049999897
 11
727.69864300000336
 21
631.45750949999638
  0
ARC
  8
_0-0_0
  6
CONTINUOUS
 62
    7
 10
692.18907600000239
 20
716.69957349999822
 40
20.045020999999998
 50
37.181815000000007
 51
133.26801499999999
  0
ARC
  8
_0-0_0
  6
CONTINUOUS
 62
    7
 10
698.26355400000466
 20
719.22374349999882
 40
13.780241999999998
 50
293.75373200000001
 51
44.100720999999957
  0
ARC
  8
_0-0_0
  6
CONTINUOUS
 62
    7
 10
701.33954300000187
 20
709.22929749999821
 40
3.6028519999999995
 50
119.27234199999998
 51
313.38465200000002
  0
ARC
  8
_0-0_0
  6
CONTINUOUS
 62
    7
 10
691.22346900000412
 20
714.86226249999891
 40
26.404957999999997
 50
49.020386999999999
 51
132.13917599999999
  0
ARC
  8
_0-0_0
  6
CONTINUOUS
 62
    7
 10
696.6395610000036
 20
718.35048249999818
 40
20.299819999999997
 50
351.980931
 51
54.111214000000011
  0
ARC
  8
_0-0_0
  6
CONTINUOUS
 62
    7
 10
699.726674000005
 20
717.67033749999973
 40
17.149747999999995
 50
286.23164500000001
 51
352.79224799999997
  0
ARC
  8
_0-0_0
  6
CONTINUOUS
 62
    7
 10
701.4799850000054
 20
716.37950549999732
 40
15.476869000000001
 50
175.49333700000003
 51
281.32934500000005
  0
ARC
  8
_0-0_0
  6
CONTINUOUS
 62
    7
 10
694.09773700000369
 20
718.30717849999928
 40
8.0781770000000002
 50
312.71775200000008
 51
185.05355300000008
  0
ARC
  8
_0-0_0
  6
CONTINUOUS
 62
    7
 10
723.72664300000179
 20
757.75494649999746
 40
61.751655
 50
39.238880000000002
 51
141.14275799999999
  0
ARC
  8
_0-0_0
  6
CONTINUOUS
 62
    7
 10
739.87178400000266
 20
772.51092849999986
 40
39.931575000000002
 50
309.35366599999998
 51
37.493767000000005
  0
ARC
  8
_0-0_0
  6
CONTINUOUS
 62
    7
 10
747.05250100000558
 20
765.20416549999936
 40
29.742521
 50
222.61111
 51
307.58262500000001
  0
ARC
  8
_0-0_0
  6
CONTINUOUS
 62
    7
 10
739.55586600000242
 20
761.04407049999645
 40
21.503274999999999
 50
109.42183000000003
 51
227.98446100000001
  0
ARC
  8
_0-0_0
  6
CONTINUOUS
 62
    7
 10
724.40704700000788
 20
756.65460549999989
 40
55.260889999999996
 50
42.43399500000001
 51
142.222229
  0
ARC
  8
_0-0_0
  6
CONTINUOUS
 62
    7
 10
740.32329200000822
 20
772.73675849999927
 40
32.682098000000003
 50
298.84506399999998
 51
40.452250000000099
  0
ARC
  8
_0-0_0
  6
CONTINUOUS
 62
    7
 10
746.27589000000444
 20
762.97394149999673
 40
21.264775999999998
 50
191.749132
 51
297.48683999999997
  0
ARC
  8
_0-0_0
  6
CONTINUOUS
 62
    7
 10
736.30125800000678
 20
760.72510049999983
 40
11.042505
 50
112.295331
 51
190.86381700000004
  0
ARC
  8
_0-0_0
  6
CONTINUOUS
 62
    7
 10
732.83447600000363
 20
769.91961949999666
 40
1.2519979999999999
 50
338.33164499999998
 51
125.24739200000003
  0
ARC
  8
_0-0_0
  6
CONTINUOUS
 62
    7
 10
738.60622000000149
 20
765.15100449999954
 40
6.3071519999999994
 50
136.93950100000001
 51
339.41712600000011
  0
ARC
  8
_0-0_0
  6
CONTINUOUS
 62
    7
 10
728.07481800000824
 20
771.11896049999996
 40
18.361329999999995
 50
333.52608800000002
 51
10.726468000000017
  0
ARC
  8
_0-0_0
  6
CONTINUOUS
 62
    7
 10
736.58159200000227
 20
772.51904549999745
 40
9.744806999999998
 50
11.947543
 51
115.374709
  0
LINE
  8
_0-0_0
  6
CONTINUOUS
 62
    7
 10
737.50151400000323
 20
759.81067249999978
 11
733.69920700000512
 21
767.51013449999664
  0
LINE
  8
_0-0_0
  6
CONTINUOUS
 62
    7
 10
734.30200600000535
 20
768.55060149999917
 11
740.42277900000772
 21
760.03766149999865
  0
LINE
  8
_0-0_0
  6
CONTINUOUS
 62
    7
 10
743.04265200000373
 20
762.87530849999894
 11
734.90481900000304
 21
769.53430449999712
  0
LINE
  8
_0-0_0
  6
CONTINUOUS
 62
    7
 10
735.5771520000053
 20
770.49914849999902
 11
744.45692800000688
 21
766.46966849999808
  0
LINE
  8
_0-0_0
  6
CONTINUOUS
 62
    7
 10
744.52647800000705
 20
771.31256349999956
 11
735.20624200000748
 21
770.95312749999709
  0
LINE
  8
_0-0_0
  6
CONTINUOUS
 62
    7
 10
734.44112000000314
 20
771.46393149999858
 11
744.0164070000028
 21
774.75555749999694
  0
LINE
  8
_0-0_0
  6
CONTINUOUS
 62
    7
 10
741.46608300000662
 20
778.860720499997
 11
733.93106500000431
 21
771.76660449999679
  0
LINE
  8
_0-0_0
  6
CONTINUOUS
 62
    7
 10
733.39781600000424
 20
771.76660449999679
 11
736.2495310000013
 21
780.12817649999852
  0
LINE
  8
_0-0_0
  6
CONTINUOUS
 62
    7
 10
697.38812700000562
 20
712.40752049999719
 11
699.49780700000701
 21
722.87358449999738
  0
LINE
  8
_0-0_0
  6
CONTINUOUS
 62
    7
 10
688.27429600000323
 20
720.68742749999728
 11
696.77631000000838
 21
710.56560149999859
  0
LINE
  8
_0-0_0
  6
CONTINUOUS
 62
    7
 10
696.77631000000838
 20
708.86143849999644
 11
690.25740500000393
 21
707.84581349999644
  0
LINE
  8
_0-0_0
  6
CONTINUOUS
 62
    7
 10
691.67088800000784
 20
705.40141649999714
 11
696.98726300000271
 21
707.63924049999696
  0
LINE
  8
_0-0_0
  6
CONTINUOUS
 62
    7
 10
696.22778800000378
 20
710.03200149999975
 11
689.70889700000407
 21
709.41228149999733
  0
LINE
  8
_0-0_0
  6
CONTINUOUS
 62
    7
 10
688.35870800000703
 20
714.36992249999821
 11
695.21515300000465
 21
710.97874849999789
  0
LINE
  8
_0-0_0
  6
CONTINUOUS
 62
    7
 10
696.37547700000141
 20
724.30237149999812
 11
696.64973900000768
 21
711.92552549999891
  0
LINE
  8
_0-0_0
  6
CONTINUOUS
 62
    7
 10
696.64973900000768
 20
711.92552549999891
 11
696.43878600000608
 21
711.44353149999733
  0
LINE
  8
_0-0_0
  6
CONTINUOUS
 62
    7
 10
696.43878600000608
 20
711.44353149999733
 11
691.9451490000065
 21
723.20064149999962
  0
LINE
  8
_0-0_0
  6
CONTINUOUS
 62
    7
 10
635.30745600000228
 20
-53.680332500000048
 11
623.30745600000228
 21
-53.680332500000048
  0
LINE
  8
_0-0_0
  6
CONTINUOUS
 62
    7
 10
623.30745600000228
 20
-53.680332500000048
 11
623.30745600000228
 21
228.31966749999995
  0
LINE
  8
_0-0_0
  6
CONTINUOUS
 62
    7
 10
635.30745600000228
 20
-53.680332500000048
 11
635.30745600000228
 21
228.31966749999995
  0
LINE
  8
_0-0_0
  6
CONTINUOUS
 62
    7
 10
635.30745600000228
 20
946.31966749999981
 11
623.30745600000228
 21
946.31966749999981
  0
LINE
  8
_0-0_0
  6
CONTINUOUS
 62
    7
 10
635.30745600000228
 20
664.4725234999969
 11
635.30745600000228
 21
946.31966749999981
  0
LINE
  8
_0-0_0
  6
CONTINUOUS
 62
    7
 10
623.30745600000228
 20
664.47252601151149
 11
623.30745600000228
 21
946.31966749999981
  0
ENDSEC
  0
EOF
