  0
SECTION
  2
HEADER
  9
$ACADVER
  1
AC1009
  9
$INSBASE
 10
0
 20
0
 30
0
  9
$EXTMIN
 10
0
 20
0
  9
$EXTMAX
 10
420
 20
297
  9
$LIMMIN
 10
0
 20
0
  9
$LIMMAX
 10
420
 20
297
  9
$LTSCALE
 40
1
  0
ENDSEC
  0
SECTION
  2
TABLES
  0
TABLE
  2
LTYPE
 70
     9
  0
LTYPE
  2
CONTINUOUS
 70
    64
  3
実線
 72
    65
 73
     0
 40
0.0
  0
LTYPE
  2
DASHED1
 70
    64
  3
--  --  --  --  --  --  --  --  
 72
    65
 73
     2
 40
2.5
 49
1.25
 49
-1.25
  0
LTYPE
  2
DASHED2
 70
    64
  3
----    ----    ----    ----    
 72
    65
 73
     2
 40
5.0
 49
2.5
 49
-2.5
  0
LTYPE
  2
DASHED3
 70
    64
  3
------  ------  ------  ------  
 72
    65
 73
     2
 40
5.0
 49
3.75
 49
-1.25
  0
LTYPE
  2
CENTER1
 70
    64
  3
----- - ----- - ----- - ----- - 
 72
    65
 73
     4
 40
10.0
 49
6.25
 49
-1.25
 49
1.25
 49
-1.25
  0
LTYPE
  2
CENTER2
 70
    64
  3
----------  --  ----------  --  
 72
    65
 73
     4
 40
20.0
 49
12.5
 49
-2.5
 49
2.5
 49
-2.5
  0
LTYPE
  2
PHANTOM1
 70
    64
  3
--- - - --- - - --- - - --- - - 
 72
    65
 73
     6
 40
10.0
 49
3.25
 49
-1.25
 49
1.25
 49
-1.25
 49
1.25
 49
-1.25
  0
LTYPE
  2
PHANTOM2
 70
    64
  3
--------  -  -  --------  -  -  
 72
    65
 73
     6
 40
20.0
 49
10.0
 49
-2.5
 49
1.25
 49
-2.5
 49
1.25
 49
-2.5
  0
LTYPE
  2
DOT
 70
    64
  3
-   -   -   -   -   -   -   -   
 72
    65
 73
     2
 40
2.5
 49
0.625
 49
-1.875
  0
LTYPE
  2
DUMMY
 70
    64
  3
ダミー
 72
    65
 73
     0
 40
0.0
  0
LTYPE
  2
RAND1
 70
    64
  3
ランダム線1
 72
    65
 73
     4
 40
10.0
 49
1.0
 49
-2.0
 49
3.0
 49
-4.0
  0
LTYPE
  2
RAND2
 70
    64
  3
ランダム線2
 72
    65
 73
     4
 40
14.0
 49
2.0
 49
-3.0
 49
4.0
 49
-5.0
  0
LTYPE
  2
RAND3
 70
    64
  3
ランダム線3
 72
    65
 73
     4
 40
18.0
 49
3.0
 49
-4.0
 49
5.0
 49
-6.0
  0
LTYPE
  2
RAND4
 70
    64
  3
ランダム線4
 72
    65
 73
     4
 40
22.0
 49
4.0
 49
-5.0
 49
6.0
 49
-7.0
  0
LTYPE
  2
RAND5
 70
    64
  3
ランダム線5
 72
    65
 73
     4
 40
26.0
 49
5.0
 49
-6.0
 49
7.0
 49
-8.0
  0
LTYPE
  2
LONG1
 70
    64
  3
----------  --  ----------  --  
 72
    65
 73
     4
 40
40.0
 49
32.5
 49
-2.5
 49
2.5
 49
-2.5
  0
LTYPE
  2
LONG2
 70
    64
  3
--------  -  -  --------  -  -  
 72
    65
 73
     6
 40
40.0
 49
30.0
 49
-2.5
 49
1.25
 49
-2.5
 49
1.25
 49
-2.5
  0
LTYPE
  2
LONG3
 70
    64
  3
+++++++++++++++..+++++++++++++++
 72
    65
 73
     2
 40
40.0
 49
37.5
 49
-2.5
  0
LTYPE
  2
LONG4
 70
    64
  3
+++++++++++++++..+++++++++++++++
 72
    65
 73
     2
 40
80.0
 49
75.0
 49
-5.0
  0
LTYPE
  2
LONG5
 70
    64
  3
----------  --  ----------  --  
 72
    65
 73
     4
 40
60.0
 49
37.5
 49
-7.5
 49
7.5
 49
-7.5
  0
LTYPE
  2
dashed
 70
   64
  3
-------   -------------   ------
 72
   65
 73
    2
 40
7.5
 49
6
 49
-1.5
  0
LTYPE
  2
dashed_spaced
 70
   64
  3
----        --------        ----
 72
   65
 73
    2
 40
12
 49
6
 49
-6
  0
LTYPE
  2
long_dashed_dotted
 70
   64
  3
------------- --- --------------
 72
   65
 73
    4
 40
15.25
 49
12
 49
-1.5
 49
0.25
 49
-1.5
  0
LTYPE
  2
long_dashed_double-dotted
 70
   64
  3
----------- --- --- ------------
 72
   65
 73
    6
 40
17
 49
12
 49
-1.5
 49
0.25
 49
-1.5
 49
0.25
 49
-1.5
  0
LTYPE
  2
long_dashed_triplicate-dotted
 70
   64
  3
--------- --- --- --- ----------
 72
   65
 73
    8
 40
18.75
 49
12
 49
-1.5
 49
0.25
 49
-1.5
 49
0.25
 49
-1.5
 49
0.25
 49
-1.5
  0
LTYPE
  2
dotted
 70
   64
  3
   -       -       -       -    
 72
   65
 73
    2
 40
1.75
 49
0.25
 49
-1.5
  0
LTYPE
  2
chain
 70
   64
  3
-------------- -- --------------
 72
   65
 73
    4
 40
18.5
 49
12
 49
-1.5
 49
3.5
 49
-1.5
  0
LTYPE
  2
chain_double_dash
 70
   64
  3
------------ -- -- -------------
 72
   65
 73
    6
 40
23.5
 49
12
 49
-1.5
 49
3.5
 49
-1.5
 49
3.5
 49
-1.5
  0
LTYPE
  2
dashed_dotted
 70
   64
  3
-----------     -     ----------
 72
   65
 73
    4
 40
9.25
 49
6
 49
-1.5
 49
0.25
 49
-1.5
  0
LTYPE
  2
double-dashed_dotted
 70
   64
  3
------   -----------   -   -----
 72
   65
 73
    6
 40
16.75
 49
6
 49
-1.5
 49
6
 49
-1.5
 49
0.25
 49
-1.5
  0
LTYPE
  2
dashed_double-dotted
 70
   64
  3
---------    -    -    ---------
 72
   65
 73
    6
 40
11
 49
6
 49
-1.5
 49
0.25
 49
-1.5
 49
0.25
 49
-1.5
  0
LTYPE
  2
double-dashed_double-dotted
 70
   64
  3
-----   ---------   -   -   ----
 72
   65
 73
    8
 40
18.5
 49
6
 49
-1.5
 49
6
 49
-1.5
 49
0.25
 49
-1.5
 49
0.25
 49
-1.5
  0
LTYPE
  2
dashed_triplicate-dotted
 70
   64
  3
-------    -    -    -    ------
 72
   65
 73
    8
 40
12.75
 49
6
 49
-1.5
 49
0.25
 49
-1.5
 49
0.25
 49
-1.5
 49
0.25
 49
-1.5
  0
LTYPE
  2
double-dashed_triplicate-dotted
 70
   64
  3
-----  ---------  -  -  -  -----
 72
   65
 73
   10
 40
20.25
 49
6
 49
-1.5
 49
6
 49
-1.5
 49
0.25
 49
-1.5
 49
0.25
 49
-1.5
 49
0.25
 49
-1.5
  0
LTYPE
  2
undefined
 70
   64
  3
--------------------------------
 72
   65
 73
    0
 40
0
  0
LTYPE
  2
BORDER
 70
   64
  3
----     --------     -     ----
 72
   65
 73
    0
 40
0
  0
LTYPE
  2
BORDER2
 70
   64
  3
----     --------     -     ----
 72
   65
 73
    0
 40
0
  0
LTYPE
  2
BORDERX2
 70
   64
  3
----     --------     -     ----
 72
   65
 73
    0
 40
0
  0
LTYPE
  2
CENTER
 70
   64
  3
----------    ----    ----------
 72
   65
 73
    0
 40
0
  0
LTYPE
  2
CENTER2_21
 70
   64
  3
----------    ----    ----------
 72
   65
 73
    0
 40
0
  0
LTYPE
  2
CENTERX2
 70
   64
  3
----------    ----    ----------
 72
   65
 73
    0
 40
0
  0
LTYPE
  2
DASHDOT
 70
   64
  3
--------        -        -------
 72
   65
 73
    0
 40
0
  0
LTYPE
  2
DASHDOT2
 70
   64
  3
--------        -        -------
 72
   65
 73
    0
 40
0
  0
LTYPE
  2
DASHDOTX2
 70
   64
  3
--------        -        -------
 72
   65
 73
    0
 40
0
  0
LTYPE
  2
DASHED
 70
   64
  3
------     -----------     -----
 72
   65
 73
    0
 40
0
  0
LTYPE
  2
DASHED2_27
 70
   64
  3
------     -----------     -----
 72
   65
 73
    0
 40
0
  0
LTYPE
  2
DASHEDX2
 70
   64
  3
------     -----------     -----
 72
   65
 73
    0
 40
0
  0
LTYPE
  2
DIVIDE
 70
   64
  3
------      -      -      ------
 72
   65
 73
    0
 40
0
  0
LTYPE
  2
DIVIDE2
 70
   64
  3
------      -      -      ------
 72
   65
 73
    0
 40
0
  0
LTYPE
  2
DIVIDEX2
 70
   64
  3
------      -      -      ------
 72
   65
 73
    0
 40
0
  0
LTYPE
  2
DOT_32
 70
   64
  3
-               -               
 72
   65
 73
    0
 40
0
  0
ENDTAB
  0
TABLE
  2
STYLE
  5
3
100
AcDbSymbolTable
 70
     1
  0
STYLE
  5
10
100
AcDbSymbolTableRecord
100
AcDbTextStyleTableRecord
  2
STANDARD
 70
     0
 40
0.0
 41
1.0
 50
0.0
 71
     0
 42
0.2
  3
txt
  4
bigfont.shx
  0
STYLE
  5
26
100
AcDbSymbolTableRecord
100
AcDbTextStyleTableRecord
  2
TATEGAKI
 70
    68
 40
0.0
 41
1.0
 50
0.0
 71
     0
 42
1.0
  3
txt
  4
bigfont.shx
  0
ENDTAB
  0
TABLE
  2
LAYER
 70
    2
  0
LAYER
  2
_0-0_0
 70
   64
 62
    7
  6
CONTINUOUS
  0
LAYER
  2
ADD_LINE
 70
   64
 62
    7
  6
CONTINUOUS
  0
ENDTAB
  0
ENDSEC
  0
SECTION
  2
BLOCKS
  0
ENDSEC
  0
SECTION
  2
ENTITIES
  0
ARC
  8
_0-0_0
  6
CONTINUOUS
 62
    7
 10
209.674566
 20
173.77443349999999
 40
5.5730219999999999
 50
124.95556500000001
 51
271.08668399999999
  0
LINE
  8
_0-0_0
  6
CONTINUOUS
 62
    7
 10
125.85145799999999
 20
111.5917025
 11
89.555117999999993
 21
111.5917025
  0
ARC
  8
_0-0_0
  6
CONTINUOUS
 62
    7
 10
64.098117999999999
 20
150.1925095
 40
11.791539999999999
 50
287.33187900000001
 51
36.808224000000003
  0
ARC
  8
_0-0_0
  6
CONTINUOUS
 62
    7
 10
137.618235
 20
162.88736349999999
 40
22.842167
 50
97.887758000000005
 51
206.74284599999996
  0
ARC
  8
_0-0_0
  6
CONTINUOUS
 62
    7
 10
130.11926499999998
 20
162.35345849999999
 40
16.166869999999999
 50
217.067961
 51
337.83705700000002
  0
ARC
  8
_0-0_0
  6
CONTINUOUS
 62
    7
 10
-33.274287000000015
 20
21.589853500000004
 40
136.58061000000001
 50
48.508935999999999
 51
65.86197700000001
  0
ARC
  8
_0-0_0
  6
CONTINUOUS
 62
    7
 10
18.576022999999992
 20
133.42258150000001
 40
13.416592
 50
72.643255999999994
 51
233.62115600000001
  0
ARC
  8
_0-0_0
  6
CONTINUOUS
 62
    7
 10
15.769992999999999
 20
136.70531149999999
 40
14.997173999999999
 50
249.90927199999999
 51
306.347262
  0
LINE
  8
_0-0_0
  6
CONTINUOUS
 62
    7
 10
24.658481999999992
 20
124.62598850000001
 11
24.970494000000002
 21
122.62071349999999
  0
ARC
  8
_0-0_0
  6
CONTINUOUS
 62
    7
 10
14.11835099999999
 20
136.5373735
 40
17.647745
 50
200.77681200000004
 51
307.94694700000002
  0
ARC
  8
_0-0_0
  6
CONTINUOUS
 62
    7
 10
12.454991000000007
 20
136.58103649999998
 40
16.120397000000001
 50
103.68065300000001
 51
203.01961399999999
  0
ARC
  8
_0-0_0
  6
CONTINUOUS
 62
    7
 10
-3.4275159999999971
 20
108.72194450000001
 40
45.164786999999997
 50
74.499879000000021
 51
114.33408800000001
  0
ARC
  8
_0-0_0
  6
CONTINUOUS
 62
    7
 10
-13.362666000000019
 20
142.18231650000001
 40
11.594212000000001
 50
138.43833100000001
 51
178.02293800000001
  0
ARC
  8
_0-0_0
  6
CONTINUOUS
 62
    7
 10
-27.513453000000027
 20
145.06652550000001
 40
3.5696870000000001
 50
193.668621
 51
315.89941800000003
  0
ARC
  8
_0-0_0
  6
CONTINUOUS
 62
    7
 10
-38.132197000000019
 20
154.38200849999998
 40
12.422976
 50
202.635716
 51
305.13872800000001
  0
ARC
  8
_0-0_0
  6
CONTINUOUS
 62
    7
 10
-41.25219199999998
 20
152.49782249999998
 40
8.8345490000000009
 50
96.930110999999997
 51
199.14274399999999
  0
ARC
  8
_0-0_0
  6
CONTINUOUS
 62
    7
 10
-40.150141000000019
 20
154.72258449999998
 40
6.8949449999999999
 50
108.326595
 51
307.277151
  0
ARC
  8
_0-0_0
  6
CONTINUOUS
 62
    7
 10
-30.056056000000012
 20
151.38416749999999
 40
6.2957739999999998
 50
125.21020800000001
 51
199.94880200000003
  0
ARC
  8
_0-0_0
  6
CONTINUOUS
 62
    7
 10
-2.6248120000000199
 20
-85.747764500000017
 40
244.25884600000001
 50
94.069252000000006
 51
97.305819
  0
ARC
  8
_0-0_0
  6
CONTINUOUS
 62
    7
 10
-2.2233229999999935
 20
93.201255500000002
 40
67.080825000000004
 50
66.084491000000014
 51
105.32991800000002
  0
ARC
  8
_0-0_0
  6
CONTINUOUS
 62
    7
 10
91.824343999999996
 20
166.3068275
 40
54.762163999999999
 50
227.07607300000001
 51
267.62511699999999
  0
ARC
  8
_0-0_0
  6
CONTINUOUS
 62
    7
 10
1711.1949559999998
 20
3263.5805245000001
 40
3536.8900840000001
 50
241.52641699999998
 51
241.84484099999997
  0
ARC
  8
_0-0_0
  6
CONTINUOUS
 62
    7
 10
59.681033999999983
 20
146.62910149999999
 40
17.464251999999998
 50
37.485939000000002
 51
184.69503600000002
  0
LINE
  8
_0-0_0
  6
CONTINUOUS
 62
    7
 10
183.034426
 20
155.89003450000001
 11
160.46412900000001
 21
155.89003450000001
  0
ARC
  8
_0-0_0
  6
CONTINUOUS
 62
    7
 10
160.76907599999998
 20
153.74803550000001
 40
2.1635960000000001
 50
98.102402999999995
 51
261.89759299999997
  0
ARC
  8
_0-0_0
  6
CONTINUOUS
 62
    7
 10
160.66559000000001
 20
149.7374925
 40
1.879381
 50
96.153457000000017
 51
263.846519
  0
ARC
  8
_0-0_0
  6
CONTINUOUS
 62
    7
 10
160.62877099999997
 20
145.9092455
 40
1.966601
 50
94.802267999999998
 51
265.19774900000004
  0
LINE
  8
_0-0_0
  6
CONTINUOUS
 62
    7
 10
160.46412900000001
 20
143.9495435
 11
183.034426
 21
143.9495435
  0
ARC
  8
_0-0_0
  6
CONTINUOUS
 62
    7
 10
182.83385299999998
 20
145.90923750000002
 40
1.969935
 50
275.84380100000004
 51
84.156195000000054
  0
ARC
  8
_0-0_0
  6
CONTINUOUS
 62
    7
 10
182.895746
 20
149.7374925
 40
1.8736889999999999
 50
274.24463500000002
 51
85.755368000000018
  0
ARC
  8
_0-0_0
  6
CONTINUOUS
 62
    7
 10
182.71428499999999
 20
153.74803550000001
 40
2.1657899999999999
 50
278.50044400000002
 51
81.49955199999998
  0
ARC
  8
_0-0_0
  6
CONTINUOUS
 62
    7
 10
128.02436299999999
 20
155.15523150000001
 40
43.617690000000003
 50
267.14451700000001
 51
345.11339400000003
  0
ARC
  8
_0-0_0
  6
CONTINUOUS
 62
    7
 10
209.96601199999998
 20
149.0479785
 40
37.499999000000003
 50
187.81404200000003
 51
270.000001
  0
ARC
  8
_0-0_0
  6
CONTINUOUS
 62
    7
 10
209.96601199999998
 20
149.0479785
 40
37.499999000000003
 50
90.000003000000007
 51
169.487224
  0
ARC
  8
_0-0_0
  6
CONTINUOUS
 62
    7
 10
137.33353699999998
 20
151.54929049999998
 40
34.083483999999999
 50
7.3168450000000007
 51
94.796571
  0
LINE
  8
_0-0_0
  6
CONTINUOUS
 62
    7
 10
160.46412900000001
 20
151.60603750000001
 11
183.034426
 21
151.60603750000001
  0
LINE
  8
_0-0_0
  6
CONTINUOUS
 62
    7
 10
183.034426
 20
147.86893950000001
 11
160.46412900000001
 21
147.86893950000001
  0
ARC
  8
_0-0_0
  6
CONTINUOUS
 62
    7
 10
209.96601199999998
 20
149.0479785
 40
29.500585000000001
 50
189.952123
 51
269.63923
  0
ARC
  8
_0-0_0
  6
CONTINUOUS
 62
    7
 10
209.96601199999998
 20
149.0479785
 40
29.500585000000001
 50
90.360765999999998
 51
166.58929700000002
  0
LINE
  8
_0-0_0
  6
CONTINUOUS
 62
    7
 10
126.06091599999999
 20
119.5917025
 11
89.727480999999983
 21
119.5917025
  0
ARC
  8
_0-0_0
  6
CONTINUOUS
 62
    7
 10
137.618235
 20
162.88736349999999
 40
14.842166000000001
 50
98.68713600000001
 51
187.42547200000004
  0
ARC
  8
_0-0_0
  6
CONTINUOUS
 62
    7
 10
91.824343999999996
 20
166.3068275
 40
46.762163999999999
 50
215.14651900000004
 51
267.429937
  0
ARC
  8
_0-0_0
  6
CONTINUOUS
 62
    7
 10
59.681033999999983
 20
146.62910149999999
 40
9.4642499999999998
 50
37.808010000000003
 51
229.922472
  0
ARC
  8
_0-0_0
  6
CONTINUOUS
 62
    7
 10
60.898075000000006
 20
147.7012445
 40
7.8461150000000002
 50
305.55061599999999
 51
37.07044200000005
  0
ARC
  8
_0-0_0
  6
CONTINUOUS
 62
    7
 10
62.462069999999983
 20
145.83375949999999
 40
5.4205870000000003
 50
210.49073399999997
 51
303.57699200000002
  0
LINE
  8
_0-0_0
  6
CONTINUOUS
 62
    7
 10
57.791111000000001
 20
143.08336350000002
 11
57.141208000000006
 21
142.65616249999999
  0
ARC
  8
_0-0_0
  6
CONTINUOUS
 62
    7
 10
64.249056999999993
 20
146.06795149999999
 40
7.8842749999999997
 50
205.64112299999999
 51
295.23927099999997
  0
ARC
  8
_0-0_0
  6
CONTINUOUS
 62
    7
 10
134.30733699999999
 20
162.97085950000002
 40
11.581092
 50
189.95286100000001
 51
328.06152600000001
  0
LINE
  8
_0-0_0
  6
CONTINUOUS
 62
    7
 10
144.13524899999999
 20
156.84436449999998
 11
145.09164699999999
 21
156.2546275
  0
ARC
  8
_0-0_0
  6
CONTINUOUS
 62
    7
 10
132.05070000000001
 20
161.72661249999999
 40
13.033519999999999
 50
248.14612700000004
 51
338.00092699999999
  0
ARC
  8
_0-0_0
  6
CONTINUOUS
 62
    7
 10
137.33353699999998
 20
151.54929049999998
 40
26.083486000000001
 50
9.5795790000000007
 51
94.302953000000002
  0
ARC
  8
_0-0_0
  6
CONTINUOUS
 62
    7
 10
128.02436299999999
 20
155.15523150000001
 40
35.617686999999997
 50
266.839945
 51
341.66270100000003
  0
ARC
  8
_0-0_0
  6
CONTINUOUS
 62
    7
 10
210.41624999999999
 20
149.35781550000002
 40
33.295242000000002
 50
189.34819800000002
 51
268.90550400000006
  0
ARC
  8
_0-0_0
  6
CONTINUOUS
 62
    7
 10
210.41624999999999
 20
149.35781550000002
 40
33.295242000000002
 50
91.094505999999996
 51
168.68570100000002
  0
ARC
  8
_0-0_0
  6
CONTINUOUS
 62
    7
 10
138.48179099999999
 20
163.21587049999999
 40
20.16094
 50
80.588759999999994
 51
211.37579000000002
  0
ARC
  8
_0-0_0
  6
CONTINUOUS
 62
    7
 10
135.54203999999999
 20
150.4558145
 40
33.425037000000003
 50
9.3002870000000009
 51
73.113896999999994
  0
ARC
  8
_0-0_0
  6
CONTINUOUS
 62
    7
 10
62.811221999999987
 20
150.0648545
 40
10.973302
 50
263.29953
 51
347.43951099999998
  0
ARC
  8
_0-0_0
  6
CONTINUOUS
 62
    7
 10
61.050601999999998
 20
148.98619550000001
 40
9.7423249999999992
 50
337.47019400000005
 51
76.849020000000039
  0
ARC
  8
_0-0_0
  6
CONTINUOUS
 62
    7
 10
58.980563999999987
 20
147.42206249999998
 40
11.933843
 50
72.536936999999995
 51
202.64085299999999
  0
ARC
  8
_0-0_0
  6
CONTINUOUS
 62
    7
 10
89.430789000000004
 20
159.3174405
 40
43.220599
 50
218.17514800000001
 51
270.99207200000001
  0
LINE
  8
_0-0_0
  6
CONTINUOUS
 62
    7
 10
90.884478999999999
 20
115.9131065
 11
116.060199
 21
115.9131065
  0
LINE
  8
_0-0_0
  6
CONTINUOUS
 62
    7
 10
116.060199
 20
115.9131065
 11
132.55463700000001
 21
115.9131065
  0
ARC
  8
_0-0_0
  6
CONTINUOUS
 62
    7
 10
127.17845399999999
 20
154.81054349999999
 40
39.321013999999998
 50
278.41747099999998
 51
343.56269500000002
  0
ARC
  8
_0-0_0
  6
CONTINUOUS
 62
    7
 10
-33.869502000000011
 20
189.52345650000001
 40
35.840904000000002
 50
268.10211000000004
 51
292.62207899999999
  0
ARC
  8
_0-0_0
  6
CONTINUOUS
 62
    7
 10
-3.5292919999999981
 20
121.46086249999999
 40
35.903475999999998
 50
116.780157
 51
139.29684499999999
  0
ARC
  8
_0-0_0
  6
CONTINUOUS
 62
    7
 10
-38.614130999999986
 20
159.61552849999998
 40
13.472218
 50
261.50559500000003
 51
309.48494199999999
  0
ARC
  8
_0-0_0
  6
CONTINUOUS
 62
    7
 10
108.42314399999999
 20
126.33810149999999
 40
7.31968
 50
292.82717600000001
 51
247.17282500000005
  0
ARC
  8
_0-0_0
  6
CONTINUOUS
 62
    7
 10
106.05005899999999
 20
125.82531850000001
 40
7.7735940000000001
 50
308.78976499999999
 51
71.855823999999984
  0
ARC
  8
_0-0_0
  6
CONTINUOUS
 62
    7
 10
209.674566
 20
124.32153750000001
 40
5.5730219999999999
 50
88.913306000000006
 51
235.04443100000003
  0
ARC
  8
_0-0_0
  6
CONTINUOUS
 62
    7
 10
207.024587
 20
174.1688125
 40
6.3262159999999996
 50
295.73533399999997
 51
39.215810999999952
  0
ARC
  8
_0-0_0
  6
CONTINUOUS
 62
    7
 10
208.133937
 20
124.4661605
 40
5.7050150000000004
 50
305.97531700000002
 51
67.04329300000002
  0
ARC
  8
_0-0_0
  6
CONTINUOUS
 62
    7
 10
210.257465
 20
173.77443349999999
 40
5.5730219999999999
 50
268.913318
 51
55.044433000000005
  0
LINE
  8
_0-0_0
  6
CONTINUOUS
 62
    7
 10
294.08057400000001
 20
111.5917025
 11
330.37692199999998
 21
111.5917025
  0
ARC
  8
_0-0_0
  6
CONTINUOUS
 62
    7
 10
355.83389999999997
 20
150.1925095
 40
11.791539999999999
 50
143.19177400000001
 51
252.66812200000001
  0
ARC
  8
_0-0_0
  6
CONTINUOUS
 62
    7
 10
282.31379700000002
 20
162.88736349999999
 40
22.842167
 50
333.25714199999999
 51
82.112240999999983
  0
ARC
  8
_0-0_0
  6
CONTINUOUS
 62
    7
 10
289.81276700000001
 20
162.35345849999999
 40
16.166869999999999
 50
202.16294400000001
 51
322.93202700000001
  0
ARC
  8
_0-0_0
  6
CONTINUOUS
 62
    7
 10
453.20629700000001
 20
21.589853500000004
 40
136.58061000000001
 50
114.13802800000002
 51
131.49105900000001
  0
ARC
  8
_0-0_0
  6
CONTINUOUS
 62
    7
 10
401.35598600000003
 20
133.42258150000001
 40
13.416592
 50
306.37884500000001
 51
107.35674300000001
  0
ARC
  8
_0-0_0
  6
CONTINUOUS
 62
    7
 10
404.16201599999999
 20
136.70531149999999
 40
14.997173999999999
 50
233.652739
 51
290.09070200000002
  0
LINE
  8
_0-0_0
  6
CONTINUOUS
 62
    7
 10
395.273528
 20
124.62598850000001
 11
394.96151599999996
 21
122.62071349999999
  0
ARC
  8
_0-0_0
  6
CONTINUOUS
 62
    7
 10
405.81368899999995
 20
136.5373735
 40
17.647745
 50
232.05305399999997
 51
339.22317599999997
  0
ARC
  8
_0-0_0
  6
CONTINUOUS
 62
    7
 10
407.47704899999997
 20
136.58103649999998
 40
16.120397000000001
 50
336.98038700000006
 51
76.319345000000041
  0
ARC
  8
_0-0_0
  6
CONTINUOUS
 62
    7
 10
423.35952599999996
 20
108.72194450000001
 40
45.164786999999997
 50
65.665916999999993
 51
105.50012
  0
ARC
  8
_0-0_0
  6
CONTINUOUS
 62
    7
 10
433.29470600000002
 20
142.18231650000001
 40
11.594212000000001
 50
1.9770650000000001
 51
41.561669999999999
  0
ARC
  8
_0-0_0
  6
CONTINUOUS
 62
    7
 10
447.44546300000002
 20
145.06652550000001
 40
3.5696870000000001
 50
224.10056900000001
 51
346.33138100000002
  0
ARC
  8
_0-0_0
  6
CONTINUOUS
 62
    7
 10
458.06420700000001
 20
154.38200849999998
 40
12.422976
 50
234.86127300000004
 51
337.36427099999997
  0
ARC
  8
_0-0_0
  6
CONTINUOUS
 62
    7
 10
461.18420200000003
 20
152.49782249999998
 40
8.8345490000000009
 50
340.85725700000006
 51
83.069888000000034
  0
ARC
  8
_0-0_0
  6
CONTINUOUS
 62
    7
 10
460.08218099999999
 20
154.72258449999998
 40
6.8949449999999999
 50
232.72284999999999
 51
71.673403000000022
  0
ARC
  8
_0-0_0
  6
CONTINUOUS
 62
    7
 10
449.98809599999998
 20
151.38416749999999
 40
6.2957739999999998
 50
340.05118599999997
 51
54.789786999999997
  0
ARC
  8
_0-0_0
  6
CONTINUOUS
 62
    7
 10
422.55682200000001
 20
-85.747764500000017
 40
244.25884600000001
 50
82.694179000000005
 51
85.930746999999997
  0
ARC
  8
_0-0_0
  6
CONTINUOUS
 62
    7
 10
422.15536299999997
 20
93.201255500000002
 40
67.080825000000004
 50
74.670086999999995
 51
113.91550700000001
  0
ARC
  8
_0-0_0
  6
CONTINUOUS
 62
    7
 10
328.10769599999998
 20
166.3068275
 40
54.762163999999999
 50
272.37488500000001
 51
312.92391500000002
  0
ARC
  8
_0-0_0
  6
CONTINUOUS
 62
    7
 10
-1291.263007
 20
3263.5805245000001
 40
3536.8900840000001
 50
298.15516100000002
 51
298.47358400000002
  0
ARC
  8
_0-0_0
  6
CONTINUOUS
 62
    7
 10
360.25100599999996
 20
146.62910149999999
 40
17.464251999999998
 50
355.30496499999998
 51
142.51405500000004
  0
LINE
  8
_0-0_0
  6
CONTINUOUS
 62
    7
 10
236.897605
 20
155.89003450000001
 11
259.46789999999999
 21
155.89003450000001
  0
ARC
  8
_0-0_0
  6
CONTINUOUS
 62
    7
 10
259.16295700000001
 20
153.74803550000001
 40
2.1635960000000001
 50
278.10240800000008
 51
81.897602000000049
  0
ARC
  8
_0-0_0
  6
CONTINUOUS
 62
    7
 10
259.26644599999997
 20
149.7374925
 40
1.879381
 50
276.153482
 51
83.846542000000014
  0
ARC
  8
_0-0_0
  6
CONTINUOUS
 62
    7
 10
259.30326100000002
 20
145.9092455
 40
1.966601
 50
274.80225200000001
 51
85.197731000000005
  0
LINE
  8
_0-0_0
  6
CONTINUOUS
 62
    7
 10
259.46789999999999
 20
143.9495435
 11
236.897605
 21
143.9495435
  0
ARC
  8
_0-0_0
  6
CONTINUOUS
 62
    7
 10
237.09817799999999
 20
145.90923750000002
 40
1.969935
 50
95.843803000000008
 51
264.15620000000007
  0
ARC
  8
_0-0_0
  6
CONTINUOUS
 62
    7
 10
237.03628599999999
 20
149.7374925
 40
1.8736889999999999
 50
94.244630000000015
 51
265.75536599999998
  0
ARC
  8
_0-0_0
  6
CONTINUOUS
 62
    7
 10
237.21774599999998
 20
153.74803550000001
 40
2.1657899999999999
 50
98.500446000000011
 51
261.49955699999998
  0
ARC
  8
_0-0_0
  6
CONTINUOUS
 62
    7
 10
291.907669
 20
155.15523150000001
 40
43.617690000000003
 50
194.88662100000002
 51
272.85548399999999
  0
ARC
  8
_0-0_0
  6
CONTINUOUS
 62
    7
 10
209.96601799999999
 20
149.0479785
 40
37.499999000000003
 50
270.000001
 51
352.185946
  0
ARC
  8
_0-0_0
  6
CONTINUOUS
 62
    7
 10
209.96601799999999
 20
149.0479785
 40
37.499999000000003
 50
10.512779999999999
 51
90.000002999999992
  0
ARC
  8
_0-0_0
  6
CONTINUOUS
 62
    7
 10
282.59849599999995
 20
151.54929049999998
 40
34.083483999999999
 50
85.203434000000016
 51
172.68315100000001
  0
LINE
  8
_0-0_0
  6
CONTINUOUS
 62
    7
 10
259.46789999999999
 20
151.60603750000001
 11
236.897605
 21
151.60603750000001
  0
LINE
  8
_0-0_0
  6
CONTINUOUS
 62
    7
 10
236.897605
 20
147.86893950000001
 11
259.46789999999999
 21
147.86893950000001
  0
ARC
  8
_0-0_0
  6
CONTINUOUS
 62
    7
 10
209.96601999999999
 20
149.0479785
 40
29.500585000000001
 50
270.360771
 51
350.04787800000003
  0
ARC
  8
_0-0_0
  6
CONTINUOUS
 62
    7
 10
209.96601999999999
 20
149.0479785
 40
29.500585000000001
 50
13.410697000000001
 51
89.639232000000007
  0
LINE
  8
_0-0_0
  6
CONTINUOUS
 62
    7
 10
293.87111700000003
 20
119.5917025
 11
330.20455900000002
 21
119.5917025
  0
ARC
  8
_0-0_0
  6
CONTINUOUS
 62
    7
 10
282.31379700000002
 20
162.88736349999999
 40
14.842166000000001
 50
352.57452900000004
 51
81.312862000000038
  0
ARC
  8
_0-0_0
  6
CONTINUOUS
 62
    7
 10
328.10769599999998
 20
166.3068275
 40
46.762163999999999
 50
272.570064
 51
324.85346800000002
  0
ARC
  8
_0-0_0
  6
CONTINUOUS
 62
    7
 10
360.25100599999996
 20
146.62910149999999
 40
9.4642499999999998
 50
310.07752900000003
 51
142.19198499999999
  0
ARC
  8
_0-0_0
  6
CONTINUOUS
 62
    7
 10
359.03396499999997
 20
147.7012445
 40
7.8461150000000002
 50
142.92956300000003
 51
234.44935799999999
  0
ARC
  8
_0-0_0
  6
CONTINUOUS
 62
    7
 10
357.46994699999999
 20
145.83375949999999
 40
5.4205870000000003
 50
236.42300900000004
 51
329.50928099999999
  0
LINE
  8
_0-0_0
  6
CONTINUOUS
 62
    7
 10
362.14092900000003
 20
143.08336350000002
 11
362.79083200000002
 21
142.65616249999999
  0
ARC
  8
_0-0_0
  6
CONTINUOUS
 62
    7
 10
355.682975
 20
146.06795149999999
 40
7.8842749999999997
 50
244.76073000000002
 51
334.35887900000006
  0
ARC
  8
_0-0_0
  6
CONTINUOUS
 62
    7
 10
285.62469499999997
 20
162.97085950000002
 40
11.581092
 50
211.93848900000003
 51
350.04714000000007
  0
LINE
  8
_0-0_0
  6
CONTINUOUS
 62
    7
 10
275.796784
 20
156.84436449999998
 11
274.84038599999997
 21
156.2546275
  0
ARC
  8
_0-0_0
  6
CONTINUOUS
 62
    7
 10
287.88133299999998
 20
161.72661249999999
 40
13.033519999999999
 50
201.99906100000004
 51
291.85387400000002
  0
ARC
  8
_0-0_0
  6
CONTINUOUS
 62
    7
 10
283.46427199999999
 20
161.82556549999998
 40
15.594632000000001
 50
312.23958399999998
 51
64.12420000000003
  0
ARC
  8
_0-0_0
  6
CONTINUOUS
 62
    7
 10
282.59849599999995
 20
151.54929049999998
 40
26.083486000000001
 50
85.697051999999999
 51
170.42041900000001
  0
ARC
  8
_0-0_0
  6
CONTINUOUS
 62
    7
 10
291.907669
 20
155.15523150000001
 40
35.617686999999997
 50
198.337287
 51
273.160056
  0
ARC
  8
_0-0_0
  6
CONTINUOUS
 62
    7
 10
209.515781
 20
149.35781550000002
 40
33.295242000000002
 50
271.09449799999999
 51
350.65180299999997
  0
ARC
  8
_0-0_0
  6
CONTINUOUS
 62
    7
 10
209.515781
 20
149.35781550000002
 40
33.295242000000002
 50
11.314299999999999
 51
88.90549200000001
  0
ARC
  8
_0-0_0
  6
CONTINUOUS
 62
    7
 10
337.42375099999998
 20
158.99995849999999
 40
41.111773999999997
 50
308.97871500000008
 51
339.478024
  0
ARC
  8
_0-0_0
  6
CONTINUOUS
 62
    7
 10
357.12079499999999
 20
150.0648545
 40
10.973302
 50
192.56047699999999
 51
276.70047099999999
  0
ARC
  8
_0-0_0
  6
CONTINUOUS
 62
    7
 10
358.881438
 20
148.98619550000001
 40
9.7423249999999992
 50
103.15098500000001
 51
202.52979400000001
  0
ARC
  8
_0-0_0
  6
CONTINUOUS
 62
    7
 10
330.50124299999999
 20
159.3174405
 40
43.220599
 50
269.00792899999999
 51
321.82485300000002
  0
LINE
  8
_0-0_0
  6
CONTINUOUS
 62
    7
 10
329.04755399999999
 20
115.9131065
 11
303.87183399999998
 21
115.9131065
  0
LINE
  8
_0-0_0
  6
CONTINUOUS
 62
    7
 10
303.87183399999998
 20
115.9131065
 11
287.37739599999998
 21
115.9131065
  0
ARC
  8
_0-0_0
  6
CONTINUOUS
 62
    7
 10
292.753578
 20
154.81054349999999
 40
39.321013999999998
 50
196.43730600000004
 51
261.58253000000002
  0
ARC
  8
_0-0_0
  6
CONTINUOUS
 62
    7
 10
282.79586799999998
 20
151.39165149999999
 40
28.809825
 50
86.821656000000004
 51
170.41162199999999
  0
ARC
  8
_0-0_0
  6
CONTINUOUS
 62
    7
 10
453.80154199999998
 20
189.52345650000001
 40
35.840904000000002
 50
247.37792200000001
 51
271.89789200000001
  0
ARC
  8
_0-0_0
  6
CONTINUOUS
 62
    7
 10
423.46130199999999
 20
121.46086249999999
 40
35.903475999999998
 50
40.703153000000007
 51
63.219842
  0
ARC
  8
_0-0_0
  6
CONTINUOUS
 62
    7
 10
458.54613999999998
 20
159.61552849999998
 40
13.472218
 50
230.51506000000003
 51
278.49440600000003
  0
ARC
  8
_0-0_0
  6
CONTINUOUS
 62
    7
 10
311.50888800000001
 20
126.33810149999999
 40
7.31968
 50
292.82717600000001
 51
247.17282500000005
  0
ARC
  8
_0-0_0
  6
CONTINUOUS
 62
    7
 10
313.88197300000002
 20
125.82531850000001
 40
7.7735940000000001
 50
108.144175
 51
231.21023600000004
  0
ARC
  8
_0-0_0
  6
CONTINUOUS
 62
    7
 10
210.257465
 20
124.32153750000001
 40
5.5730219999999999
 50
304.95557000000002
 51
91.086691999999985
  0
ENDSEC
  0
EOF
