  0
SECTION
  2
HEADER
  9
$ACADVER
  1
AC1009
  9
$INSBASE
 10
0
 20
0
 30
0
  9
$EXTMIN
 10
0
 20
0
  9
$EXTMAX
 10
2376
 20
1680
  9
$LIMMIN
 10
0
 20
0
  9
$LIMMAX
 10
2376
 20
1680
  9
$LTSCALE
 40
4
  0
ENDSEC
  0
SECTION
  2
TABLES
  0
TABLE
  2
LTYPE
 70
     9
  0
LTYPE
  2
CONTINUOUS
 70
    64
  3
実線
 72
    65
 73
     0
 40
0.0
  0
LTYPE
  2
DASHED1
 70
    64
  3
--  --  --  --  --  --  --  --  
 72
    65
 73
     2
 40
2.5
 49
1.25
 49
-1.25
  0
LTYPE
  2
DASHED2
 70
    64
  3
----    ----    ----    ----    
 72
    65
 73
     2
 40
5.0
 49
2.5
 49
-2.5
  0
LTYPE
  2
DASHED3
 70
    64
  3
------  ------  ------  ------  
 72
    65
 73
     2
 40
5.0
 49
3.75
 49
-1.25
  0
LTYPE
  2
CENTER1
 70
    64
  3
----- - ----- - ----- - ----- - 
 72
    65
 73
     4
 40
10.0
 49
6.25
 49
-1.25
 49
1.25
 49
-1.25
  0
LTYPE
  2
CENTER2
 70
    64
  3
----------  --  ----------  --  
 72
    65
 73
     4
 40
20.0
 49
12.5
 49
-2.5
 49
2.5
 49
-2.5
  0
LTYPE
  2
PHANTOM1
 70
    64
  3
--- - - --- - - --- - - --- - - 
 72
    65
 73
     6
 40
10.0
 49
3.25
 49
-1.25
 49
1.25
 49
-1.25
 49
1.25
 49
-1.25
  0
LTYPE
  2
PHANTOM2
 70
    64
  3
--------  -  -  --------  -  -  
 72
    65
 73
     6
 40
20.0
 49
10.0
 49
-2.5
 49
1.25
 49
-2.5
 49
1.25
 49
-2.5
  0
LTYPE
  2
DOT
 70
    64
  3
-   -   -   -   -   -   -   -   
 72
    65
 73
     2
 40
2.5
 49
0.625
 49
-1.875
  0
LTYPE
  2
DUMMY
 70
    64
  3
ダミー
 72
    65
 73
     0
 40
0.0
  0
LTYPE
  2
RAND1
 70
    64
  3
ランダム線1
 72
    65
 73
     4
 40
10.0
 49
1.0
 49
-2.0
 49
3.0
 49
-4.0
  0
LTYPE
  2
RAND2
 70
    64
  3
ランダム線2
 72
    65
 73
     4
 40
14.0
 49
2.0
 49
-3.0
 49
4.0
 49
-5.0
  0
LTYPE
  2
RAND3
 70
    64
  3
ランダム線3
 72
    65
 73
     4
 40
18.0
 49
3.0
 49
-4.0
 49
5.0
 49
-6.0
  0
LTYPE
  2
RAND4
 70
    64
  3
ランダム線4
 72
    65
 73
     4
 40
22.0
 49
4.0
 49
-5.0
 49
6.0
 49
-7.0
  0
LTYPE
  2
RAND5
 70
    64
  3
ランダム線5
 72
    65
 73
     4
 40
26.0
 49
5.0
 49
-6.0
 49
7.0
 49
-8.0
  0
LTYPE
  2
LONG1
 70
    64
  3
----------  --  ----------  --  
 72
    65
 73
     4
 40
40.0
 49
32.5
 49
-2.5
 49
2.5
 49
-2.5
  0
LTYPE
  2
LONG2
 70
    64
  3
--------  -  -  --------  -  -  
 72
    65
 73
     6
 40
40.0
 49
30.0
 49
-2.5
 49
1.25
 49
-2.5
 49
1.25
 49
-2.5
  0
LTYPE
  2
LONG3
 70
    64
  3
+++++++++++++++..+++++++++++++++
 72
    65
 73
     2
 40
40.0
 49
37.5
 49
-2.5
  0
LTYPE
  2
LONG4
 70
    64
  3
+++++++++++++++..+++++++++++++++
 72
    65
 73
     2
 40
80.0
 49
75.0
 49
-5.0
  0
LTYPE
  2
LONG5
 70
    64
  3
----------  --  ----------  --  
 72
    65
 73
     4
 40
60.0
 49
37.5
 49
-7.5
 49
7.5
 49
-7.5
  0
LTYPE
  2
dashed
 70
   64
  3
-------   -------------   ------
 72
   65
 73
    2
 40
7.5
 49
6
 49
-1.5
  0
LTYPE
  2
dashed_spaced
 70
   64
  3
----        --------        ----
 72
   65
 73
    2
 40
12
 49
6
 49
-6
  0
LTYPE
  2
long_dashed_dotted
 70
   64
  3
------------- --- --------------
 72
   65
 73
    4
 40
15.25
 49
12
 49
-1.5
 49
0.25
 49
-1.5
  0
LTYPE
  2
long_dashed_double-dotted
 70
   64
  3
----------- --- --- ------------
 72
   65
 73
    6
 40
17
 49
12
 49
-1.5
 49
0.25
 49
-1.5
 49
0.25
 49
-1.5
  0
LTYPE
  2
long_dashed_triplicate-dotted
 70
   64
  3
--------- --- --- --- ----------
 72
   65
 73
    8
 40
18.75
 49
12
 49
-1.5
 49
0.25
 49
-1.5
 49
0.25
 49
-1.5
 49
0.25
 49
-1.5
  0
LTYPE
  2
dotted
 70
   64
  3
   -       -       -       -    
 72
   65
 73
    2
 40
1.75
 49
0.25
 49
-1.5
  0
LTYPE
  2
chain
 70
   64
  3
-------------- -- --------------
 72
   65
 73
    4
 40
18.5
 49
12
 49
-1.5
 49
3.5
 49
-1.5
  0
LTYPE
  2
chain_double_dash
 70
   64
  3
------------ -- -- -------------
 72
   65
 73
    6
 40
23.5
 49
12
 49
-1.5
 49
3.5
 49
-1.5
 49
3.5
 49
-1.5
  0
LTYPE
  2
dashed_dotted
 70
   64
  3
-----------     -     ----------
 72
   65
 73
    4
 40
9.25
 49
6
 49
-1.5
 49
0.25
 49
-1.5
  0
LTYPE
  2
double-dashed_dotted
 70
   64
  3
------   -----------   -   -----
 72
   65
 73
    6
 40
16.75
 49
6
 49
-1.5
 49
6
 49
-1.5
 49
0.25
 49
-1.5
  0
LTYPE
  2
dashed_double-dotted
 70
   64
  3
---------    -    -    ---------
 72
   65
 73
    6
 40
11
 49
6
 49
-1.5
 49
0.25
 49
-1.5
 49
0.25
 49
-1.5
  0
LTYPE
  2
double-dashed_double-dotted
 70
   64
  3
-----   ---------   -   -   ----
 72
   65
 73
    8
 40
18.5
 49
6
 49
-1.5
 49
6
 49
-1.5
 49
0.25
 49
-1.5
 49
0.25
 49
-1.5
  0
LTYPE
  2
dashed_triplicate-dotted
 70
   64
  3
-------    -    -    -    ------
 72
   65
 73
    8
 40
12.75
 49
6
 49
-1.5
 49
0.25
 49
-1.5
 49
0.25
 49
-1.5
 49
0.25
 49
-1.5
  0
LTYPE
  2
double-dashed_triplicate-dotted
 70
   64
  3
-----  ---------  -  -  -  -----
 72
   65
 73
   10
 40
20.25
 49
6
 49
-1.5
 49
6
 49
-1.5
 49
0.25
 49
-1.5
 49
0.25
 49
-1.5
 49
0.25
 49
-1.5
  0
LTYPE
  2
undefined
 70
   64
  3
--------------------------------
 72
   65
 73
    0
 40
0
  0
LTYPE
  2
BORDER
 70
   64
  3
----     --------     -     ----
 72
   65
 73
    6
 40
1.76
 49
0.5
 49
-0.25
 49
0.5
 49
-0.25
 49
0.01
 49
-0.25
  0
LTYPE
  2
BORDER2
 70
   64
  3
----     --------     -     ----
 72
   65
 73
    6
 40
0.885
 49
0.25
 49
-0.125
 49
0.25
 49
-0.125
 49
0.01
 49
-0.125
  0
LTYPE
  2
BORDERX2
 70
   64
  3
----     --------     -     ----
 72
   65
 73
    6
 40
3.5099999999999998
 49
1
 49
-0.5
 49
1
 49
-0.5
 49
0.01
 49
-0.5
  0
LTYPE
  2
CENTER
 70
   64
  3
----------    ----    ----------
 72
   65
 73
    4
 40
2
 49
1.25
 49
-0.25
 49
0.25
 49
-0.25
  0
LTYPE
  2
CENTER2_21
 70
   64
  3
----------    ----    ----------
 72
   65
 73
    4
 40
1.125
 49
0.75
 49
-0.125
 49
0.125
 49
-0.125
  0
LTYPE
  2
CENTERX2
 70
   64
  3
----------    ----    ----------
 72
   65
 73
    4
 40
4
 49
2.5
 49
-0.5
 49
0.5
 49
-0.5
  0
LTYPE
  2
DASHDOT
 70
   64
  3
--------        -        -------
 72
   65
 73
    4
 40
1.01
 49
0.5
 49
-0.25
 49
0.01
 49
-0.25
  0
LTYPE
  2
DASHDOT2
 70
   64
  3
--------        -        -------
 72
   65
 73
    4
 40
0.51
 49
0.25
 49
-0.125
 49
0.01
 49
-0.125
  0
LTYPE
  2
DASHDOTX2
 70
   64
  3
--------        -        -------
 72
   65
 73
    4
 40
2.0099999999999998
 49
1
 49
-0.5
 49
0.01
 49
-0.5
  0
LTYPE
  2
DASHED
 70
   64
  3
------     -----------     -----
 72
   65
 73
    2
 40
0.75
 49
0.5
 49
-0.25
  0
LTYPE
  2
DASHED2_27
 70
   64
  3
------     -----------     -----
 72
   65
 73
    2
 40
0.375
 49
0.25
 49
-0.125
  0
LTYPE
  2
DASHEDX2
 70
   64
  3
------     -----------     -----
 72
   65
 73
    2
 40
1.5
 49
1
 49
-0.5
  0
LTYPE
  2
DIVIDE
 70
   64
  3
------      -      -      ------
 72
   65
 73
    6
 40
1.27
 49
0.5
 49
-0.25
 49
0.01
 49
-0.25
 49
0.01
 49
-0.25
  0
LTYPE
  2
DIVIDE2
 70
   64
  3
------      -      -      ------
 72
   65
 73
    6
 40
0.645
 49
0.25
 49
-0.125
 49
0.01
 49
-0.125
 49
0.01
 49
-0.125
  0
LTYPE
  2
DIVIDEX2
 70
   64
  3
------      -      -      ------
 72
   65
 73
    6
 40
2.5199999999999996
 49
1
 49
-0.5
 49
0.01
 49
-0.5
 49
0.01
 49
-0.5
  0
LTYPE
  2
DOT_32
 70
   64
  3
-               -               
 72
   65
 73
    2
 40
0.26
 49
0.01
 49
-0.25
  0
ENDTAB
  0
TABLE
  2
STYLE
  5
3
100
AcDbSymbolTable
 70
     1
  0
STYLE
  5
10
100
AcDbSymbolTableRecord
100
AcDbTextStyleTableRecord
  2
STANDARD
 70
     0
 40
0.0
 41
1.0
 50
0.0
 71
     0
 42
0.2
  3
txt
  4
bigfont.shx
  0
STYLE
  5
26
100
AcDbSymbolTableRecord
100
AcDbTextStyleTableRecord
  2
TATEGAKI
 70
    68
 40
0.0
 41
1.0
 50
0.0
 71
     0
 42
1.0
  3
txt
  4
bigfont.shx
  0
ENDTAB
  0
TABLE
  2
LAYER
 70
    2
  0
LAYER
  2
_0-0_0
 70
   64
 62
    7
  6
CONTINUOUS
  0
LAYER
  2
ADD_LINE
 70
   64
 62
    7
  6
CONTINUOUS
  0
ENDTAB
  0
ENDSEC
  0
SECTION
  2
BLOCKS
  0
ENDSEC
  0
SECTION
  2
ENTITIES
  0
LINE
  8
_0-0_0
  6
CONTINUOUS
 62
    7
 10
1181.5840076747113
 20
1054.1080799452532
 11
1179.7504506747114
 21
1055.414842945253
  0
LINE
  8
_0-0_0
  6
CONTINUOUS
 62
    7
 10
1194.5839966747114
 20
1054.1080799452532
 11
1196.4175526747115
 21
1055.414842945253
  0
LINE
  8
_0-0_0
  6
CONTINUOUS
 62
    7
 10
1194.0821055276347
 20
1340.0488096464737
 11
1182.0821055276338
 21
1340.0488096464737
  0
LINE
  8
_0-0_0
  6
CONTINUOUS
 62
    7
 10
1182.0821055276338
 20
1125.504158218183
 11
1182.0821055276338
 21
1340.0488096464737
  0
LINE
  8
_0-0_0
  6
CONTINUOUS
 62
    7
 10
1194.0821055276347
 20
1125.504158218183
 11
1194.0821055276347
 21
1340.0488096464737
  0
LINE
  8
_0-0_0
  6
CONTINUOUS
 62
    7
 10
1194.0821055276347
 20
340.04880964647396
 11
1182.0821055276338
 21
340.04880964647396
  0
LINE
  8
_0-0_0
  6
CONTINUOUS
 62
    7
 10
1182.0821055276338
 20
554.59346107476495
 11
1182.0821055276338
 21
340.04880964647396
  0
LINE
  8
_0-0_0
  6
CONTINUOUS
 62
    7
 10
1194.0821055276347
 20
554.59346107476495
 11
1194.0821055276347
 21
340.04880964647396
  0
LINE
  8
_0-0_0
  6
CONTINUOUS
 62
    7
 10
1182.0821055276338
 20
660.43336382646885
 11
1182.0821055276338
 21
1019.664255347695
  0
LINE
  8
_0-0_0
  6
CONTINUOUS
 62
    7
 10
1194.0821055276347
 20
660.43336406403705
 11
1194.0821055276347
 21
1019.664255347695
  0
ARC
  8
_0-0_0
  6
CONTINUOUS
 62
    7
 10
1202.6024196747114
 20
1100.7360089452532
 40
2
 50
295.27435099999991
 51
46.162909000000056
  0
LINE
  8
_0-0_0
  6
CONTINUOUS
 62
    7
 10
1181.5840076747113
 20
1089.9802719452532
 11
1179.7504506747114
 21
1088.6736309452531
  0
LINE
  8
_0-0_0
  6
CONTINUOUS
 62
    7
 10
1194.5839966747114
 20
1089.9802719452532
 11
1196.4175526747115
 21
1088.6736309452531
  0
ARC
  8
_0-0_0
  6
CONTINUOUS
 62
    7
 10
1202.6024196747114
 20
1043.3524649452534
 40
2
 50
313.83708399999989
 51
64.724162999999947
  0
ARC
  8
_0-0_0
  6
CONTINUOUS
 62
    7
 10
1211.3343226747113
 20
1061.8457509452533
 40
18.451172
 50
204.79417899999999
 51
244.72499499999998
  0
ARC
  8
_0-0_0
  6
CONTINUOUS
 62
    7
 10
1211.3343226747113
 20
1082.2426009452531
 40
18.451172
 50
115.27501499999991
 51
155.20581700000005
  0
ARC
  8
_0-0_0
  6
CONTINUOUS
 62
    7
 10
1173.5655826747115
 20
1100.7360089452532
 40
2
 50
133.83700999999999
 51
244.72576000000001
  0
ARC
  8
_0-0_0
  6
CONTINUOUS
 62
    7
 10
1173.5655826747115
 20
1043.3524649452534
 40
2
 50
115.2757389999999
 51
226.16298599999999
  0
ARC
  8
_0-0_0
  6
CONTINUOUS
 62
    7
 10
1164.8336796747114
 20
1082.2426009452531
 40
18.451172
 50
24.794177000000026
 51
64.724976000000026
  0
ARC
  8
_0-0_0
  6
CONTINUOUS
 62
    7
 10
1164.8336796747114
 20
1061.8457509452533
 40
18.451172
 50
295.27503400000001
 51
335.2058219999999
  0
LINE
  8
_0-0_0
  6
CONTINUOUS
 62
    7
 10
1181.584024539834
 20
1089.9802811578909
 11
1194.5839786198769
 21
1089.9802811578909
  0
LINE
  8
_0-0_0
  6
CONTINUOUS
 62
    7
 10
1181.5840076747113
 20
1054.1080799452532
 11
1194.5839966747114
 21
1054.1080799452532
  0
LINE
  8
_0-0_0
  6
CONTINUOUS
 62
    7
 10
1172.7116636419373
 20
1045.1609339913362
 11
1203.987639060364
 21
1045.1609339913362
  0
LINE
  8
_0-0_0
  6
CONTINUOUS
 62
    7
 10
1172.1803640783369
 20
1041.909839061575
 11
1203.987640033585
 21
1041.909839061575
  0
LINE
  8
_0-0_0
  6
CONTINUOUS
 62
    7
 10
1172.1803612082399
 20
1102.1786287471487
 11
1203.9876375250192
 21
1102.1786287471487
  0
LINE
  8
_0-0_0
  6
CONTINUOUS
 62
    7
 10
1172.7116799795649
 20
1098.9274597512244
 11
1203.4563258735866
 21
1098.9274597512244
  0
ARC
  8
_0-0_0
  6
CONTINUOUS
 62
    7
 10
1190.9569975019961
 20
1072.044236945253
 40
20.053015648509273
 50
123.97602586324005
 51
236.02397413675999
  0
ARC
  8
_0-0_0
  6
CONTINUOUS
 62
    7
 10
1183.5948831840105
 20
1072.044236945253
 40
20.998990396564025
 50
307.63526291155637
 51
52.364737088443583
  0
ARC
  8
_0-0_0
  6
CONTINUOUS
 62
    7
 10
1153.5205602221647
 20
1123.8641853570255
 40
28.608589291009984
 50
310.71106570838793
 51
3.2862529839621786
  0
ARC
  8
_0-0_0
  6
CONTINUOUS
 62
    7
 10
1222.2575070759606
 20
1123.7032360477021
 40
28.232898772062697
 50
176.34272965549698
 51
229.67573740096981
  0
ARC
  8
_0-0_0
  6
CONTINUOUS
 62
    7
 10
1157.9703172664392
 20
1022.2583228601352
 40
24.250928217529619
 50
353.85945038533907
 51
54.12924037532062
  0
ARC
  8
_0-0_0
  6
CONTINUOUS
 62
    7
 10
1220.9501497515089
 20
1021.0285919968605
 40
26.902661855443139
 50
129.0880678302083
 51
182.90693459484115
  0
LINE
  8
_0-0_0
  6
CONTINUOUS
 62
    7
 10
1181.5840076747113
 20
589.03728555353894
 11
1179.7504506747114
 21
590.34404855353898
  0
LINE
  8
_0-0_0
  6
CONTINUOUS
 62
    7
 10
1194.5839966747114
 20
589.03728555353894
 11
1196.4175526747115
 21
590.34404855353898
  0
ARC
  8
_0-0_0
  6
CONTINUOUS
 62
    7
 10
1202.6024196747114
 20
635.66521455353893
 40
2
 50
295.27435099999991
 51
46.162909000000056
  0
LINE
  8
_0-0_0
  6
CONTINUOUS
 62
    7
 10
1181.5840076747113
 20
624.90947755353898
 11
1179.7504506747114
 21
623.60283655353896
  0
LINE
  8
_0-0_0
  6
CONTINUOUS
 62
    7
 10
1194.5839966747114
 20
624.90947755353898
 11
1196.4175526747115
 21
623.60283655353896
  0
ARC
  8
_0-0_0
  6
CONTINUOUS
 62
    7
 10
1202.6024196747114
 20
578.28167055353902
 40
2
 50
313.83708399999989
 51
64.724162999999947
  0
ARC
  8
_0-0_0
  6
CONTINUOUS
 62
    7
 10
1211.3343226747113
 20
596.77495655353891
 40
18.451172
 50
204.79417899999999
 51
244.72499499999998
  0
ARC
  8
_0-0_0
  6
CONTINUOUS
 62
    7
 10
1211.3343226747113
 20
617.171806553539
 40
18.451172
 50
115.27501499999991
 51
155.20581700000005
  0
ARC
  8
_0-0_0
  6
CONTINUOUS
 62
    7
 10
1173.5655826747115
 20
635.66521455353893
 40
2
 50
133.83700999999999
 51
244.72576000000001
  0
ARC
  8
_0-0_0
  6
CONTINUOUS
 62
    7
 10
1173.5655826747115
 20
578.28167055353902
 40
2
 50
115.2757389999999
 51
226.16298599999999
  0
ARC
  8
_0-0_0
  6
CONTINUOUS
 62
    7
 10
1164.8336796747114
 20
617.171806553539
 40
18.451172
 50
24.794177000000026
 51
64.724976000000026
  0
ARC
  8
_0-0_0
  6
CONTINUOUS
 62
    7
 10
1164.8336796747114
 20
596.77495655353891
 40
18.451172
 50
295.27503400000001
 51
335.2058219999999
  0
LINE
  8
_0-0_0
  6
CONTINUOUS
 62
    7
 10
1181.584024539834
 20
624.90948676617677
 11
1194.5839786198769
 21
624.90948676617677
  0
LINE
  8
_0-0_0
  6
CONTINUOUS
 62
    7
 10
1181.5840076747113
 20
589.03728555353894
 11
1194.5839966747114
 21
589.03728555353894
  0
LINE
  8
_0-0_0
  6
CONTINUOUS
 62
    7
 10
1172.7116636419373
 20
580.09013959962203
 11
1203.987639060364
 21
580.09013959962203
  0
LINE
  8
_0-0_0
  6
CONTINUOUS
 62
    7
 10
1172.1803640783369
 20
576.83904466986087
 11
1203.987640033585
 21
576.83904466986087
  0
LINE
  8
_0-0_0
  6
CONTINUOUS
 62
    7
 10
1172.1803612082399
 20
637.10783435543453
 11
1203.9876375250192
 21
637.10783435543453
  0
LINE
  8
_0-0_0
  6
CONTINUOUS
 62
    7
 10
1172.7116799795649
 20
633.85666535951043
 11
1203.4563258735866
 21
633.85666535951043
  0
ARC
  8
_0-0_0
  6
CONTINUOUS
 62
    7
 10
1190.9569975019961
 20
606.97344255353892
 40
20.053015648509273
 50
123.97602586324005
 51
236.02397413675999
  0
ARC
  8
_0-0_0
  6
CONTINUOUS
 62
    7
 10
1183.5948831840105
 20
606.97344255353892
 40
20.998990396564025
 50
307.63526291155637
 51
52.364737088443583
  0
ARC
  8
_0-0_0
  6
CONTINUOUS
 62
    7
 10
1153.5205602221647
 20
658.79339096531123
 40
28.608589291009984
 50
310.71106570838793
 51
3.2862529839621786
  0
ARC
  8
_0-0_0
  6
CONTINUOUS
 62
    7
 10
1222.2575070759606
 20
658.63244165598803
 40
28.232898772062697
 50
176.34272965549698
 51
229.67573740096981
  0
ARC
  8
_0-0_0
  6
CONTINUOUS
 62
    7
 10
1157.9703172664392
 20
557.18752846842108
 40
24.250928217529619
 50
353.85945038533907
 51
54.12924037532062
  0
ARC
  8
_0-0_0
  6
CONTINUOUS
 62
    7
 10
1220.9501497515089
 20
555.95779760514642
 40
26.902661855443139
 50
129.0880678302083
 51
182.90693459484115
  0
ENDSEC
  0
EOF
