  0
SECTION
  2
HEADER
  9
$ACADVER
  1
AC1009
  9
$INSBASE
 10
0
 20
0
 30
0
  9
$EXTMIN
 10
0
 20
0
  9
$EXTMAX
 10
4200
 20
2970
  9
$LIMMIN
 10
0
 20
0
  9
$LIMMAX
 10
4200
 20
2970
  9
$LTSCALE
 40
10
  0
ENDSEC
  0
SECTION
  2
TABLES
  0
TABLE
  2
LTYPE
 70
     9
  0
LTYPE
  2
CONTINUOUS
 70
    64
  3
実線
 72
    65
 73
     0
 40
0.0
  0
LTYPE
  2
DASHED1
 70
    64
  3
--  --  --  --  --  --  --  --  
 72
    65
 73
     2
 40
2.5
 49
1.25
 49
-1.25
  0
LTYPE
  2
DASHED2
 70
    64
  3
----    ----    ----    ----    
 72
    65
 73
     2
 40
5.0
 49
2.5
 49
-2.5
  0
LTYPE
  2
DASHED3
 70
    64
  3
------  ------  ------  ------  
 72
    65
 73
     2
 40
5.0
 49
3.75
 49
-1.25
  0
LTYPE
  2
CENTER1
 70
    64
  3
----- - ----- - ----- - ----- - 
 72
    65
 73
     4
 40
10.0
 49
6.25
 49
-1.25
 49
1.25
 49
-1.25
  0
LTYPE
  2
CENTER2
 70
    64
  3
----------  --  ----------  --  
 72
    65
 73
     4
 40
20.0
 49
12.5
 49
-2.5
 49
2.5
 49
-2.5
  0
LTYPE
  2
PHANTOM1
 70
    64
  3
--- - - --- - - --- - - --- - - 
 72
    65
 73
     6
 40
10.0
 49
3.25
 49
-1.25
 49
1.25
 49
-1.25
 49
1.25
 49
-1.25
  0
LTYPE
  2
PHANTOM2
 70
    64
  3
--------  -  -  --------  -  -  
 72
    65
 73
     6
 40
20.0
 49
10.0
 49
-2.5
 49
1.25
 49
-2.5
 49
1.25
 49
-2.5
  0
LTYPE
  2
DOT
 70
    64
  3
-   -   -   -   -   -   -   -   
 72
    65
 73
     2
 40
2.5
 49
0.625
 49
-1.875
  0
LTYPE
  2
DUMMY
 70
    64
  3
ダミー
 72
    65
 73
     0
 40
0.0
  0
LTYPE
  2
RAND1
 70
    64
  3
ランダム線1
 72
    65
 73
     4
 40
10.0
 49
1.0
 49
-2.0
 49
3.0
 49
-4.0
  0
LTYPE
  2
RAND2
 70
    64
  3
ランダム線2
 72
    65
 73
     4
 40
14.0
 49
2.0
 49
-3.0
 49
4.0
 49
-5.0
  0
LTYPE
  2
RAND3
 70
    64
  3
ランダム線3
 72
    65
 73
     4
 40
18.0
 49
3.0
 49
-4.0
 49
5.0
 49
-6.0
  0
LTYPE
  2
RAND4
 70
    64
  3
ランダム線4
 72
    65
 73
     4
 40
22.0
 49
4.0
 49
-5.0
 49
6.0
 49
-7.0
  0
LTYPE
  2
RAND5
 70
    64
  3
ランダム線5
 72
    65
 73
     4
 40
26.0
 49
5.0
 49
-6.0
 49
7.0
 49
-8.0
  0
LTYPE
  2
LONG1
 70
    64
  3
----------  --  ----------  --  
 72
    65
 73
     4
 40
40.0
 49
32.5
 49
-2.5
 49
2.5
 49
-2.5
  0
LTYPE
  2
LONG2
 70
    64
  3
--------  -  -  --------  -  -  
 72
    65
 73
     6
 40
40.0
 49
30.0
 49
-2.5
 49
1.25
 49
-2.5
 49
1.25
 49
-2.5
  0
LTYPE
  2
LONG3
 70
    64
  3
+++++++++++++++..+++++++++++++++
 72
    65
 73
     2
 40
40.0
 49
37.5
 49
-2.5
  0
LTYPE
  2
LONG4
 70
    64
  3
+++++++++++++++..+++++++++++++++
 72
    65
 73
     2
 40
80.0
 49
75.0
 49
-5.0
  0
LTYPE
  2
LONG5
 70
    64
  3
----------  --  ----------  --  
 72
    65
 73
     4
 40
60.0
 49
37.5
 49
-7.5
 49
7.5
 49
-7.5
  0
LTYPE
  2
dashed
 70
   64
  3
-------   -------------   ------
 72
   65
 73
    2
 40
7.5
 49
6
 49
-1.5
  0
LTYPE
  2
dashed_spaced
 70
   64
  3
----        --------        ----
 72
   65
 73
    2
 40
12
 49
6
 49
-6
  0
LTYPE
  2
long_dashed_dotted
 70
   64
  3
------------- --- --------------
 72
   65
 73
    4
 40
15.25
 49
12
 49
-1.5
 49
0.25
 49
-1.5
  0
LTYPE
  2
long_dashed_double-dotted
 70
   64
  3
----------- --- --- ------------
 72
   65
 73
    6
 40
17
 49
12
 49
-1.5
 49
0.25
 49
-1.5
 49
0.25
 49
-1.5
  0
LTYPE
  2
long_dashed_triplicate-dotted
 70
   64
  3
--------- --- --- --- ----------
 72
   65
 73
    8
 40
18.75
 49
12
 49
-1.5
 49
0.25
 49
-1.5
 49
0.25
 49
-1.5
 49
0.25
 49
-1.5
  0
LTYPE
  2
dotted
 70
   64
  3
   -       -       -       -    
 72
   65
 73
    2
 40
1.75
 49
0.25
 49
-1.5
  0
LTYPE
  2
chain
 70
   64
  3
-------------- -- --------------
 72
   65
 73
    4
 40
18.5
 49
12
 49
-1.5
 49
3.5
 49
-1.5
  0
LTYPE
  2
chain_double_dash
 70
   64
  3
------------ -- -- -------------
 72
   65
 73
    6
 40
23.5
 49
12
 49
-1.5
 49
3.5
 49
-1.5
 49
3.5
 49
-1.5
  0
LTYPE
  2
dashed_dotted
 70
   64
  3
-----------     -     ----------
 72
   65
 73
    4
 40
9.25
 49
6
 49
-1.5
 49
0.25
 49
-1.5
  0
LTYPE
  2
double-dashed_dotted
 70
   64
  3
------   -----------   -   -----
 72
   65
 73
    6
 40
16.75
 49
6
 49
-1.5
 49
6
 49
-1.5
 49
0.25
 49
-1.5
  0
LTYPE
  2
dashed_double-dotted
 70
   64
  3
---------    -    -    ---------
 72
   65
 73
    6
 40
11
 49
6
 49
-1.5
 49
0.25
 49
-1.5
 49
0.25
 49
-1.5
  0
LTYPE
  2
double-dashed_double-dotted
 70
   64
  3
-----   ---------   -   -   ----
 72
   65
 73
    8
 40
18.5
 49
6
 49
-1.5
 49
6
 49
-1.5
 49
0.25
 49
-1.5
 49
0.25
 49
-1.5
  0
LTYPE
  2
dashed_triplicate-dotted
 70
   64
  3
-------    -    -    -    ------
 72
   65
 73
    8
 40
12.75
 49
6
 49
-1.5
 49
0.25
 49
-1.5
 49
0.25
 49
-1.5
 49
0.25
 49
-1.5
  0
LTYPE
  2
double-dashed_triplicate-dotted
 70
   64
  3
-----  ---------  -  -  -  -----
 72
   65
 73
   10
 40
20.25
 49
6
 49
-1.5
 49
6
 49
-1.5
 49
0.25
 49
-1.5
 49
0.25
 49
-1.5
 49
0.25
 49
-1.5
  0
LTYPE
  2
undefined
 70
   64
  3
--------------------------------
 72
   65
 73
    0
 40
0
  0
ENDTAB
  0
TABLE
  2
STYLE
  5
3
100
AcDbSymbolTable
 70
     1
  0
STYLE
  5
10
100
AcDbSymbolTableRecord
100
AcDbTextStyleTableRecord
  2
STANDARD
 70
     0
 40
0.0
 41
1.0
 50
0.0
 71
     0
 42
0.2
  3
txt
  4
bigfont.shx
  0
STYLE
  5
26
100
AcDbSymbolTableRecord
100
AcDbTextStyleTableRecord
  2
TATEGAKI
 70
    68
 40
0.0
 41
1.0
 50
0.0
 71
     0
 42
1.0
  3
txt
  4
bigfont.shx
  0
ENDTAB
  0
TABLE
  2
LAYER
 70
    2
  0
LAYER
  2
_0-0_
 70
   64
 62
    7
  6
CONTINUOUS
  0
LAYER
  2
ADD_LINE
 70
   64
 62
    7
  6
CONTINUOUS
  0
ENDTAB
  0
ENDSEC
  0
SECTION
  2
BLOCKS
  0
ENDSEC
  0
SECTION
  2
ENTITIES
  0
LINE
  8
_0-0_
  6
CONTINUOUS
 62
    7
 10
1952.0071174377224
 20
1951.3701067615659
 11
1952.0071174377224
 21
1736.3701067615659
  0
LINE
  8
_0-0_
  6
CONTINUOUS
 62
    7
 10
1964.0071174377224
 20
1951.3701067615659
 11
1964.0071174377224
 21
1736.3701067615659
  0
LINE
  8
_0-0_
  6
CONTINUOUS
 62
    7
 10
1952.0071174377224
 20
1951.3701067615659
 11
1964.0071174377224
 21
1951.3701067615659
  0
LINE
  8
_0-0_
  6
CONTINUOUS
 62
    7
 10
1964.0071174377224
 20
951.37010676156592
 11
1952.0071174377224
 21
951.37010676156592
  0
LINE
  8
_0-0_
  6
CONTINUOUS
 62
    7
 10
1952.0071174377224
 20
1166.3701067615659
 11
1964.0071174377224
 21
1166.3701067615659
  0
LINE
  8
_0-0_
  6
CONTINUOUS
 62
    7
 10
1950.0071174377222
 20
1201.3701067615659
 11
1966.0071174377226
 21
1201.3701067615659
  0
LINE
  8
_0-0_
  6
CONTINUOUS
 62
    7
 10
1950.0071174377222
 20
1181.3701067615659
 11
1966.0071174377226
 21
1181.3701067615659
  0
LINE
  8
_0-0_
  6
CONTINUOUS
 62
    7
 10
1964.0071174377224
 20
1686.3701067615659
 11
1964.0071174377224
 21
1216.3701067615659
  0
LINE
  8
_0-0_
  6
CONTINUOUS
 62
    7
 10
1952.0071174377224
 20
1686.3701067615659
 11
1952.0071174377224
 21
1216.3701067615659
  0
LINE
  8
_0-0_
  6
CONTINUOUS
 62
    7
 10
1964.0071174377224
 20
1166.3701067615659
 11
1964.0071174377224
 21
951.37010676156592
  0
LINE
  8
_0-0_
  6
CONTINUOUS
 62
    7
 10
1952.0071174377224
 20
1166.3701067615659
 11
1952.0071174377224
 21
951.37010676156592
  0
LINE
  8
_0-0_
  6
CONTINUOUS
 62
    7
 10
1952.0071174377224
 20
1736.3701067615659
 11
1964.0071174377224
 21
1736.3701067615659
  0
LINE
  8
_0-0_
  6
CONTINUOUS
 62
    7
 10
1950.0071174377222
 20
1721.3701067615659
 11
1966.0071174377226
 21
1721.3701067615659
  0
LINE
  8
_0-0_
  6
CONTINUOUS
 62
    7
 10
1950.0071174377222
 20
1701.3701067615659
 11
1966.0071174377226
 21
1701.3701067615659
  0
LINE
  8
_0-0_
  6
CONTINUOUS
 62
    7
 10
1952.0071174377224
 20
1686.3701067615659
 11
1964.0071174377224
 21
1686.3701067615659
  0
LINE
  8
_0-0_
  6
CONTINUOUS
 62
    7
 10
1952.0071174377224
 20
1216.3701067615659
 11
1964.0071174377224
 21
1216.3701067615659
  0
ARC
  8
_0-0_
  6
CONTINUOUS
 62
    7
 10
1953.6499745124597
 20
1711.3701067615659
 40
10.642857551574707
 50
110.01594543457031
 51
249.98403930664062
  0
ARC
  8
_0-0_
  6
CONTINUOUS
 62
    7
 10
1962.3642603629851
 20
1711.3701067615659
 40
10.642857551574707
 50
290.01594543457031
 51
69.984039306640653
  0
ARC
  8
_0-0_
  6
CONTINUOUS
 62
    7
 10
1959.0487840646526
 20
1727.797871654144
 40
11.093605041503906
 50
129.40144348144531
 51
215.40925598144531
  0
ARC
  8
_0-0_
  6
CONTINUOUS
 62
    7
 10
1956.9654508107922
 20
1727.797871654144
 40
11.093605041503906
 50
324.59072875976562
 51
50.598541259765611
  0
ARC
  8
_0-0_
  6
CONTINUOUS
 62
    7
 10
1959.0487840646526
 20
1694.9423266101985
 40
11.093605041503906
 50
144.59072875976562
 51
230.59854125976562
  0
ARC
  8
_0-0_
  6
CONTINUOUS
 62
    7
 10
1956.9654508107922
 20
1694.9423266101985
 40
11.093605041503906
 50
309.40144348144531
 51
35.409255981445327
  0
ARC
  8
_0-0_
  6
CONTINUOUS
 62
    7
 10
1953.6499745124597
 20
1191.3701067615659
 40
10.642857551574707
 50
110.01594543457031
 51
249.98403930664062
  0
ARC
  8
_0-0_
  6
CONTINUOUS
 62
    7
 10
1962.3642603629851
 20
1191.3701067615659
 40
10.642857551574707
 50
290.01594543457031
 51
69.984039306640653
  0
ARC
  8
_0-0_
  6
CONTINUOUS
 62
    7
 10
1959.0487840646526
 20
1207.7978869129331
 40
11.093605041503906
 50
129.40144348144531
 51
215.40925598144531
  0
ARC
  8
_0-0_
  6
CONTINUOUS
 62
    7
 10
1956.9654508107922
 20
1207.7978869129331
 40
11.093605041503906
 50
324.59072875976562
 51
50.598541259765611
  0
ARC
  8
_0-0_
  6
CONTINUOUS
 62
    7
 10
1959.0487840646526
 20
1174.9423418689878
 40
11.093605041503906
 50
144.59072875976562
 51
230.59854125976562
  0
ARC
  8
_0-0_
  6
CONTINUOUS
 62
    7
 10
1956.9654508107922
 20
1174.9423418689878
 40
11.093605041503906
 50
309.40144348144531
 51
35.409255981445327
  0
ENDSEC
  0
EOF
