  0
SECTION
  2
HEADER
  9
$ACADVER
  1
AC1009
  9
$INSBASE
 10
0
 20
0
 30
0
  9
$EXTMIN
 10
0
 20
0
  9
$EXTMAX
 10
2100
 20
1485
  9
$LIMMIN
 10
0
 20
0
  9
$LIMMAX
 10
2100
 20
1485
  9
$LTSCALE
 40
5
  0
ENDSEC
  0
SECTION
  2
TABLES
  0
TABLE
  2
LTYPE
 70
     9
  0
LTYPE
  2
CONTINUOUS
 70
    64
  3
実線
 72
    65
 73
     0
 40
0.0
  0
LTYPE
  2
DASHED1
 70
    64
  3
--  --  --  --  --  --  --  --  
 72
    65
 73
     2
 40
2.5
 49
1.25
 49
-1.25
  0
LTYPE
  2
DASHED2
 70
    64
  3
----    ----    ----    ----    
 72
    65
 73
     2
 40
5.0
 49
2.5
 49
-2.5
  0
LTYPE
  2
DASHED3
 70
    64
  3
------  ------  ------  ------  
 72
    65
 73
     2
 40
5.0
 49
3.75
 49
-1.25
  0
LTYPE
  2
CENTER1
 70
    64
  3
----- - ----- - ----- - ----- - 
 72
    65
 73
     4
 40
10.0
 49
6.25
 49
-1.25
 49
1.25
 49
-1.25
  0
LTYPE
  2
CENTER2
 70
    64
  3
----------  --  ----------  --  
 72
    65
 73
     4
 40
20.0
 49
12.5
 49
-2.5
 49
2.5
 49
-2.5
  0
LTYPE
  2
PHANTOM1
 70
    64
  3
--- - - --- - - --- - - --- - - 
 72
    65
 73
     6
 40
10.0
 49
3.25
 49
-1.25
 49
1.25
 49
-1.25
 49
1.25
 49
-1.25
  0
LTYPE
  2
PHANTOM2
 70
    64
  3
--------  -  -  --------  -  -  
 72
    65
 73
     6
 40
20.0
 49
10.0
 49
-2.5
 49
1.25
 49
-2.5
 49
1.25
 49
-2.5
  0
LTYPE
  2
DOT
 70
    64
  3
-   -   -   -   -   -   -   -   
 72
    65
 73
     2
 40
2.5
 49
0.625
 49
-1.875
  0
LTYPE
  2
DUMMY
 70
    64
  3
ダミー
 72
    65
 73
     0
 40
0.0
  0
LTYPE
  2
RAND1
 70
    64
  3
ランダム線1
 72
    65
 73
     4
 40
10.0
 49
1.0
 49
-2.0
 49
3.0
 49
-4.0
  0
LTYPE
  2
RAND2
 70
    64
  3
ランダム線2
 72
    65
 73
     4
 40
14.0
 49
2.0
 49
-3.0
 49
4.0
 49
-5.0
  0
LTYPE
  2
RAND3
 70
    64
  3
ランダム線3
 72
    65
 73
     4
 40
18.0
 49
3.0
 49
-4.0
 49
5.0
 49
-6.0
  0
LTYPE
  2
RAND4
 70
    64
  3
ランダム線4
 72
    65
 73
     4
 40
22.0
 49
4.0
 49
-5.0
 49
6.0
 49
-7.0
  0
LTYPE
  2
RAND5
 70
    64
  3
ランダム線5
 72
    65
 73
     4
 40
26.0
 49
5.0
 49
-6.0
 49
7.0
 49
-8.0
  0
LTYPE
  2
LONG1
 70
    64
  3
----------  --  ----------  --  
 72
    65
 73
     4
 40
40.0
 49
32.5
 49
-2.5
 49
2.5
 49
-2.5
  0
LTYPE
  2
LONG2
 70
    64
  3
--------  -  -  --------  -  -  
 72
    65
 73
     6
 40
40.0
 49
30.0
 49
-2.5
 49
1.25
 49
-2.5
 49
1.25
 49
-2.5
  0
LTYPE
  2
LONG3
 70
    64
  3
+++++++++++++++..+++++++++++++++
 72
    65
 73
     2
 40
40.0
 49
37.5
 49
-2.5
  0
LTYPE
  2
LONG4
 70
    64
  3
+++++++++++++++..+++++++++++++++
 72
    65
 73
     2
 40
80.0
 49
75.0
 49
-5.0
  0
LTYPE
  2
LONG5
 70
    64
  3
----------  --  ----------  --  
 72
    65
 73
     4
 40
60.0
 49
37.5
 49
-7.5
 49
7.5
 49
-7.5
  0
LTYPE
  2
dashed
 70
   64
  3
-------   -------------   ------
 72
   65
 73
    2
 40
7.5
 49
6
 49
-1.5
  0
LTYPE
  2
dashed_spaced
 70
   64
  3
----        --------        ----
 72
   65
 73
    2
 40
12
 49
6
 49
-6
  0
LTYPE
  2
long_dashed_dotted
 70
   64
  3
------------- --- --------------
 72
   65
 73
    4
 40
15.25
 49
12
 49
-1.5
 49
0.25
 49
-1.5
  0
LTYPE
  2
long_dashed_double-dotted
 70
   64
  3
----------- --- --- ------------
 72
   65
 73
    6
 40
17
 49
12
 49
-1.5
 49
0.25
 49
-1.5
 49
0.25
 49
-1.5
  0
LTYPE
  2
long_dashed_triplicate-dotted
 70
   64
  3
--------- --- --- --- ----------
 72
   65
 73
    8
 40
18.75
 49
12
 49
-1.5
 49
0.25
 49
-1.5
 49
0.25
 49
-1.5
 49
0.25
 49
-1.5
  0
LTYPE
  2
dotted
 70
   64
  3
   -       -       -       -    
 72
   65
 73
    2
 40
1.75
 49
0.25
 49
-1.5
  0
LTYPE
  2
chain
 70
   64
  3
-------------- -- --------------
 72
   65
 73
    4
 40
18.5
 49
12
 49
-1.5
 49
3.5
 49
-1.5
  0
LTYPE
  2
chain_double_dash
 70
   64
  3
------------ -- -- -------------
 72
   65
 73
    6
 40
23.5
 49
12
 49
-1.5
 49
3.5
 49
-1.5
 49
3.5
 49
-1.5
  0
LTYPE
  2
dashed_dotted
 70
   64
  3
-----------     -     ----------
 72
   65
 73
    4
 40
9.25
 49
6
 49
-1.5
 49
0.25
 49
-1.5
  0
LTYPE
  2
double-dashed_dotted
 70
   64
  3
------   -----------   -   -----
 72
   65
 73
    6
 40
16.75
 49
6
 49
-1.5
 49
6
 49
-1.5
 49
0.25
 49
-1.5
  0
LTYPE
  2
dashed_double-dotted
 70
   64
  3
---------    -    -    ---------
 72
   65
 73
    6
 40
11
 49
6
 49
-1.5
 49
0.25
 49
-1.5
 49
0.25
 49
-1.5
  0
LTYPE
  2
double-dashed_double-dotted
 70
   64
  3
-----   ---------   -   -   ----
 72
   65
 73
    8
 40
18.5
 49
6
 49
-1.5
 49
6
 49
-1.5
 49
0.25
 49
-1.5
 49
0.25
 49
-1.5
  0
LTYPE
  2
dashed_triplicate-dotted
 70
   64
  3
-------    -    -    -    ------
 72
   65
 73
    8
 40
12.75
 49
6
 49
-1.5
 49
0.25
 49
-1.5
 49
0.25
 49
-1.5
 49
0.25
 49
-1.5
  0
LTYPE
  2
double-dashed_triplicate-dotted
 70
   64
  3
-----  ---------  -  -  -  -----
 72
   65
 73
   10
 40
20.25
 49
6
 49
-1.5
 49
6
 49
-1.5
 49
0.25
 49
-1.5
 49
0.25
 49
-1.5
 49
0.25
 49
-1.5
  0
LTYPE
  2
undefined
 70
   64
  3
--------------------------------
 72
   65
 73
    0
 40
0
  0
LTYPE
  2
BORDER
 70
   64
  3
----     --------     -     ----
 72
   65
 73
    6
 40
1.76
 49
0.5
 49
-0.25
 49
0.5
 49
-0.25
 49
0.01
 49
-0.25
  0
LTYPE
  2
BORDER2
 70
   64
  3
----     --------     -     ----
 72
   65
 73
    6
 40
0.885
 49
0.25
 49
-0.125
 49
0.25
 49
-0.125
 49
0.01
 49
-0.125
  0
LTYPE
  2
BORDERX2
 70
   64
  3
----     --------     -     ----
 72
   65
 73
    6
 40
3.5099999999999998
 49
1
 49
-0.5
 49
1
 49
-0.5
 49
0.01
 49
-0.5
  0
LTYPE
  2
CENTER
 70
   64
  3
----------    ----    ----------
 72
   65
 73
    4
 40
2
 49
1.25
 49
-0.25
 49
0.25
 49
-0.25
  0
LTYPE
  2
CENTER2_21
 70
   64
  3
----------    ----    ----------
 72
   65
 73
    4
 40
1.125
 49
0.75
 49
-0.125
 49
0.125
 49
-0.125
  0
LTYPE
  2
CENTERX2
 70
   64
  3
----------    ----    ----------
 72
   65
 73
    4
 40
4
 49
2.5
 49
-0.5
 49
0.5
 49
-0.5
  0
LTYPE
  2
DASHDOT
 70
   64
  3
--------        -        -------
 72
   65
 73
    4
 40
1.01
 49
0.5
 49
-0.25
 49
0.01
 49
-0.25
  0
LTYPE
  2
DASHDOT2
 70
   64
  3
--------        -        -------
 72
   65
 73
    4
 40
0.51
 49
0.25
 49
-0.125
 49
0.01
 49
-0.125
  0
LTYPE
  2
DASHDOTX2
 70
   64
  3
--------        -        -------
 72
   65
 73
    4
 40
2.0099999999999998
 49
1
 49
-0.5
 49
0.01
 49
-0.5
  0
LTYPE
  2
DASHED
 70
   64
  3
------     -----------     -----
 72
   65
 73
    2
 40
0.75
 49
0.5
 49
-0.25
  0
LTYPE
  2
DASHED2_27
 70
   64
  3
------     -----------     -----
 72
   65
 73
    2
 40
0.375
 49
0.25
 49
-0.125
  0
LTYPE
  2
DASHEDX2
 70
   64
  3
------     -----------     -----
 72
   65
 73
    2
 40
1.5
 49
1
 49
-0.5
  0
LTYPE
  2
DIVIDE
 70
   64
  3
------      -      -      ------
 72
   65
 73
    6
 40
1.27
 49
0.5
 49
-0.25
 49
0.01
 49
-0.25
 49
0.01
 49
-0.25
  0
LTYPE
  2
DIVIDE2
 70
   64
  3
------      -      -      ------
 72
   65
 73
    6
 40
0.645
 49
0.25
 49
-0.125
 49
0.01
 49
-0.125
 49
0.01
 49
-0.125
  0
LTYPE
  2
DIVIDEX2
 70
   64
  3
------      -      -      ------
 72
   65
 73
    6
 40
2.5199999999999996
 49
1
 49
-0.5
 49
0.01
 49
-0.5
 49
0.01
 49
-0.5
  0
LTYPE
  2
DOT_32
 70
   64
  3
-               -               
 72
   65
 73
    2
 40
0.26
 49
0.01
 49
-0.25
  0
ENDTAB
  0
TABLE
  2
STYLE
  5
3
100
AcDbSymbolTable
 70
     1
  0
STYLE
  5
10
100
AcDbSymbolTableRecord
100
AcDbTextStyleTableRecord
  2
STANDARD
 70
     0
 40
0.0
 41
1.0
 50
0.0
 71
     0
 42
0.2
  3
txt
  4
bigfont.shx
  0
STYLE
  5
26
100
AcDbSymbolTableRecord
100
AcDbTextStyleTableRecord
  2
TATEGAKI
 70
    68
 40
0.0
 41
1.0
 50
0.0
 71
     0
 42
1.0
  3
txt
  4
bigfont.shx
  0
ENDTAB
  0
TABLE
  2
LAYER
 70
    2
  0
LAYER
  2
_0-4_P-6853
 70
   64
 62
    7
  6
CONTINUOUS
  0
LAYER
  2
ADD_LINE
 70
   64
 62
    7
  6
CONTINUOUS
  0
ENDTAB
  0
ENDSEC
  0
SECTION
  2
BLOCKS
  0
ENDSEC
  0
SECTION
  2
ENTITIES
  0
ARC
  8
_0-4_P-6853
  6
CONTINUOUS
 62
    7
 10
1049.9817622840535
 20
742.49861584655378
 40
12.5
 50
126.34120309378001
 51
180
  0
ARC
  8
_0-4_P-6853
  6
CONTINUOUS
 62
    7
 10
1041.981762284054
 20
753.37289743202223
 40
1
 50
306.34120309376169
 51
0.0000000000260551
  0
LINE
  8
_0-4_P-6853
  6
CONTINUOUS
 62
    7
 10
1042.8039544756971
 20
754.977671569736
 11
1039.3332648314185
 21
759.99088994480485
  0
ARC
  8
_0-4_P-6853
  6
CONTINUOUS
 62
    7
 10
1041.9817622840533
 20
754.40846159090574
 40
1
 50
0.0000000000130276
 51
34.695153531230687
  0
LINE
  8
_0-4_P-6853
  6
CONTINUOUS
 62
    7
 10
1057.1595700924095
 20
754.97767156973237
 11
1060.6302597366891
 21
759.99088994480348
  0
ARC
  8
_0-4_P-6853
  6
CONTINUOUS
 62
    7
 10
1059.8080675450453
 20
760.56009992363374
 40
1
 50
325.30484646876931
 51
28.697749086111536
  0
LINE
  8
_0-4_P-6853
  6
CONTINUOUS
 62
    7
 10
1039.2782919940412
 20
761.04028896126761
 11
1039.8835333487925
 21
762.14588802517414
  0
ARC
  8
_0-4_P-6853
  6
CONTINUOUS
 62
    7
 10
1040.1554570230624
 20
760.56009992363511
 40
1
 50
151.30225091389161
 51
214.69515353123063
  0
LINE
  8
_0-4_P-6853
  6
CONTINUOUS
 62
    7
 10
1060.6852325740665
 20
761.04028896126624
 11
1060.0799912193136
 21
762.14588802517687
  0
ARC
  8
_0-4_P-6853
  6
CONTINUOUS
 62
    7
 10
1017.9544076232655
 20
774.15061396598742
 40
25
 50
331.30225091388849
 51
359.81316659858243
  0
ARC
  8
_0-4_P-6853
  6
CONTINUOUS
 62
    7
 10
1082.0091169448415
 20
774.15061396598844
 40
25
 50
180.18683340141749
 51
208.69774908611149
  0
LINE
  8
_0-4_P-6853
  6
CONTINUOUS
 62
    7
 10
1042.981762284054
 20
753.37289743202268
 11
1042.9817622840533
 21
754.4084615909062
  0
LINE
  8
_0-4_P-6853
  6
CONTINUOUS
 62
    7
 10
1056.9817622840533
 20
754.40846159090211
 11
1056.9817622840535
 21
753.37289743203087
  0
ARC
  8
_0-4_P-6853
  6
CONTINUOUS
 62
    7
 10
1057.9817622840533
 20
754.40846159090211
 40
1
 50
145.30484646876934
 51
180.00000000000003
  0
LINE
  8
_0-4_P-6853
  6
CONTINUOUS
 62
    7
 10
1042.9817622840535
 20
754.72083806877686
 11
1056.9817622840535
 21
754.72083806877686
  0
LINE
  8
_0-4_P-6853
  6
CONTINUOUS
 62
    7
 10
1056.9817622840535
 20
752.85477343515799
 11
1042.9817622840542
 21
752.85477343515845
  0
LINE
  8
_0-4_P-6853
  6
CONTINUOUS
 62
    7
 10
1039.4802126298571
 20
760.49861584655332
 11
1060.5613089712097
 21
760.49861584655332
  0
ARC
  8
_0-4_P-6853
  6
CONTINUOUS
 62
    7
 10
1049.9817622840537
 20
742.49861584655378
 40
12.5
 50
0
 51
53.65879690624736
  0
ARC
  8
_0-4_P-6853
  6
CONTINUOUS
 62
    7
 10
1057.9817622840533
 20
753.37289743203087
 40
1
 50
180
 51
233.6587969062474
  0
ARC
  8
_0-4_P-6853
  6
CONTINUOUS
 62
    7
 10
1049.9817622840535
 20
742.49861584655196
 40
12.5
 50
180
 51
233.65879690622
  0
ARC
  8
_0-4_P-6853
  6
CONTINUOUS
 62
    7
 10
1041.981762284054
 20
731.6243342610835
 40
1
 50
359.99999999997402
 51
53.65879690623828
  0
LINE
  8
_0-4_P-6853
  6
CONTINUOUS
 62
    7
 10
1042.8039544756971
 20
730.01956012336973
 11
1039.3332648314185
 21
725.00634174830088
  0
ARC
  8
_0-4_P-6853
  6
CONTINUOUS
 62
    7
 10
1041.9817622840533
 20
730.58877010219999
 40
1
 50
325.30484646876931
 51
359.99999999998698
  0
LINE
  8
_0-4_P-6853
  6
CONTINUOUS
 62
    7
 10
1057.1595700924095
 20
730.01956012337337
 11
1060.6302597366891
 21
725.00634174830225
  0
ARC
  8
_0-4_P-6853
  6
CONTINUOUS
 62
    7
 10
1059.8080675450453
 20
724.43713176947199
 40
1
 50
331.30225091388849
 51
34.695153531230666
  0
LINE
  8
_0-4_P-6853
  6
CONTINUOUS
 62
    7
 10
1039.2782919940412
 20
723.95694273183813
 11
1039.8835333487925
 21
722.85134366793159
  0
ARC
  8
_0-4_P-6853
  6
CONTINUOUS
 62
    7
 10
1040.1554570230624
 20
724.43713176947062
 40
1
 50
145.30484646876934
 51
208.69774908610833
  0
LINE
  8
_0-4_P-6853
  6
CONTINUOUS
 62
    7
 10
1060.6852325740665
 20
723.95694273183949
 11
1060.0799912193136
 21
722.85134366792886
  0
LINE
  8
_0-4_P-6853
  6
CONTINUOUS
 62
    7
 10
1055.4817622840549
 20
292.49861584655292
 11
1044.4817622840546
 21
292.49861584655292
  0
LINE
  8
_0-4_P-6853
  6
CONTINUOUS
 62
    7
 10
1044.4817622840546
 20
292.49861584655292
 11
1042.9542747084465
 21
710.9281390328307
  0
ARC
  8
_0-4_P-6853
  6
CONTINUOUS
 62
    7
 10
1017.9544076232655
 20
710.84661772711809
 40
25
 50
0.1868334014175537
 51
28.697749086111489
  0
LINE
  8
_0-4_P-6853
  6
CONTINUOUS
 62
    7
 10
1057.0092498596605
 20
710.9281390328299
 11
1055.4817622840549
 21
292.49861584655292
  0
ARC
  8
_0-4_P-6853
  6
CONTINUOUS
 62
    7
 10
1082.0091169448415
 20
710.84661772711729
 40
25
 50
151.30225091388851
 51
179.8131665985824
  0
LINE
  8
_0-4_P-6853
  6
CONTINUOUS
 62
    7
 10
1042.981762284054
 20
731.62433426108305
 11
1042.9817622840533
 21
730.58877010219953
  0
LINE
  8
_0-4_P-6853
  6
CONTINUOUS
 62
    7
 10
1056.9817622840533
 20
730.58877010220363
 11
1056.9817622840535
 21
731.62433426107486
  0
ARC
  8
_0-4_P-6853
  6
CONTINUOUS
 62
    7
 10
1057.9817622840533
 20
730.58877010220363
 40
1
 50
180
 51
214.69515353123063
  0
LINE
  8
_0-4_P-6853
  6
CONTINUOUS
 62
    7
 10
1042.9817622840535
 20
730.27639362432888
 11
1056.9817622840535
 21
730.27639362432888
  0
LINE
  8
_0-4_P-6853
  6
CONTINUOUS
 62
    7
 10
1056.9817622840535
 20
732.14245825794774
 11
1042.9817622840542
 21
732.14245825794728
  0
LINE
  8
_0-4_P-6853
  6
CONTINUOUS
 62
    7
 10
1039.4802126298571
 20
724.49861584655241
 11
1060.5613089712097
 21
724.49861584655241
  0
ARC
  8
_0-4_P-6853
  6
CONTINUOUS
 62
    7
 10
1049.9817622840537
 20
742.49861584655196
 40
12.5
 50
306.34120309375271
 51
0
  0
ARC
  8
_0-4_P-6853
  6
CONTINUOUS
 62
    7
 10
1057.9817622840533
 20
731.62433426107486
 40
1
 50
126.3412030937526
 51
180
  0
LINE
  8
_0-4_P-6853
  6
CONTINUOUS
 62
    7
 10
1055.4817622840549
 20
1192.4986158465508
 11
1044.4817622840549
 21
1192.4986158465508
  0
LINE
  8
_0-4_P-6853
  6
CONTINUOUS
 62
    7
 10
1044.4817622840549
 20
1192.4986158465508
 11
1042.9542747084465
 21
774.0690926602731
  0
LINE
  8
_0-4_P-6853
  6
CONTINUOUS
 62
    7
 10
1057.0092498596605
 20
774.06909266027401
 11
1055.4817622840549
 21
1192.4986158465508
  0
ENDSEC
  0
EOF
