  0
SECTION
  2
HEADER
  9
$ACADVER
  1
AC1009
  9
$INSBASE
 10
0
 20
0
 30
0
  9
$EXTMIN
 10
0
 20
0
  9
$EXTMAX
 10
2100
 20
1485
  9
$LIMMIN
 10
0
 20
0
  9
$LIMMAX
 10
2100
 20
1485
  9
$LTSCALE
 40
5
  0
ENDSEC
  0
SECTION
  2
TABLES
  0
TABLE
  2
LTYPE
 70
     9
  0
LTYPE
  2
CONTINUOUS
 70
    64
  3
実線
 72
    65
 73
     0
 40
0.0
  0
LTYPE
  2
DASHED1
 70
    64
  3
--  --  --  --  --  --  --  --  
 72
    65
 73
     2
 40
2.5
 49
1.25
 49
-1.25
  0
LTYPE
  2
DASHED2
 70
    64
  3
----    ----    ----    ----    
 72
    65
 73
     2
 40
5.0
 49
2.5
 49
-2.5
  0
LTYPE
  2
DASHED3
 70
    64
  3
------  ------  ------  ------  
 72
    65
 73
     2
 40
5.0
 49
3.75
 49
-1.25
  0
LTYPE
  2
CENTER1
 70
    64
  3
----- - ----- - ----- - ----- - 
 72
    65
 73
     4
 40
10.0
 49
6.25
 49
-1.25
 49
1.25
 49
-1.25
  0
LTYPE
  2
CENTER2
 70
    64
  3
----------  --  ----------  --  
 72
    65
 73
     4
 40
20.0
 49
12.5
 49
-2.5
 49
2.5
 49
-2.5
  0
LTYPE
  2
PHANTOM1
 70
    64
  3
--- - - --- - - --- - - --- - - 
 72
    65
 73
     6
 40
10.0
 49
3.25
 49
-1.25
 49
1.25
 49
-1.25
 49
1.25
 49
-1.25
  0
LTYPE
  2
PHANTOM2
 70
    64
  3
--------  -  -  --------  -  -  
 72
    65
 73
     6
 40
20.0
 49
10.0
 49
-2.5
 49
1.25
 49
-2.5
 49
1.25
 49
-2.5
  0
LTYPE
  2
DOT
 70
    64
  3
-   -   -   -   -   -   -   -   
 72
    65
 73
     2
 40
2.5
 49
0.625
 49
-1.875
  0
LTYPE
  2
DUMMY
 70
    64
  3
ダミー
 72
    65
 73
     0
 40
0.0
  0
LTYPE
  2
RAND1
 70
    64
  3
ランダム線1
 72
    65
 73
     4
 40
10.0
 49
1.0
 49
-2.0
 49
3.0
 49
-4.0
  0
LTYPE
  2
RAND2
 70
    64
  3
ランダム線2
 72
    65
 73
     4
 40
14.0
 49
2.0
 49
-3.0
 49
4.0
 49
-5.0
  0
LTYPE
  2
RAND3
 70
    64
  3
ランダム線3
 72
    65
 73
     4
 40
18.0
 49
3.0
 49
-4.0
 49
5.0
 49
-6.0
  0
LTYPE
  2
RAND4
 70
    64
  3
ランダム線4
 72
    65
 73
     4
 40
22.0
 49
4.0
 49
-5.0
 49
6.0
 49
-7.0
  0
LTYPE
  2
RAND5
 70
    64
  3
ランダム線5
 72
    65
 73
     4
 40
26.0
 49
5.0
 49
-6.0
 49
7.0
 49
-8.0
  0
LTYPE
  2
LONG1
 70
    64
  3
----------  --  ----------  --  
 72
    65
 73
     4
 40
40.0
 49
32.5
 49
-2.5
 49
2.5
 49
-2.5
  0
LTYPE
  2
LONG2
 70
    64
  3
--------  -  -  --------  -  -  
 72
    65
 73
     6
 40
40.0
 49
30.0
 49
-2.5
 49
1.25
 49
-2.5
 49
1.25
 49
-2.5
  0
LTYPE
  2
LONG3
 70
    64
  3
+++++++++++++++..+++++++++++++++
 72
    65
 73
     2
 40
40.0
 49
37.5
 49
-2.5
  0
LTYPE
  2
LONG4
 70
    64
  3
+++++++++++++++..+++++++++++++++
 72
    65
 73
     2
 40
80.0
 49
75.0
 49
-5.0
  0
LTYPE
  2
LONG5
 70
    64
  3
----------  --  ----------  --  
 72
    65
 73
     4
 40
60.0
 49
37.5
 49
-7.5
 49
7.5
 49
-7.5
  0
LTYPE
  2
dashed
 70
   64
  3
-------   -------------   ------
 72
   65
 73
    2
 40
7.5
 49
6
 49
-1.5
  0
LTYPE
  2
dashed_spaced
 70
   64
  3
----        --------        ----
 72
   65
 73
    2
 40
12
 49
6
 49
-6
  0
LTYPE
  2
long_dashed_dotted
 70
   64
  3
------------- --- --------------
 72
   65
 73
    4
 40
15.25
 49
12
 49
-1.5
 49
0.25
 49
-1.5
  0
LTYPE
  2
long_dashed_double-dotted
 70
   64
  3
----------- --- --- ------------
 72
   65
 73
    6
 40
17
 49
12
 49
-1.5
 49
0.25
 49
-1.5
 49
0.25
 49
-1.5
  0
LTYPE
  2
long_dashed_triplicate-dotted
 70
   64
  3
--------- --- --- --- ----------
 72
   65
 73
    8
 40
18.75
 49
12
 49
-1.5
 49
0.25
 49
-1.5
 49
0.25
 49
-1.5
 49
0.25
 49
-1.5
  0
LTYPE
  2
dotted
 70
   64
  3
   -       -       -       -    
 72
   65
 73
    2
 40
1.75
 49
0.25
 49
-1.5
  0
LTYPE
  2
chain
 70
   64
  3
-------------- -- --------------
 72
   65
 73
    4
 40
18.5
 49
12
 49
-1.5
 49
3.5
 49
-1.5
  0
LTYPE
  2
chain_double_dash
 70
   64
  3
------------ -- -- -------------
 72
   65
 73
    6
 40
23.5
 49
12
 49
-1.5
 49
3.5
 49
-1.5
 49
3.5
 49
-1.5
  0
LTYPE
  2
dashed_dotted
 70
   64
  3
-----------     -     ----------
 72
   65
 73
    4
 40
9.25
 49
6
 49
-1.5
 49
0.25
 49
-1.5
  0
LTYPE
  2
double-dashed_dotted
 70
   64
  3
------   -----------   -   -----
 72
   65
 73
    6
 40
16.75
 49
6
 49
-1.5
 49
6
 49
-1.5
 49
0.25
 49
-1.5
  0
LTYPE
  2
dashed_double-dotted
 70
   64
  3
---------    -    -    ---------
 72
   65
 73
    6
 40
11
 49
6
 49
-1.5
 49
0.25
 49
-1.5
 49
0.25
 49
-1.5
  0
LTYPE
  2
double-dashed_double-dotted
 70
   64
  3
-----   ---------   -   -   ----
 72
   65
 73
    8
 40
18.5
 49
6
 49
-1.5
 49
6
 49
-1.5
 49
0.25
 49
-1.5
 49
0.25
 49
-1.5
  0
LTYPE
  2
dashed_triplicate-dotted
 70
   64
  3
-------    -    -    -    ------
 72
   65
 73
    8
 40
12.75
 49
6
 49
-1.5
 49
0.25
 49
-1.5
 49
0.25
 49
-1.5
 49
0.25
 49
-1.5
  0
LTYPE
  2
double-dashed_triplicate-dotted
 70
   64
  3
-----  ---------  -  -  -  -----
 72
   65
 73
   10
 40
20.25
 49
6
 49
-1.5
 49
6
 49
-1.5
 49
0.25
 49
-1.5
 49
0.25
 49
-1.5
 49
0.25
 49
-1.5
  0
LTYPE
  2
undefined
 70
   64
  3
--------------------------------
 72
   65
 73
    0
 40
0
  0
LTYPE
  2
BORDER
 70
   64
  3
----     --------     -     ----
 72
   65
 73
    6
 40
1.76
 49
0.5
 49
-0.25
 49
0.5
 49
-0.25
 49
0.01
 49
-0.25
  0
LTYPE
  2
BORDER2
 70
   64
  3
----     --------     -     ----
 72
   65
 73
    6
 40
0.885
 49
0.25
 49
-0.125
 49
0.25
 49
-0.125
 49
0.01
 49
-0.125
  0
LTYPE
  2
BORDERX2
 70
   64
  3
----     --------     -     ----
 72
   65
 73
    6
 40
3.5099999999999998
 49
1
 49
-0.5
 49
1
 49
-0.5
 49
0.01
 49
-0.5
  0
LTYPE
  2
CENTER
 70
   64
  3
----------    ----    ----------
 72
   65
 73
    4
 40
2
 49
1.25
 49
-0.25
 49
0.25
 49
-0.25
  0
LTYPE
  2
CENTER2_21
 70
   64
  3
----------    ----    ----------
 72
   65
 73
    4
 40
1.125
 49
0.75
 49
-0.125
 49
0.125
 49
-0.125
  0
LTYPE
  2
CENTERX2
 70
   64
  3
----------    ----    ----------
 72
   65
 73
    4
 40
4
 49
2.5
 49
-0.5
 49
0.5
 49
-0.5
  0
LTYPE
  2
DASHDOT
 70
   64
  3
--------        -        -------
 72
   65
 73
    4
 40
1.01
 49
0.5
 49
-0.25
 49
0.01
 49
-0.25
  0
LTYPE
  2
DASHDOT2
 70
   64
  3
--------        -        -------
 72
   65
 73
    4
 40
0.51
 49
0.25
 49
-0.125
 49
0.01
 49
-0.125
  0
LTYPE
  2
DASHDOTX2
 70
   64
  3
--------        -        -------
 72
   65
 73
    4
 40
2.0099999999999998
 49
1
 49
-0.5
 49
0.01
 49
-0.5
  0
LTYPE
  2
DASHED
 70
   64
  3
------     -----------     -----
 72
   65
 73
    2
 40
0.75
 49
0.5
 49
-0.25
  0
LTYPE
  2
DASHED2_27
 70
   64
  3
------     -----------     -----
 72
   65
 73
    2
 40
0.375
 49
0.25
 49
-0.125
  0
LTYPE
  2
DASHEDX2
 70
   64
  3
------     -----------     -----
 72
   65
 73
    2
 40
1.5
 49
1
 49
-0.5
  0
LTYPE
  2
DIVIDE
 70
   64
  3
------      -      -      ------
 72
   65
 73
    6
 40
1.27
 49
0.5
 49
-0.25
 49
0.01
 49
-0.25
 49
0.01
 49
-0.25
  0
LTYPE
  2
DIVIDE2
 70
   64
  3
------      -      -      ------
 72
   65
 73
    6
 40
0.645
 49
0.25
 49
-0.125
 49
0.01
 49
-0.125
 49
0.01
 49
-0.125
  0
LTYPE
  2
DIVIDEX2
 70
   64
  3
------      -      -      ------
 72
   65
 73
    6
 40
2.5199999999999996
 49
1
 49
-0.5
 49
0.01
 49
-0.5
 49
0.01
 49
-0.5
  0
LTYPE
  2
DOT_32
 70
   64
  3
-               -               
 72
   65
 73
    2
 40
0.26
 49
0.01
 49
-0.25
  0
ENDTAB
  0
TABLE
  2
STYLE
  5
3
100
AcDbSymbolTable
 70
     1
  0
STYLE
  5
10
100
AcDbSymbolTableRecord
100
AcDbTextStyleTableRecord
  2
STANDARD
 70
     0
 40
0.0
 41
1.0
 50
0.0
 71
     0
 42
0.2
  3
txt
  4
bigfont.shx
  0
STYLE
  5
26
100
AcDbSymbolTableRecord
100
AcDbTextStyleTableRecord
  2
TATEGAKI
 70
    68
 40
0.0
 41
1.0
 50
0.0
 71
     0
 42
1.0
  3
txt
  4
bigfont.shx
  0
ENDTAB
  0
TABLE
  2
LAYER
 70
    2
  0
LAYER
  2
_0-0_0
 70
   64
 62
    7
  6
CONTINUOUS
  0
LAYER
  2
ADD_LINE
 70
   64
 62
    7
  6
CONTINUOUS
  0
ENDTAB
  0
ENDSEC
  0
SECTION
  2
BLOCKS
  0
ENDSEC
  0
SECTION
  2
ENTITIES
  0
LINE
  8
_0-0_0
  6
CONTINUOUS
 62
    7
 10
1042.985383763159
 20
971.00328154053523
 11
1045.485383763159
 21
1242.5032815405366
  0
LINE
  8
_0-0_0
  6
CONTINUOUS
 62
    7
 10
1056.985383763159
 20
971.00328154053523
 11
1054.4853837631608
 21
1242.5032815405366
  0
LINE
  8
_0-0_0
  6
CONTINUOUS
 62
    7
 10
1042.985383763159
 20
914.00328154053659
 11
1042.985383763159
 21
571.00328154053659
  0
LINE
  8
_0-0_0
  6
CONTINUOUS
 62
    7
 10
1056.985383763159
 20
914.00328154053659
 11
1056.985383763159
 21
571.00328154053523
  0
ARC
  8
_0-0_0
  6
CONTINUOUS
 62
    7
 10
1055.4298282076034
 20
942.50328154053523
 40
16.944444444444365
 50
137.2587554613134
 51
222.74124453868771
  0
ARC
  8
_0-0_0
  6
CONTINUOUS
 62
    7
 10
1044.5409393187156
 20
942.50328154053523
 40
16.944444444444365
 50
317.25875546131482
 51
42.741244538684626
  0
LINE
  8
_0-0_0
  6
CONTINUOUS
 62
    7
 10
1042.985383763159
 20
931.00328154053523
 11
1056.985383763159
 21
931.00328154053523
  0
LINE
  8
_0-0_0
  6
CONTINUOUS
 62
    7
 10
1056.985383763159
 20
954.00328154053523
 11
1042.985383763159
 21
954.00328154053523
  0
LINE
  8
_0-0_0
  6
CONTINUOUS
 62
    7
 10
1056.985383763159
 20
971.00328154053523
 11
1042.985383763159
 21
971.00328154053523
  0
LINE
  8
_0-0_0
  6
CONTINUOUS
 62
    7
 10
1056.985383763159
 20
954.00328154053523
 11
1060.3504021896442
 21
959.44963587540133
  0
ARC
  8
_0-0_0
  6
CONTINUOUS
 62
    7
 10
1073.7496289239953
 20
970.55138811915049
 40
16.770334626265299
 50
178.45592108368072
 51
216.76369298834513
  0
ARC
  8
_0-0_0
  6
CONTINUOUS
 62
    7
 10
1059.4866232887462
 20
959.95350690092528
 40
1
 50
329.74356283644454
 51
34.094976409283632
  0
LINE
  8
_0-0_0
  6
CONTINUOUS
 62
    7
 10
1042.985383763159
 20
954.00328154053523
 11
1039.6203653366756
 21
959.44963587540133
  0
ARC
  8
_0-0_0
  6
CONTINUOUS
 62
    7
 10
1026.2211386023237
 20
970.55138811915049
 40
16.770334626265299
 50
323.23630701168179
 51
1.5440789163184638
  0
ARC
  8
_0-0_0
  6
CONTINUOUS
 62
    7
 10
1040.4841442375737
 20
959.95350690092528
 40
1
 50
145.90502359071181
 51
210.25643716353309
  0
LINE
  8
_0-0_0
  6
CONTINUOUS
 62
    7
 10
1039.6560347503228
 20
960.51407329050153
 11
1060.3147327760025
 21
960.51407329049562
  0
LINE
  8
_0-0_0
  6
CONTINUOUS
 62
    7
 10
1060.3504021896442
 20
959.44963587540133
 11
1039.6203653366756
 21
959.44963587540133
  0
LINE
  8
_0-0_0
  6
CONTINUOUS
 62
    7
 10
1056.985383763159
 20
914.00328154053659
 11
1042.985383763159
 21
914.00328154053659
  0
LINE
  8
_0-0_0
  6
CONTINUOUS
 62
    7
 10
1056.985383763159
 20
931.00328154053523
 11
1060.3504021896442
 21
925.55692720567049
  0
ARC
  8
_0-0_0
  6
CONTINUOUS
 62
    7
 10
1073.7496289239953
 20
914.45517496192133
 40
16.770334626265299
 50
143.23630701166741
 51
181.54407891632803
  0
ARC
  8
_0-0_0
  6
CONTINUOUS
 62
    7
 10
1059.4866232887462
 20
925.05305618014654
 40
1
 50
325.90502359070911
 51
30.25643716357418
  0
LINE
  8
_0-0_0
  6
CONTINUOUS
 62
    7
 10
1042.985383763159
 20
931.00328154053523
 11
1039.6203653366756
 21
925.55692720567049
  0
ARC
  8
_0-0_0
  6
CONTINUOUS
 62
    7
 10
1026.2211386023237
 20
914.45517496192133
 40
16.770334626265299
 50
358.45592108367202
 51
36.76369298832298
  0
ARC
  8
_0-0_0
  6
CONTINUOUS
 62
    7
 10
1040.4841442375737
 20
925.05305618014654
 40
1
 50
149.74356283647654
 51
214.0949764092924
  0
LINE
  8
_0-0_0
  6
CONTINUOUS
 62
    7
 10
1039.6560347503228
 20
924.49248979057029
 11
1060.3147327760025
 21
924.49248979057529
  0
LINE
  8
_0-0_0
  6
CONTINUOUS
 62
    7
 10
1060.3504021896442
 20
925.55692720567049
 11
1039.6203653366756
 21
925.55692720567049
  0
LINE
  8
_0-0_0
  6
CONTINUOUS
 62
    7
 10
1042.985383763159
 20
531.00328154053523
 11
1056.985383763159
 21
531.00328154053523
  0
LINE
  8
_0-0_0
  6
CONTINUOUS
 62
    7
 10
1056.985383763159
 20
554.00328154053523
 11
1042.985383763159
 21
554.00328154053523
  0
ARC
  8
_0-0_0
  6
CONTINUOUS
 62
    7
 10
1055.4298282076034
 20
542.50328154053523
 40
16.944444444444365
 50
137.25875546131439
 51
222.74124453868851
  0
ARC
  8
_0-0_0
  6
CONTINUOUS
 62
    7
 10
1044.5409393187156
 20
542.50328154053523
 40
16.944444444444365
 50
317.2587554613151
 51
42.741244538684654
  0
LINE
  8
_0-0_0
  6
CONTINUOUS
 62
    7
 10
1056.985383763159
 20
571.00328154053523
 11
1042.985383763159
 21
571.00328154053659
  0
LINE
  8
_0-0_0
  6
CONTINUOUS
 62
    7
 10
1056.985383763159
 20
554.00328154053523
 11
1060.3504021896442
 21
559.44963587540133
  0
ARC
  8
_0-0_0
  6
CONTINUOUS
 62
    7
 10
1073.7496289239953
 20
570.55138811915049
 40
16.770334626265299
 50
178.4559210836818
 51
216.7636929883457
  0
ARC
  8
_0-0_0
  6
CONTINUOUS
 62
    7
 10
1059.4866232887462
 20
559.95350690092528
 40
1
 50
329.74356283644556
 51
34.094976409282836
  0
LINE
  8
_0-0_0
  6
CONTINUOUS
 62
    7
 10
1042.985383763159
 20
554.00328154053523
 11
1039.6203653366756
 21
559.44963587540133
  0
ARC
  8
_0-0_0
  6
CONTINUOUS
 62
    7
 10
1026.2211386023237
 20
570.55138811915049
 40
16.770334626265299
 50
323.23630701168219
 51
1.5440789163181905
  0
ARC
  8
_0-0_0
  6
CONTINUOUS
 62
    7
 10
1040.4841442375737
 20
559.95350690092528
 40
1
 50
145.905023590713
 51
210.2564371635319
  0
LINE
  8
_0-0_0
  6
CONTINUOUS
 62
    7
 10
1039.6560347503228
 20
560.51407329050153
 11
1060.3147327760025
 21
560.51407329049562
  0
LINE
  8
_0-0_0
  6
CONTINUOUS
 62
    7
 10
1060.3504021896442
 20
559.44963587540133
 11
1039.6203653366756
 21
559.44963587540133
  0
LINE
  8
_0-0_0
  6
CONTINUOUS
 62
    7
 10
1056.985383763159
 20
514.00328154053659
 11
1042.985383763159
 21
514.00328154053523
  0
LINE
  8
_0-0_0
  6
CONTINUOUS
 62
    7
 10
1056.985383763159
 20
531.00328154053523
 11
1060.3504021896442
 21
525.55692720567049
  0
ARC
  8
_0-0_0
  6
CONTINUOUS
 62
    7
 10
1073.7496289239953
 20
514.45517496192133
 40
16.770334626265299
 50
143.23630701166664
 51
181.54407891632803
  0
ARC
  8
_0-0_0
  6
CONTINUOUS
 62
    7
 10
1059.4866232887462
 20
525.05305618014654
 40
1
 50
325.9050235907095
 51
30.256437163573239
  0
LINE
  8
_0-0_0
  6
CONTINUOUS
 62
    7
 10
1042.985383763159
 20
531.00328154053523
 11
1039.6203653366756
 21
525.55692720567049
  0
ARC
  8
_0-0_0
  6
CONTINUOUS
 62
    7
 10
1026.2211386023237
 20
514.45517496192133
 40
16.770334626265299
 50
358.45592108367202
 51
36.76369298832207
  0
ARC
  8
_0-0_0
  6
CONTINUOUS
 62
    7
 10
1040.4841442375737
 20
525.05305618014654
 40
1
 50
149.74356283647609
 51
214.09497640929362
  0
LINE
  8
_0-0_0
  6
CONTINUOUS
 62
    7
 10
1039.6560347503228
 20
524.49248979056938
 11
1060.3147327760025
 21
524.49248979057529
  0
LINE
  8
_0-0_0
  6
CONTINUOUS
 62
    7
 10
1060.3504021896442
 20
525.55692720567049
 11
1039.6203653366756
 21
525.55692720567049
  0
LINE
  8
_0-0_0
  6
CONTINUOUS
 62
    7
 10
1054.4853837631608
 20
1242.5032815405352
 11
1045.485383763159
 21
1242.5032815405366
  0
LINE
  8
_0-0_0
  6
CONTINUOUS
 62
    7
 10
1042.985383763159
 20
514.00328154053523
 11
1045.485383763159
 21
242.50328154053548
  0
LINE
  8
_0-0_0
  6
CONTINUOUS
 62
    7
 10
1056.985383763159
 20
514.00328154053659
 11
1054.4853837631608
 21
242.50328154053548
  0
LINE
  8
_0-0_0
  6
CONTINUOUS
 62
    7
 10
1054.4853837631608
 20
242.50328154053642
 11
1045.485383763159
 21
242.50328154053548
  0
ENDSEC
  0
EOF
