  0
SECTION
  2
HEADER
  9
$ACADVER
  1
AC1009
  9
$INSBASE
 10
0
 20
0
 30
0
  9
$EXTMIN
 10
0
 20
0
  9
$EXTMAX
 10
2970
 20
2100
  9
$LIMMIN
 10
0
 20
0
  9
$LIMMAX
 10
2970
 20
2100
  9
$LTSCALE
 40
10
  0
ENDSEC
  0
SECTION
  2
TABLES
  0
TABLE
  2
LTYPE
 70
     9
  0
LTYPE
  2
CONTINUOUS
 70
    64
  3
実線
 72
    65
 73
     0
 40
0.0
  0
LTYPE
  2
DASHED1
 70
    64
  3
--  --  --  --  --  --  --  --  
 72
    65
 73
     2
 40
2.5
 49
1.25
 49
-1.25
  0
LTYPE
  2
DASHED2
 70
    64
  3
----    ----    ----    ----    
 72
    65
 73
     2
 40
5.0
 49
2.5
 49
-2.5
  0
LTYPE
  2
DASHED3
 70
    64
  3
------  ------  ------  ------  
 72
    65
 73
     2
 40
5.0
 49
3.75
 49
-1.25
  0
LTYPE
  2
CENTER1
 70
    64
  3
----- - ----- - ----- - ----- - 
 72
    65
 73
     4
 40
10.0
 49
6.25
 49
-1.25
 49
1.25
 49
-1.25
  0
LTYPE
  2
CENTER2
 70
    64
  3
----------  --  ----------  --  
 72
    65
 73
     4
 40
20.0
 49
12.5
 49
-2.5
 49
2.5
 49
-2.5
  0
LTYPE
  2
PHANTOM1
 70
    64
  3
--- - - --- - - --- - - --- - - 
 72
    65
 73
     6
 40
10.0
 49
3.25
 49
-1.25
 49
1.25
 49
-1.25
 49
1.25
 49
-1.25
  0
LTYPE
  2
PHANTOM2
 70
    64
  3
--------  -  -  --------  -  -  
 72
    65
 73
     6
 40
20.0
 49
10.0
 49
-2.5
 49
1.25
 49
-2.5
 49
1.25
 49
-2.5
  0
LTYPE
  2
DOT
 70
    64
  3
-   -   -   -   -   -   -   -   
 72
    65
 73
     2
 40
2.5
 49
0.625
 49
-1.875
  0
LTYPE
  2
DUMMY
 70
    64
  3
ダミー
 72
    65
 73
     0
 40
0.0
  0
LTYPE
  2
RAND1
 70
    64
  3
ランダム線1
 72
    65
 73
     4
 40
10.0
 49
1.0
 49
-2.0
 49
3.0
 49
-4.0
  0
LTYPE
  2
RAND2
 70
    64
  3
ランダム線2
 72
    65
 73
     4
 40
14.0
 49
2.0
 49
-3.0
 49
4.0
 49
-5.0
  0
LTYPE
  2
RAND3
 70
    64
  3
ランダム線3
 72
    65
 73
     4
 40
18.0
 49
3.0
 49
-4.0
 49
5.0
 49
-6.0
  0
LTYPE
  2
RAND4
 70
    64
  3
ランダム線4
 72
    65
 73
     4
 40
22.0
 49
4.0
 49
-5.0
 49
6.0
 49
-7.0
  0
LTYPE
  2
RAND5
 70
    64
  3
ランダム線5
 72
    65
 73
     4
 40
26.0
 49
5.0
 49
-6.0
 49
7.0
 49
-8.0
  0
LTYPE
  2
LONG1
 70
    64
  3
----------  --  ----------  --  
 72
    65
 73
     4
 40
40.0
 49
32.5
 49
-2.5
 49
2.5
 49
-2.5
  0
LTYPE
  2
LONG2
 70
    64
  3
--------  -  -  --------  -  -  
 72
    65
 73
     6
 40
40.0
 49
30.0
 49
-2.5
 49
1.25
 49
-2.5
 49
1.25
 49
-2.5
  0
LTYPE
  2
LONG3
 70
    64
  3
+++++++++++++++..+++++++++++++++
 72
    65
 73
     2
 40
40.0
 49
37.5
 49
-2.5
  0
LTYPE
  2
LONG4
 70
    64
  3
+++++++++++++++..+++++++++++++++
 72
    65
 73
     2
 40
80.0
 49
75.0
 49
-5.0
  0
LTYPE
  2
LONG5
 70
    64
  3
----------  --  ----------  --  
 72
    65
 73
     4
 40
60.0
 49
37.5
 49
-7.5
 49
7.5
 49
-7.5
  0
LTYPE
  2
dashed
 70
   64
  3
-------   -------------   ------
 72
   65
 73
    2
 40
7.5
 49
6
 49
-1.5
  0
LTYPE
  2
dashed_spaced
 70
   64
  3
----        --------        ----
 72
   65
 73
    2
 40
12
 49
6
 49
-6
  0
LTYPE
  2
long_dashed_dotted
 70
   64
  3
------------- --- --------------
 72
   65
 73
    4
 40
15.25
 49
12
 49
-1.5
 49
0.25
 49
-1.5
  0
LTYPE
  2
long_dashed_double-dotted
 70
   64
  3
----------- --- --- ------------
 72
   65
 73
    6
 40
17
 49
12
 49
-1.5
 49
0.25
 49
-1.5
 49
0.25
 49
-1.5
  0
LTYPE
  2
long_dashed_triplicate-dotted
 70
   64
  3
--------- --- --- --- ----------
 72
   65
 73
    8
 40
18.75
 49
12
 49
-1.5
 49
0.25
 49
-1.5
 49
0.25
 49
-1.5
 49
0.25
 49
-1.5
  0
LTYPE
  2
dotted
 70
   64
  3
   -       -       -       -    
 72
   65
 73
    2
 40
1.75
 49
0.25
 49
-1.5
  0
LTYPE
  2
chain
 70
   64
  3
-------------- -- --------------
 72
   65
 73
    4
 40
18.5
 49
12
 49
-1.5
 49
3.5
 49
-1.5
  0
LTYPE
  2
chain_double_dash
 70
   64
  3
------------ -- -- -------------
 72
   65
 73
    6
 40
23.5
 49
12
 49
-1.5
 49
3.5
 49
-1.5
 49
3.5
 49
-1.5
  0
LTYPE
  2
dashed_dotted
 70
   64
  3
-----------     -     ----------
 72
   65
 73
    4
 40
9.25
 49
6
 49
-1.5
 49
0.25
 49
-1.5
  0
LTYPE
  2
double-dashed_dotted
 70
   64
  3
------   -----------   -   -----
 72
   65
 73
    6
 40
16.75
 49
6
 49
-1.5
 49
6
 49
-1.5
 49
0.25
 49
-1.5
  0
LTYPE
  2
dashed_double-dotted
 70
   64
  3
---------    -    -    ---------
 72
   65
 73
    6
 40
11
 49
6
 49
-1.5
 49
0.25
 49
-1.5
 49
0.25
 49
-1.5
  0
LTYPE
  2
double-dashed_double-dotted
 70
   64
  3
-----   ---------   -   -   ----
 72
   65
 73
    8
 40
18.5
 49
6
 49
-1.5
 49
6
 49
-1.5
 49
0.25
 49
-1.5
 49
0.25
 49
-1.5
  0
LTYPE
  2
dashed_triplicate-dotted
 70
   64
  3
-------    -    -    -    ------
 72
   65
 73
    8
 40
12.75
 49
6
 49
-1.5
 49
0.25
 49
-1.5
 49
0.25
 49
-1.5
 49
0.25
 49
-1.5
  0
LTYPE
  2
double-dashed_triplicate-dotted
 70
   64
  3
-----  ---------  -  -  -  -----
 72
   65
 73
   10
 40
20.25
 49
6
 49
-1.5
 49
6
 49
-1.5
 49
0.25
 49
-1.5
 49
0.25
 49
-1.5
 49
0.25
 49
-1.5
  0
LTYPE
  2
undefined
 70
   64
  3
--------------------------------
 72
   65
 73
    0
 40
0
  0
LTYPE
  2
BORDER
 70
   64
  3
----     --------     -     ----
 72
   65
 73
    6
 40
1.76
 49
0.5
 49
-0.25
 49
0.5
 49
-0.25
 49
0.01
 49
-0.25
  0
LTYPE
  2
BORDER2
 70
   64
  3
----     --------     -     ----
 72
   65
 73
    6
 40
0.885
 49
0.25
 49
-0.125
 49
0.25
 49
-0.125
 49
0.01
 49
-0.125
  0
LTYPE
  2
BORDERX2
 70
   64
  3
----     --------     -     ----
 72
   65
 73
    6
 40
3.5099999999999998
 49
1
 49
-0.5
 49
1
 49
-0.5
 49
0.01
 49
-0.5
  0
LTYPE
  2
CENTER
 70
   64
  3
----------    ----    ----------
 72
   65
 73
    4
 40
2
 49
1.25
 49
-0.25
 49
0.25
 49
-0.25
  0
LTYPE
  2
CENTER2_21
 70
   64
  3
----------    ----    ----------
 72
   65
 73
    4
 40
1.125
 49
0.75
 49
-0.125
 49
0.125
 49
-0.125
  0
LTYPE
  2
CENTERX2
 70
   64
  3
----------    ----    ----------
 72
   65
 73
    4
 40
4
 49
2.5
 49
-0.5
 49
0.5
 49
-0.5
  0
LTYPE
  2
DASHDOT
 70
   64
  3
--------        -        -------
 72
   65
 73
    4
 40
1.01
 49
0.5
 49
-0.25
 49
0.01
 49
-0.25
  0
LTYPE
  2
DASHDOT2
 70
   64
  3
--------        -        -------
 72
   65
 73
    4
 40
0.51
 49
0.25
 49
-0.125
 49
0.01
 49
-0.125
  0
LTYPE
  2
DASHDOTX2
 70
   64
  3
--------        -        -------
 72
   65
 73
    4
 40
2.0099999999999998
 49
1
 49
-0.5
 49
0.01
 49
-0.5
  0
LTYPE
  2
DASHED
 70
   64
  3
------     -----------     -----
 72
   65
 73
    2
 40
0.75
 49
0.5
 49
-0.25
  0
LTYPE
  2
DASHED2_27
 70
   64
  3
------     -----------     -----
 72
   65
 73
    2
 40
0.375
 49
0.25
 49
-0.125
  0
LTYPE
  2
DASHEDX2
 70
   64
  3
------     -----------     -----
 72
   65
 73
    2
 40
1.5
 49
1
 49
-0.5
  0
LTYPE
  2
DIVIDE
 70
   64
  3
------      -      -      ------
 72
   65
 73
    6
 40
1.27
 49
0.5
 49
-0.25
 49
0.01
 49
-0.25
 49
0.01
 49
-0.25
  0
LTYPE
  2
DIVIDE2
 70
   64
  3
------      -      -      ------
 72
   65
 73
    6
 40
0.645
 49
0.25
 49
-0.125
 49
0.01
 49
-0.125
 49
0.01
 49
-0.125
  0
LTYPE
  2
DIVIDEX2
 70
   64
  3
------      -      -      ------
 72
   65
 73
    6
 40
2.5199999999999996
 49
1
 49
-0.5
 49
0.01
 49
-0.5
 49
0.01
 49
-0.5
  0
LTYPE
  2
DOT_32
 70
   64
  3
-               -               
 72
   65
 73
    2
 40
0.26
 49
0.01
 49
-0.25
  0
ENDTAB
  0
TABLE
  2
STYLE
  5
3
100
AcDbSymbolTable
 70
     1
  0
STYLE
  5
10
100
AcDbSymbolTableRecord
100
AcDbTextStyleTableRecord
  2
STANDARD
 70
     0
 40
0.0
 41
1.0
 50
0.0
 71
     0
 42
0.2
  3
txt
  4
bigfont.shx
  0
STYLE
  5
26
100
AcDbSymbolTableRecord
100
AcDbTextStyleTableRecord
  2
TATEGAKI
 70
    68
 40
0.0
 41
1.0
 50
0.0
 71
     0
 42
1.0
  3
txt
  4
bigfont.shx
  0
ENDTAB
  0
TABLE
  2
LAYER
 70
    3
  0
LAYER
  2
_0-0_0
 70
   64
 62
    7
  6
CONTINUOUS
  0
LAYER
  2
_0-4_P-6853
 70
   64
 62
    7
  6
CONTINUOUS
  0
LAYER
  2
ADD_LINE
 70
   64
 62
    7
  6
CONTINUOUS
  0
ENDTAB
  0
ENDSEC
  0
SECTION
  2
BLOCKS
  0
ENDSEC
  0
SECTION
  2
ENTITIES
  0
ARC
  8
_0-4_P-6853
  6
CONTINUOUS
 62
    7
 10
1476.5082485411672
 20
1073.1728651836911
 40
4.4137038727102231
 50
134.81653840501491
 51
199.21636859037696
  0
ARC
  8
_0-4_P-6853
  6
CONTINUOUS
 62
    7
 10
1475.5538270636973
 20
1058.9975830277324
 40
0.8660003119813555
 50
304.28849598641887
 51
21.319485980137614
  0
ARC
  8
_0-4_P-6853
  6
CONTINUOUS
 62
    7
 10
1479.8657392683476
 20
1054.49299198835
 40
5.383355269943177
 50
135.2630320514327
 51
224.73756344208556
  0
ARC
  8
_0-4_P-6853
  6
CONTINUOUS
 62
    7
 10
1497.2947599740257
 20
1032.2472742751565
 40
50.120518422063959
 50
112.2621110253102
 51
118.47661120867861
  0
ARC
  8
_0-4_P-6853
  6
CONTINUOUS
 62
    7
 10
1477.1611453048108
 20
1080.0701137419162
 40
1.8388546951892408
 50
308.54106957303509
 51
0.0000000000033268
  0
ARC
  8
_0-4_P-6853
  6
CONTINUOUS
 62
    7
 10
1486.9655085437057
 20
1054.0345625611869
 40
8.2313138217734476
 50
145.1213627122271
 51
209.35031407341631
  0
ARC
  8
_0-4_P-6853
  6
CONTINUOUS
 62
    7
 10
1653.410572031614
 20
1099.77518647342
 40
177.9921854589314
 50
188.24573320229064
 51
193.32863783402914
  0
ARC
  8
_0-4_P-6853
  6
CONTINUOUS
 62
    7
 10
1480.6403120773634
 20
1074.8160886425753
 40
3.429280211985315
 50
123.7034043032657
 51
189.53989884502374
  0
ARC
  8
_0-4_P-6853
  6
CONTINUOUS
 62
    7
 10
1558.4585535734996
 20
993.94468824159071
 40
115.60802384283238
 50
131.7615508298189
 51
133.5969719001159
  0
ARC
  8
_0-4_P-6853
  6
CONTINUOUS
 62
    7
 10
1493.4917514588333
 20
1073.1728651836911
 40
4.4137038727102231
 50
340.78363140962301
 51
45.183461594985104
  0
ARC
  8
_0-4_P-6853
  6
CONTINUOUS
 62
    7
 10
1494.4461729363027
 20
1058.9975830277324
 40
0.8660003119813555
 50
158.68051401986219
 51
235.71150401358102
  0
ARC
  8
_0-4_P-6853
  6
CONTINUOUS
 62
    7
 10
1490.1342607316524
 20
1054.49299198835
 40
5.383355269943177
 50
315.2624365579145
 51
44.736967948567312
  0
ARC
  8
_0-4_P-6853
  6
CONTINUOUS
 62
    7
 10
1472.6960972619945
 20
1032.2096686030009
 40
50.157934497874983
 50
61.534690536327659
 51
67.746871818644394
  0
ARC
  8
_0-4_P-6853
  6
CONTINUOUS
 62
    7
 10
1492.836608953608
 20
1080.0701137419164
 40
1.8388546951893843
 50
177.1680340776056
 51
231.45893042696372
  0
ARC
  8
_0-4_P-6853
  6
CONTINUOUS
 62
    7
 10
1476.5082485411672
 20
1026.8271348163091
 40
4.4137038727102231
 50
160.78363140962301
 51
225.18346159498168
  0
ARC
  8
_0-4_P-6853
  6
CONTINUOUS
 62
    7
 10
1475.5538270636973
 20
1041.0024169722678
 40
0.8660003119813555
 50
338.6805140198623
 51
55.711504013584189
  0
ARC
  8
_0-4_P-6853
  6
CONTINUOUS
 62
    7
 10
1479.8657392683476
 20
1045.5070080116504
 40
5.383355269943177
 50
135.2624365579145
 51
224.73696794856733
  0
ARC
  8
_0-4_P-6853
  6
CONTINUOUS
 62
    7
 10
1497.2947599740266
 20
1067.7527257248473
 40
50.120518422067761
 50
241.52338879132128
 51
247.73788897468978
  0
ARC
  8
_0-4_P-6853
  6
CONTINUOUS
 62
    7
 10
1477.1611453048106
 20
1019.9298862580838
 40
1.8388546951893379
 50
357.1680340775992
 51
51.458930426960372
  0
ARC
  8
_0-4_P-6853
  6
CONTINUOUS
 62
    7
 10
1486.965508543718
 20
1045.9654374388099
 40
8.2313138217857791
 50
150.64968592660179
 51
214.87863728774479
  0
ARC
  8
_0-4_P-6853
  6
CONTINUOUS
 62
    7
 10
1653.4105720314631
 20
1000.2248135265902
 40
177.99218545878051
 50
166.671362165961
 51
171.7542667977059
  0
ARC
  8
_0-4_P-6853
  6
CONTINUOUS
 62
    7
 10
1480.6403120773634
 20
1025.1839113574251
 40
3.429280211985315
 50
170.46010115497623
 51
236.2965956967343
  0
ARC
  8
_0-4_P-6853
  6
CONTINUOUS
 62
    7
 10
1558.4585535734996
 20
1106.0553117584093
 40
115.60802384283238
 50
226.4030280998841
 51
228.23844917018229
  0
ARC
  8
_0-4_P-6853
  6
CONTINUOUS
 62
    7
 10
1493.4917514588333
 20
1026.8271348163091
 40
4.4137038727102231
 50
314.81653840501838
 51
19.21636859037703
  0
ARC
  8
_0-4_P-6853
  6
CONTINUOUS
 62
    7
 10
1494.4461729363027
 20
1041.0024169722678
 40
0.8660003119813555
 50
124.28849598641581
 51
201.31948598013773
  0
ARC
  8
_0-4_P-6853
  6
CONTINUOUS
 62
    7
 10
1490.1342607316524
 20
1045.5070080116504
 40
5.383355269943177
 50
315.26303205143267
 51
44.737563442085523
  0
ARC
  8
_0-4_P-6853
  6
CONTINUOUS
 62
    7
 10
1472.6960972619941
 20
1067.7903313970014
 40
50.157934497877065
 50
292.25312818135558
 51
298.46530946367238
  0
ARC
  8
_0-4_P-6853
  6
CONTINUOUS
 62
    7
 10
1492.836608953608
 20
1019.9298862580838
 40
1.8388546951893558
 50
128.54106957303958
 51
182.83196592239759
  0
ARC
  8
_0-4_P-6853
  6
CONTINUOUS
 62
    7
 10
1475.3313983575936
 20
1050.0000000000002
 40
1
 50
315.26243655791558
 51
44.737563442084387
  0
ARC
  8
_0-4_P-6853
  6
CONTINUOUS
 62
    7
 10
1494.6686016424064
 20
1050.0000000000002
 40
1
 50
135.26243655791563
 51
224.73756344208437
  0
LINE
  8
_0-4_P-6853
  6
CONTINUOUS
 62
    7
 10
1485
 20
1079.8433768823925
 11
1485
 21
1019.272624151906
  0
LINE
  8
_0-4_P-6853
  6
CONTINUOUS
 62
    7
 10
1476.3313983575938
 20
1050.0000000000002
 11
1493.6686016424064
 21
1050.0000000000002
  0
LINE
  8
_0-4_P-6853
  6
CONTINUOUS
 62
    7
 10
1476.3811162590014
 20
1058.7415573890073
 11
1493.6188837409986
 21
1058.7415573890073
  0
LINE
  8
_0-4_P-6853
  6
CONTINUOUS
 62
    7
 10
1476.3811162590014
 20
1041.2584426109927
 11
1493.6188837409986
 21
1041.2584426109927
  0
ARC
  8
_0-4_P-6853
  6
CONTINUOUS
 62
    7
 10
1316.5894279683862
 20
1099.77518647342
 40
177.9921854589314
 50
346.67136216597089
 51
351.75426679770942
  0
ARC
  8
_0-4_P-6853
  6
CONTINUOUS
 62
    7
 10
1489.3596879226366
 20
1074.8160886425753
 40
3.429280211985315
 50
350.46010115497631
 51
56.2965956967343
  0
ARC
  8
_0-4_P-6853
  6
CONTINUOUS
 62
    7
 10
1411.5414464265004
 20
993.94468824159071
 40
115.60802384283238
 50
46.403028099884139
 51
48.238449170181127
  0
ARC
  8
_0-4_P-6853
  6
CONTINUOUS
 62
    7
 10
1316.5894279685369
 20
1000.2248135265902
 40
177.99218545878051
 50
8.2457332022941081
 51
13.328637834039
  0
ARC
  8
_0-4_P-6853
  6
CONTINUOUS
 62
    7
 10
1489.3596879226366
 20
1025.1839113574251
 40
3.429280211985315
 50
303.7034043032657
 51
9.5398988450237443
  0
ARC
  8
_0-4_P-6853
  6
CONTINUOUS
 62
    7
 10
1411.5414464265004
 20
1106.0553117584093
 40
115.60802384283238
 50
311.76155082981768
 51
313.59697190011582
  0
LINE
  8
_0-4_P-6853
  6
CONTINUOUS
 62
    7
 10
1479
 20
1080.0701137419162
 11
1479
 21
1550
  0
LINE
  8
_0-4_P-6853
  6
CONTINUOUS
 62
    7
 10
1491
 20
1080.1609660481429
 11
1491.0000000000002
 21
1550
  0
ARC
  8
_0-4_P-6853
  6
CONTINUOUS
 62
    7
 10
1483.0344914562943
 20
1054.0345625611869
 40
8.2313138217734476
 50
330.64968592658374
 51
34.878637287772754
  0
ARC
  8
_0-4_P-6853
  6
CONTINUOUS
 62
    7
 10
1483.034491456282
 20
1045.9654374388099
 40
8.2313138217857791
 50
325.1213627122516
 51
29.350314073398131
  0
LINE
  8
_0-4_P-6853
  6
CONTINUOUS
 62
    7
 10
1490.9977542584188
 20
1080.0701137419164
 11
1479.5789283698753
 21
1080.0701137419164
  0
LINE
  8
_0-4_P-6853
  6
CONTINUOUS
 62
    7
 10
1490.9977542584188
 20
1019.9298862580837
 11
1479.5789283698753
 21
1019.9298862580837
  0
LINE
  8
_0-4_P-6853
  6
CONTINUOUS
 62
    7
 10
1479
 20
1019.9298862580838
 11
1479
 21
550
  0
LINE
  8
_0-4_P-6853
  6
CONTINUOUS
 62
    7
 10
1491
 20
1019.8390339518572
 11
1491
 21
550
  0
LINE
  8
_0-4_P-6853
  6
CONTINUOUS
 62
    7
 10
1479
 20
1550
 11
1491.0000000000002
 21
1550
  0
LINE
  8
_0-4_P-6853
  6
CONTINUOUS
 62
    7
 10
1479
 20
550
 11
1491
 21
550
  0
LINE
  8
_0-0_0
  6
CONTINUOUS
 62
    7
 10
1476.3605649253352
 20
1059.3124330919716
 11
1472.3404657472893
 21
1071.7201544557643
  0
LINE
  8
_0-0_0
  6
CONTINUOUS
 62
    7
 10
1493.6394350746648
 20
1059.3124330919716
 11
1497.6595342527112
 21
1071.7201544557643
  0
LINE
  8
_0-0_0
  6
CONTINUOUS
 62
    7
 10
1493.6394350746648
 20
1040.6875669080284
 11
1497.6595342527112
 21
1028.2798455442357
  0
LINE
  8
_0-0_0
  6
CONTINUOUS
 62
    7
 10
1472.3404657472893
 20
1028.2798455442357
 11
1476.3605649253352
 21
1040.6875669080284
  0
LINE
  8
_0-0_0
  6
CONTINUOUS
 62
    7
 10
1479
 20
1080.0701137419164
 11
1490.9977542584188
 21
1080.0701137419164
  0
LINE
  8
_0-0_0
  6
CONTINUOUS
 62
    7
 10
1476.3811162590016
 20
1058.7415573890073
 11
1493.6188837409984
 21
1058.7415573890073
  0
LINE
  8
_0-0_0
  6
CONTINUOUS
 62
    7
 10
1476.3313983575938
 20
1050.0000000000002
 11
1493.6686016424064
 21
1050.0000000000002
  0
LINE
  8
_0-0_0
  6
CONTINUOUS
 62
    7
 10
1476.3811162590016
 20
1041.2584426109927
 11
1493.6188837409984
 21
1041.2584426109927
  0
LINE
  8
_0-0_0
  6
CONTINUOUS
 62
    7
 10
1479
 20
1019.9298862580838
 11
1491
 21
1019.8390339518571
  0
ENDSEC
  0
EOF
