  0
SECTION
  2
HEADER
  9
$ACADVER
  1
AC1009
  9
$INSBASE
 10
0
 20
0
 30
0
  9
$EXTMIN
 10
0
 20
0
  9
$EXTMAX
 10
2100
 20
1485
  9
$LIMMIN
 10
0
 20
0
  9
$LIMMAX
 10
2100
 20
1485
  9
$LTSCALE
 40
5
  0
ENDSEC
  0
SECTION
  2
TABLES
  0
TABLE
  2
LTYPE
 70
     9
  0
LTYPE
  2
CONTINUOUS
 70
    64
  3
実線
 72
    65
 73
     0
 40
0.0
  0
LTYPE
  2
DASHED1
 70
    64
  3
--  --  --  --  --  --  --  --  
 72
    65
 73
     2
 40
2.5
 49
1.25
 49
-1.25
  0
LTYPE
  2
DASHED2
 70
    64
  3
----    ----    ----    ----    
 72
    65
 73
     2
 40
5.0
 49
2.5
 49
-2.5
  0
LTYPE
  2
DASHED3
 70
    64
  3
------  ------  ------  ------  
 72
    65
 73
     2
 40
5.0
 49
3.75
 49
-1.25
  0
LTYPE
  2
CENTER1
 70
    64
  3
----- - ----- - ----- - ----- - 
 72
    65
 73
     4
 40
10.0
 49
6.25
 49
-1.25
 49
1.25
 49
-1.25
  0
LTYPE
  2
CENTER2
 70
    64
  3
----------  --  ----------  --  
 72
    65
 73
     4
 40
20.0
 49
12.5
 49
-2.5
 49
2.5
 49
-2.5
  0
LTYPE
  2
PHANTOM1
 70
    64
  3
--- - - --- - - --- - - --- - - 
 72
    65
 73
     6
 40
10.0
 49
3.25
 49
-1.25
 49
1.25
 49
-1.25
 49
1.25
 49
-1.25
  0
LTYPE
  2
PHANTOM2
 70
    64
  3
--------  -  -  --------  -  -  
 72
    65
 73
     6
 40
20.0
 49
10.0
 49
-2.5
 49
1.25
 49
-2.5
 49
1.25
 49
-2.5
  0
LTYPE
  2
DOT
 70
    64
  3
-   -   -   -   -   -   -   -   
 72
    65
 73
     2
 40
2.5
 49
0.625
 49
-1.875
  0
LTYPE
  2
DUMMY
 70
    64
  3
ダミー
 72
    65
 73
     0
 40
0.0
  0
LTYPE
  2
RAND1
 70
    64
  3
ランダム線1
 72
    65
 73
     4
 40
10.0
 49
1.0
 49
-2.0
 49
3.0
 49
-4.0
  0
LTYPE
  2
RAND2
 70
    64
  3
ランダム線2
 72
    65
 73
     4
 40
14.0
 49
2.0
 49
-3.0
 49
4.0
 49
-5.0
  0
LTYPE
  2
RAND3
 70
    64
  3
ランダム線3
 72
    65
 73
     4
 40
18.0
 49
3.0
 49
-4.0
 49
5.0
 49
-6.0
  0
LTYPE
  2
RAND4
 70
    64
  3
ランダム線4
 72
    65
 73
     4
 40
22.0
 49
4.0
 49
-5.0
 49
6.0
 49
-7.0
  0
LTYPE
  2
RAND5
 70
    64
  3
ランダム線5
 72
    65
 73
     4
 40
26.0
 49
5.0
 49
-6.0
 49
7.0
 49
-8.0
  0
LTYPE
  2
LONG1
 70
    64
  3
----------  --  ----------  --  
 72
    65
 73
     4
 40
40.0
 49
32.5
 49
-2.5
 49
2.5
 49
-2.5
  0
LTYPE
  2
LONG2
 70
    64
  3
--------  -  -  --------  -  -  
 72
    65
 73
     6
 40
40.0
 49
30.0
 49
-2.5
 49
1.25
 49
-2.5
 49
1.25
 49
-2.5
  0
LTYPE
  2
LONG3
 70
    64
  3
+++++++++++++++..+++++++++++++++
 72
    65
 73
     2
 40
40.0
 49
37.5
 49
-2.5
  0
LTYPE
  2
LONG4
 70
    64
  3
+++++++++++++++..+++++++++++++++
 72
    65
 73
     2
 40
80.0
 49
75.0
 49
-5.0
  0
LTYPE
  2
LONG5
 70
    64
  3
----------  --  ----------  --  
 72
    65
 73
     4
 40
60.0
 49
37.5
 49
-7.5
 49
7.5
 49
-7.5
  0
LTYPE
  2
dashed
 70
   64
  3
-------   -------------   ------
 72
   65
 73
    2
 40
7.5
 49
6
 49
-1.5
  0
LTYPE
  2
dashed_spaced
 70
   64
  3
----        --------        ----
 72
   65
 73
    2
 40
12
 49
6
 49
-6
  0
LTYPE
  2
long_dashed_dotted
 70
   64
  3
------------- --- --------------
 72
   65
 73
    4
 40
15.25
 49
12
 49
-1.5
 49
0.25
 49
-1.5
  0
LTYPE
  2
long_dashed_double-dotted
 70
   64
  3
----------- --- --- ------------
 72
   65
 73
    6
 40
17
 49
12
 49
-1.5
 49
0.25
 49
-1.5
 49
0.25
 49
-1.5
  0
LTYPE
  2
long_dashed_triplicate-dotted
 70
   64
  3
--------- --- --- --- ----------
 72
   65
 73
    8
 40
18.75
 49
12
 49
-1.5
 49
0.25
 49
-1.5
 49
0.25
 49
-1.5
 49
0.25
 49
-1.5
  0
LTYPE
  2
dotted
 70
   64
  3
   -       -       -       -    
 72
   65
 73
    2
 40
1.75
 49
0.25
 49
-1.5
  0
LTYPE
  2
chain
 70
   64
  3
-------------- -- --------------
 72
   65
 73
    4
 40
18.5
 49
12
 49
-1.5
 49
3.5
 49
-1.5
  0
LTYPE
  2
chain_double_dash
 70
   64
  3
------------ -- -- -------------
 72
   65
 73
    6
 40
23.5
 49
12
 49
-1.5
 49
3.5
 49
-1.5
 49
3.5
 49
-1.5
  0
LTYPE
  2
dashed_dotted
 70
   64
  3
-----------     -     ----------
 72
   65
 73
    4
 40
9.25
 49
6
 49
-1.5
 49
0.25
 49
-1.5
  0
LTYPE
  2
double-dashed_dotted
 70
   64
  3
------   -----------   -   -----
 72
   65
 73
    6
 40
16.75
 49
6
 49
-1.5
 49
6
 49
-1.5
 49
0.25
 49
-1.5
  0
LTYPE
  2
dashed_double-dotted
 70
   64
  3
---------    -    -    ---------
 72
   65
 73
    6
 40
11
 49
6
 49
-1.5
 49
0.25
 49
-1.5
 49
0.25
 49
-1.5
  0
LTYPE
  2
double-dashed_double-dotted
 70
   64
  3
-----   ---------   -   -   ----
 72
   65
 73
    8
 40
18.5
 49
6
 49
-1.5
 49
6
 49
-1.5
 49
0.25
 49
-1.5
 49
0.25
 49
-1.5
  0
LTYPE
  2
dashed_triplicate-dotted
 70
   64
  3
-------    -    -    -    ------
 72
   65
 73
    8
 40
12.75
 49
6
 49
-1.5
 49
0.25
 49
-1.5
 49
0.25
 49
-1.5
 49
0.25
 49
-1.5
  0
LTYPE
  2
double-dashed_triplicate-dotted
 70
   64
  3
-----  ---------  -  -  -  -----
 72
   65
 73
   10
 40
20.25
 49
6
 49
-1.5
 49
6
 49
-1.5
 49
0.25
 49
-1.5
 49
0.25
 49
-1.5
 49
0.25
 49
-1.5
  0
LTYPE
  2
undefined
 70
   64
  3
--------------------------------
 72
   65
 73
    0
 40
0
  0
LTYPE
  2
BORDER
 70
   64
  3
----     --------     -     ----
 72
   65
 73
    6
 40
1.76
 49
0.5
 49
-0.25
 49
0.5
 49
-0.25
 49
0.01
 49
-0.25
  0
LTYPE
  2
BORDER2
 70
   64
  3
----     --------     -     ----
 72
   65
 73
    6
 40
0.885
 49
0.25
 49
-0.125
 49
0.25
 49
-0.125
 49
0.01
 49
-0.125
  0
LTYPE
  2
BORDERX2
 70
   64
  3
----     --------     -     ----
 72
   65
 73
    6
 40
3.5099999999999998
 49
1
 49
-0.5
 49
1
 49
-0.5
 49
0.01
 49
-0.5
  0
LTYPE
  2
CENTER
 70
   64
  3
----------    ----    ----------
 72
   65
 73
    4
 40
2
 49
1.25
 49
-0.25
 49
0.25
 49
-0.25
  0
LTYPE
  2
CENTER2_21
 70
   64
  3
----------    ----    ----------
 72
   65
 73
    4
 40
1.125
 49
0.75
 49
-0.125
 49
0.125
 49
-0.125
  0
LTYPE
  2
CENTERX2
 70
   64
  3
----------    ----    ----------
 72
   65
 73
    4
 40
4
 49
2.5
 49
-0.5
 49
0.5
 49
-0.5
  0
LTYPE
  2
DASHDOT
 70
   64
  3
--------        -        -------
 72
   65
 73
    4
 40
1.01
 49
0.5
 49
-0.25
 49
0.01
 49
-0.25
  0
LTYPE
  2
DASHDOT2
 70
   64
  3
--------        -        -------
 72
   65
 73
    4
 40
0.51
 49
0.25
 49
-0.125
 49
0.01
 49
-0.125
  0
LTYPE
  2
DASHDOTX2
 70
   64
  3
--------        -        -------
 72
   65
 73
    4
 40
2.0099999999999998
 49
1
 49
-0.5
 49
0.01
 49
-0.5
  0
LTYPE
  2
DASHED
 70
   64
  3
------     -----------     -----
 72
   65
 73
    2
 40
0.75
 49
0.5
 49
-0.25
  0
LTYPE
  2
DASHED2_27
 70
   64
  3
------     -----------     -----
 72
   65
 73
    2
 40
0.375
 49
0.25
 49
-0.125
  0
LTYPE
  2
DASHEDX2
 70
   64
  3
------     -----------     -----
 72
   65
 73
    2
 40
1.5
 49
1
 49
-0.5
  0
LTYPE
  2
DIVIDE
 70
   64
  3
------      -      -      ------
 72
   65
 73
    6
 40
1.27
 49
0.5
 49
-0.25
 49
0.01
 49
-0.25
 49
0.01
 49
-0.25
  0
LTYPE
  2
DIVIDE2
 70
   64
  3
------      -      -      ------
 72
   65
 73
    6
 40
0.645
 49
0.25
 49
-0.125
 49
0.01
 49
-0.125
 49
0.01
 49
-0.125
  0
LTYPE
  2
DIVIDEX2
 70
   64
  3
------      -      -      ------
 72
   65
 73
    6
 40
2.5199999999999996
 49
1
 49
-0.5
 49
0.01
 49
-0.5
 49
0.01
 49
-0.5
  0
LTYPE
  2
DOT_32
 70
   64
  3
-               -               
 72
   65
 73
    2
 40
0.26
 49
0.01
 49
-0.25
  0
ENDTAB
  0
TABLE
  2
STYLE
  5
3
100
AcDbSymbolTable
 70
     1
  0
STYLE
  5
10
100
AcDbSymbolTableRecord
100
AcDbTextStyleTableRecord
  2
STANDARD
 70
     0
 40
0.0
 41
1.0
 50
0.0
 71
     0
 42
0.2
  3
txt
  4
bigfont.shx
  0
STYLE
  5
26
100
AcDbSymbolTableRecord
100
AcDbTextStyleTableRecord
  2
TATEGAKI
 70
    68
 40
0.0
 41
1.0
 50
0.0
 71
     0
 42
1.0
  3
txt
  4
bigfont.shx
  0
ENDTAB
  0
TABLE
  2
LAYER
 70
    2
  0
LAYER
  2
_0-0_0
 70
   64
 62
    7
  6
CONTINUOUS
  0
LAYER
  2
ADD_LINE
 70
   64
 62
    7
  6
CONTINUOUS
  0
ENDTAB
  0
ENDSEC
  0
SECTION
  2
BLOCKS
  0
ENDSEC
  0
SECTION
  2
ENTITIES
  0
LINE
  8
_0-0_0
  6
CONTINUOUS
 62
    7
 10
941.00253512312315
 20
390.55928876614939
 11
941.00253512312315
 21
234.85405805325883
  0
LINE
  8
_0-0_0
  6
CONTINUOUS
 62
    7
 10
941.00253512312315
 20
234.85405805325883
 11
953.00253512312327
 21
234.85405805325883
  0
LINE
  8
_0-0_0
  6
CONTINUOUS
 62
    7
 10
953.00253512312327
 20
390.55928876614939
 11
953.00253512312327
 21
234.85405805325883
  0
LINE
  8
_0-0_0
  6
CONTINUOUS
 62
    7
 10
953.00253512312327
 20
1234.8540580532588
 11
941.00253512312315
 21
1234.8540580532588
  0
LINE
  8
_0-0_0
  6
CONTINUOUS
 62
    7
 10
941.00253512312315
 20
1234.8540580532588
 11
941.00253512312315
 21
1079.1488273403681
  0
LINE
  8
_0-0_0
  6
CONTINUOUS
 62
    7
 10
953.00253512312327
 20
1234.8540580532588
 11
953.00253512312327
 21
1079.1488273403681
  0
LINE
  8
_0-0_0
  6
CONTINUOUS
 62
    7
 10
941.00253512312315
 20
890.95615461087607
 11
941.00253512312315
 21
578.75196149564158
  0
LINE
  8
_0-0_0
  6
CONTINUOUS
 62
    7
 10
953.00253512312327
 20
890.95615461087607
 11
953.00253512312327
 21
578.75196149564158
  0
ARC
  8
_0-0_0
  6
CONTINUOUS
 62
    7
 10
1769.8451864903109
 20
694.91169049954794
 40
882.95556640625011
 50
197.5910339355469
 51
200.16331481933597
  0
ARC
  8
_0-0_0
  6
CONTINUOUS
 62
    7
 10
950.20703007627867
 20
434.4138419888057
 40
22.925479888916019
 50
128.72918701171875
 51
196.07957458496094
  0
ARC
  8
_0-0_0
  6
CONTINUOUS
 62
    7
 10
931.29205824781809
 20
459.31749799466502
 40
8.3768329620361328
 50
303.07766723632812
 51
46.704223632812514
  0
ARC
  8
_0-0_0
  6
CONTINUOUS
 62
    7
 10
960.97431303907786
 20
484.54602887845408
 40
30.643686294555668
 50
140.95736694335938
 51
218.63279724121094
  0
ARC
  8
_0-0_0
  6
CONTINUOUS
 62
    7
 10
1769.8451864903109
 20
274.39952924466502
 40
882.95556640625011
 50
159.836669921875
 51
162.40895080566406
  0
ARC
  8
_0-0_0
  6
CONTINUOUS
 62
    7
 10
950.20703007627867
 20
534.89739301419627
 40
22.925479888916019
 50
163.92041015625
 51
231.27079772949222
  0
ARC
  8
_0-0_0
  6
CONTINUOUS
 62
    7
 10
931.29205824781809
 20
509.99373700833689
 40
8.3768329620361328
 50
313.29576110839844
 51
56.922317504882841
  0
ARC
  8
_0-0_0
  6
CONTINUOUS
 62
    7
 10
933.03075720716856
 20
484.54602887845408
 40
30.643686294555668
 50
321.36718750000006
 51
39.042617797851612
  0
ARC
  8
_0-0_0
  6
CONTINUOUS
 62
    7
 10
124.15988375593557
 20
694.91169049954794
 40
882.95556640625011
 50
339.83666992187506
 51
342.40895080566412
  0
ARC
  8
_0-0_0
  6
CONTINUOUS
 62
    7
 10
943.79804016996775
 20
434.4138419888057
 40
22.925479888916019
 50
343.92041015625006
 51
51.270797729492237
  0
ARC
  8
_0-0_0
  6
CONTINUOUS
 62
    7
 10
962.71301199842833
 20
459.31749799466502
 40
8.3768329620361328
 50
133.29576110839847
 51
236.92231750488281
  0
ARC
  8
_0-0_0
  6
CONTINUOUS
 62
    7
 10
943.79804016996775
 20
534.89739301419627
 40
22.925479888916019
 50
308.72918701171875
 51
16.079574584960937
  0
ARC
  8
_0-0_0
  6
CONTINUOUS
 62
    7
 10
124.15988375593557
 20
274.39952924466502
 40
882.95556640625011
 50
17.591033935546875
 51
20.163314819335938
  0
ARC
  8
_0-0_0
  6
CONTINUOUS
 62
    7
 10
962.71301199842833
 20
509.99373700833689
 40
8.3768329620361328
 50
123.07766723632812
 51
226.7042236328125
  0
ARC
  8
_0-0_0
  6
CONTINUOUS
 62
    7
 10
943.79804016996775
 20
934.81072309232127
 40
22.925479888916019
 50
343.92041015625006
 51
51.270797729492237
  0
ARC
  8
_0-0_0
  6
CONTINUOUS
 62
    7
 10
943.79804016996775
 20
1035.2942741177119
 40
22.925479888916019
 50
308.72918701171875
 51
16.079574584960937
  0
ARC
  8
_0-0_0
  6
CONTINUOUS
 62
    7
 10
933.03075720716856
 20
985.16208722806357
 40
30.643686294555668
 50
320.95736694335937
 51
38.632797241210959
  0
ARC
  8
_0-0_0
  6
CONTINUOUS
 62
    7
 10
960.97431303907786
 20
985.16208722806357
 40
30.643686294555668
 50
141.36718750000003
 51
219.04261779785159
  0
ARC
  8
_0-0_0
  6
CONTINUOUS
 62
    7
 10
1769.8451864903109
 20
774.79642560696971
 40
882.95556640625011
 50
159.836669921875
 51
162.40895080566406
  0
ARC
  8
_0-0_0
  6
CONTINUOUS
 62
    7
 10
950.20703007627867
 20
1035.2942741177119
 40
22.925479888916019
 50
163.92041015625
 51
231.27079772949222
  0
ARC
  8
_0-0_0
  6
CONTINUOUS
 62
    7
 10
124.15988375593557
 20
774.79642560696971
 40
882.95556640625011
 50
17.591033935546875
 51
20.163314819335938
  0
ARC
  8
_0-0_0
  6
CONTINUOUS
 62
    7
 10
931.29205824781809
 20
1010.3906181118526
 40
8.3768329620361328
 50
313.29576110839844
 51
56.922317504882841
  0
ARC
  8
_0-0_0
  6
CONTINUOUS
 62
    7
 10
962.71301199842833
 20
1010.3906181118526
 40
8.3768329620361328
 50
123.07766723632812
 51
226.7042236328125
  0
ARC
  8
_0-0_0
  6
CONTINUOUS
 62
    7
 10
950.20703007627867
 20
934.81072309232127
 40
22.925479888916019
 50
128.72918701171875
 51
196.07957458496094
  0
ARC
  8
_0-0_0
  6
CONTINUOUS
 62
    7
 10
1769.8451864903109
 20
1195.3085868618527
 40
882.95556640625011
 50
197.5910339355469
 51
200.16331481933597
  0
ARC
  8
_0-0_0
  6
CONTINUOUS
 62
    7
 10
124.15988375593557
 20
1195.3085868618527
 40
882.95556640625011
 50
339.83666992187506
 51
342.40895080566412
  0
ARC
  8
_0-0_0
  6
CONTINUOUS
 62
    7
 10
931.29205824781809
 20
959.71437909818064
 40
8.3768329620361328
 50
303.07766723632812
 51
46.704223632812514
  0
ARC
  8
_0-0_0
  6
CONTINUOUS
 62
    7
 10
962.71301199842833
 20
959.71437909818064
 40
8.3768329620361328
 50
133.29576110839847
 51
236.92231750488281
  0
ENDSEC
  0
EOF
