  0
SECTION
  2
HEADER
  9
$ACADVER
  1
AC1009
  9
$INSBASE
 10
0
 20
0
 30
0
  9
$EXTMIN
 10
0
 20
0
  9
$EXTMAX
 10
2100
 20
1485
  9
$LIMMIN
 10
0
 20
0
  9
$LIMMAX
 10
2100
 20
1485
  9
$LTSCALE
 40
5
  0
ENDSEC
  0
SECTION
  2
TABLES
  0
TABLE
  2
LTYPE
 70
     9
  0
LTYPE
  2
CONTINUOUS
 70
    64
  3
実線
 72
    65
 73
     0
 40
0.0
  0
LTYPE
  2
DASHED1
 70
    64
  3
--  --  --  --  --  --  --  --  
 72
    65
 73
     2
 40
2.5
 49
1.25
 49
-1.25
  0
LTYPE
  2
DASHED2
 70
    64
  3
----    ----    ----    ----    
 72
    65
 73
     2
 40
5.0
 49
2.5
 49
-2.5
  0
LTYPE
  2
DASHED3
 70
    64
  3
------  ------  ------  ------  
 72
    65
 73
     2
 40
5.0
 49
3.75
 49
-1.25
  0
LTYPE
  2
CENTER1
 70
    64
  3
----- - ----- - ----- - ----- - 
 72
    65
 73
     4
 40
10.0
 49
6.25
 49
-1.25
 49
1.25
 49
-1.25
  0
LTYPE
  2
CENTER2
 70
    64
  3
----------  --  ----------  --  
 72
    65
 73
     4
 40
20.0
 49
12.5
 49
-2.5
 49
2.5
 49
-2.5
  0
LTYPE
  2
PHANTOM1
 70
    64
  3
--- - - --- - - --- - - --- - - 
 72
    65
 73
     6
 40
10.0
 49
3.25
 49
-1.25
 49
1.25
 49
-1.25
 49
1.25
 49
-1.25
  0
LTYPE
  2
PHANTOM2
 70
    64
  3
--------  -  -  --------  -  -  
 72
    65
 73
     6
 40
20.0
 49
10.0
 49
-2.5
 49
1.25
 49
-2.5
 49
1.25
 49
-2.5
  0
LTYPE
  2
DOT
 70
    64
  3
-   -   -   -   -   -   -   -   
 72
    65
 73
     2
 40
2.5
 49
0.625
 49
-1.875
  0
LTYPE
  2
DUMMY
 70
    64
  3
ダミー
 72
    65
 73
     0
 40
0.0
  0
LTYPE
  2
RAND1
 70
    64
  3
ランダム線1
 72
    65
 73
     4
 40
10.0
 49
1.0
 49
-2.0
 49
3.0
 49
-4.0
  0
LTYPE
  2
RAND2
 70
    64
  3
ランダム線2
 72
    65
 73
     4
 40
14.0
 49
2.0
 49
-3.0
 49
4.0
 49
-5.0
  0
LTYPE
  2
RAND3
 70
    64
  3
ランダム線3
 72
    65
 73
     4
 40
18.0
 49
3.0
 49
-4.0
 49
5.0
 49
-6.0
  0
LTYPE
  2
RAND4
 70
    64
  3
ランダム線4
 72
    65
 73
     4
 40
22.0
 49
4.0
 49
-5.0
 49
6.0
 49
-7.0
  0
LTYPE
  2
RAND5
 70
    64
  3
ランダム線5
 72
    65
 73
     4
 40
26.0
 49
5.0
 49
-6.0
 49
7.0
 49
-8.0
  0
LTYPE
  2
LONG1
 70
    64
  3
----------  --  ----------  --  
 72
    65
 73
     4
 40
40.0
 49
32.5
 49
-2.5
 49
2.5
 49
-2.5
  0
LTYPE
  2
LONG2
 70
    64
  3
--------  -  -  --------  -  -  
 72
    65
 73
     6
 40
40.0
 49
30.0
 49
-2.5
 49
1.25
 49
-2.5
 49
1.25
 49
-2.5
  0
LTYPE
  2
LONG3
 70
    64
  3
+++++++++++++++..+++++++++++++++
 72
    65
 73
     2
 40
40.0
 49
37.5
 49
-2.5
  0
LTYPE
  2
LONG4
 70
    64
  3
+++++++++++++++..+++++++++++++++
 72
    65
 73
     2
 40
80.0
 49
75.0
 49
-5.0
  0
LTYPE
  2
LONG5
 70
    64
  3
----------  --  ----------  --  
 72
    65
 73
     4
 40
60.0
 49
37.5
 49
-7.5
 49
7.5
 49
-7.5
  0
LTYPE
  2
dashed
 70
   64
  3
-------   -------------   ------
 72
   65
 73
    2
 40
7.5
 49
6
 49
-1.5
  0
LTYPE
  2
dashed_spaced
 70
   64
  3
----        --------        ----
 72
   65
 73
    2
 40
12
 49
6
 49
-6
  0
LTYPE
  2
long_dashed_dotted
 70
   64
  3
------------- --- --------------
 72
   65
 73
    4
 40
15.25
 49
12
 49
-1.5
 49
0.25
 49
-1.5
  0
LTYPE
  2
long_dashed_double-dotted
 70
   64
  3
----------- --- --- ------------
 72
   65
 73
    6
 40
17
 49
12
 49
-1.5
 49
0.25
 49
-1.5
 49
0.25
 49
-1.5
  0
LTYPE
  2
long_dashed_triplicate-dotted
 70
   64
  3
--------- --- --- --- ----------
 72
   65
 73
    8
 40
18.75
 49
12
 49
-1.5
 49
0.25
 49
-1.5
 49
0.25
 49
-1.5
 49
0.25
 49
-1.5
  0
LTYPE
  2
dotted
 70
   64
  3
   -       -       -       -    
 72
   65
 73
    2
 40
1.75
 49
0.25
 49
-1.5
  0
LTYPE
  2
chain
 70
   64
  3
-------------- -- --------------
 72
   65
 73
    4
 40
18.5
 49
12
 49
-1.5
 49
3.5
 49
-1.5
  0
LTYPE
  2
chain_double_dash
 70
   64
  3
------------ -- -- -------------
 72
   65
 73
    6
 40
23.5
 49
12
 49
-1.5
 49
3.5
 49
-1.5
 49
3.5
 49
-1.5
  0
LTYPE
  2
dashed_dotted
 70
   64
  3
-----------     -     ----------
 72
   65
 73
    4
 40
9.25
 49
6
 49
-1.5
 49
0.25
 49
-1.5
  0
LTYPE
  2
double-dashed_dotted
 70
   64
  3
------   -----------   -   -----
 72
   65
 73
    6
 40
16.75
 49
6
 49
-1.5
 49
6
 49
-1.5
 49
0.25
 49
-1.5
  0
LTYPE
  2
dashed_double-dotted
 70
   64
  3
---------    -    -    ---------
 72
   65
 73
    6
 40
11
 49
6
 49
-1.5
 49
0.25
 49
-1.5
 49
0.25
 49
-1.5
  0
LTYPE
  2
double-dashed_double-dotted
 70
   64
  3
-----   ---------   -   -   ----
 72
   65
 73
    8
 40
18.5
 49
6
 49
-1.5
 49
6
 49
-1.5
 49
0.25
 49
-1.5
 49
0.25
 49
-1.5
  0
LTYPE
  2
dashed_triplicate-dotted
 70
   64
  3
-------    -    -    -    ------
 72
   65
 73
    8
 40
12.75
 49
6
 49
-1.5
 49
0.25
 49
-1.5
 49
0.25
 49
-1.5
 49
0.25
 49
-1.5
  0
LTYPE
  2
double-dashed_triplicate-dotted
 70
   64
  3
-----  ---------  -  -  -  -----
 72
   65
 73
   10
 40
20.25
 49
6
 49
-1.5
 49
6
 49
-1.5
 49
0.25
 49
-1.5
 49
0.25
 49
-1.5
 49
0.25
 49
-1.5
  0
LTYPE
  2
undefined
 70
   64
  3
--------------------------------
 72
   65
 73
    0
 40
0
  0
LTYPE
  2
BORDER
 70
   64
  3
----     --------     -     ----
 72
   65
 73
    6
 40
1.76
 49
0.5
 49
-0.25
 49
0.5
 49
-0.25
 49
0.01
 49
-0.25
  0
LTYPE
  2
BORDER2
 70
   64
  3
----     --------     -     ----
 72
   65
 73
    6
 40
0.885
 49
0.25
 49
-0.125
 49
0.25
 49
-0.125
 49
0.01
 49
-0.125
  0
LTYPE
  2
BORDERX2
 70
   64
  3
----     --------     -     ----
 72
   65
 73
    6
 40
3.5099999999999998
 49
1
 49
-0.5
 49
1
 49
-0.5
 49
0.01
 49
-0.5
  0
LTYPE
  2
CENTER
 70
   64
  3
----------    ----    ----------
 72
   65
 73
    4
 40
2
 49
1.25
 49
-0.25
 49
0.25
 49
-0.25
  0
LTYPE
  2
CENTER2_21
 70
   64
  3
----------    ----    ----------
 72
   65
 73
    4
 40
1.125
 49
0.75
 49
-0.125
 49
0.125
 49
-0.125
  0
LTYPE
  2
CENTERX2
 70
   64
  3
----------    ----    ----------
 72
   65
 73
    4
 40
4
 49
2.5
 49
-0.5
 49
0.5
 49
-0.5
  0
LTYPE
  2
DASHDOT
 70
   64
  3
--------        -        -------
 72
   65
 73
    4
 40
1.01
 49
0.5
 49
-0.25
 49
0.01
 49
-0.25
  0
LTYPE
  2
DASHDOT2
 70
   64
  3
--------        -        -------
 72
   65
 73
    4
 40
0.51
 49
0.25
 49
-0.125
 49
0.01
 49
-0.125
  0
LTYPE
  2
DASHDOTX2
 70
   64
  3
--------        -        -------
 72
   65
 73
    4
 40
2.0099999999999998
 49
1
 49
-0.5
 49
0.01
 49
-0.5
  0
LTYPE
  2
DASHED
 70
   64
  3
------     -----------     -----
 72
   65
 73
    2
 40
0.75
 49
0.5
 49
-0.25
  0
LTYPE
  2
DASHED2_27
 70
   64
  3
------     -----------     -----
 72
   65
 73
    2
 40
0.375
 49
0.25
 49
-0.125
  0
LTYPE
  2
DASHEDX2
 70
   64
  3
------     -----------     -----
 72
   65
 73
    2
 40
1.5
 49
1
 49
-0.5
  0
LTYPE
  2
DIVIDE
 70
   64
  3
------      -      -      ------
 72
   65
 73
    6
 40
1.27
 49
0.5
 49
-0.25
 49
0.01
 49
-0.25
 49
0.01
 49
-0.25
  0
LTYPE
  2
DIVIDE2
 70
   64
  3
------      -      -      ------
 72
   65
 73
    6
 40
0.645
 49
0.25
 49
-0.125
 49
0.01
 49
-0.125
 49
0.01
 49
-0.125
  0
LTYPE
  2
DIVIDEX2
 70
   64
  3
------      -      -      ------
 72
   65
 73
    6
 40
2.5199999999999996
 49
1
 49
-0.5
 49
0.01
 49
-0.5
 49
0.01
 49
-0.5
  0
LTYPE
  2
DOT_32
 70
   64
  3
-               -               
 72
   65
 73
    2
 40
0.26
 49
0.01
 49
-0.25
  0
ENDTAB
  0
TABLE
  2
STYLE
  5
3
100
AcDbSymbolTable
 70
     1
  0
STYLE
  5
10
100
AcDbSymbolTableRecord
100
AcDbTextStyleTableRecord
  2
STANDARD
 70
     0
 40
0.0
 41
1.0
 50
0.0
 71
     0
 42
0.2
  3
txt
  4
bigfont.shx
  0
STYLE
  5
26
100
AcDbSymbolTableRecord
100
AcDbTextStyleTableRecord
  2
TATEGAKI
 70
    68
 40
0.0
 41
1.0
 50
0.0
 71
     0
 42
1.0
  3
txt
  4
bigfont.shx
  0
ENDTAB
  0
TABLE
  2
LAYER
 70
    3
  0
LAYER
  2
_0-4_P-6853
 70
   64
 62
    7
  6
CONTINUOUS
  0
LAYER
  2
_0-6_P-0001
 70
   64
 62
    7
  6
CONTINUOUS
  0
LAYER
  2
ADD_LINE
 70
   64
 62
    7
  6
CONTINUOUS
  0
ENDTAB
  0
ENDSEC
  0
SECTION
  2
BLOCKS
  0
ENDSEC
  0
SECTION
  2
ENTITIES
  0
LINE
  8
_0-6_P-0001
  6
CONTINUOUS
 62
    7
 10
1062.6843794491283
 20
540.63498658964716
 11
1028.1402235718442
 21
575.17914246693124
  0
ARC
  8
_0-6_P-0001
  6
CONTINUOUS
 62
    7
 10
1045.4643397109144
 20
592.50325860600174
 40
24.5
 50
135.00000000000662
 51
224.99999999999343
  0
ARC
  8
_0-6_P-0001
  6
CONTINUOUS
 62
    7
 10
1054.5526514654828
 20
532.50325860600185
 40
11.500000000000002
 50
315.00000000000659
 51
44.999999999993435
  0
LINE
  8
_0-6_P-0001
  6
CONTINUOUS
 62
    7
 10
1028.1402235718442
 20
609.82737474507223
 11
1062.6843794491283
 21
644.37153062235654
  0
LINE
  8
_0-6_P-0001
  6
CONTINUOUS
 62
    7
 10
1028.1402235718438
 20
489.82737474507218
 11
1062.6843794491283
 21
524.37153062235654
  0
ARC
  8
_0-6_P-0001
  6
CONTINUOUS
 62
    7
 10
1054.5526514654828
 20
652.50325860600185
 40
11.500000000000002
 50
315.00000000000659
 51
44.999999999993435
  0
ARC
  8
_0-6_P-0001
  6
CONTINUOUS
 62
    7
 10
1045.4643397109144
 20
472.50325860600185
 40
24.5
 50
135.00000000000662
 51
224.99999999999343
  0
LINE
  8
_0-6_P-0001
  6
CONTINUOUS
 62
    7
 10
1028.1402235718438
 20
455.17914246693135
 11
1033.110786320321
 21
450.20857971845402
  0
ARC
  8
_0-6_P-0001
  6
CONTINUOUS
 62
    7
 10
1008.0084955881987
 20
425.10628898633172
 40
35.5
 50
0
 51
44.999999999993378
  0
LINE
  8
_0-6_P-0001
  6
CONTINUOUS
 62
    7
 10
1043.5084955881987
 20
425.10628898633161
 11
1043.5084955881982
 21
242.50325860600191
  0
LINE
  8
_0-6_P-0001
  6
CONTINUOUS
 62
    7
 10
1071.8767676045534
 20
549.82737474507212
 11
1037.3326117272691
 21
584.37153062235654
  0
ARC
  8
_0-6_P-0001
  6
CONTINUOUS
 62
    7
 10
1054.5526514654828
 20
532.50325860600185
 40
24.5
 50
315.00000000000659
 51
44.999999999993435
  0
ARC
  8
_0-6_P-0001
  6
CONTINUOUS
 62
    7
 10
1045.4643397109144
 20
592.50325860600174
 40
11.500000000000002
 50
135.00000000000662
 51
224.99999999999343
  0
LINE
  8
_0-6_P-0001
  6
CONTINUOUS
 62
    7
 10
1037.3326117272691
 20
480.63498658964716
 11
1071.8767676045534
 21
515.17914246693135
  0
LINE
  8
_0-6_P-0001
  6
CONTINUOUS
 62
    7
 10
1037.3326117272691
 20
600.63498658964704
 11
1071.8767676045534
 21
635.17914246693147
  0
ARC
  8
_0-6_P-0001
  6
CONTINUOUS
 62
    7
 10
1045.4643397109144
 20
472.50325860600185
 40
11.500000000000002
 50
135.00000000000662
 51
224.99999999999343
  0
ARC
  8
_0-6_P-0001
  6
CONTINUOUS
 62
    7
 10
1054.5526514654828
 20
652.50325860600185
 40
24.5
 50
315.00000000000659
 51
44.999999999993435
  0
LINE
  8
_0-6_P-0001
  6
CONTINUOUS
 62
    7
 10
1037.3326117272691
 20
464.37153062235654
 11
1042.3031744757463
 21
459.40096787387915
  0
ARC
  8
_0-6_P-0001
  6
CONTINUOUS
 62
    7
 10
1008.0084955881987
 20
425.10628898633172
 40
48.500000000000007
 50
0
 51
44.999999999993378
  0
LINE
  8
_0-6_P-0001
  6
CONTINUOUS
 62
    7
 10
1056.5084955881985
 20
425.10628898633161
 11
1056.5084955881985
 21
242.50325860600191
  0
LINE
  8
_0-6_P-0001
  6
CONTINUOUS
 62
    7
 10
1071.8767676045536
 20
669.82737474507201
 11
1037.3326117272695
 21
704.37153062235643
  0
LINE
  8
_0-6_P-0001
  6
CONTINUOUS
 62
    7
 10
1062.6843794491285
 20
660.63498658964704
 11
1028.1402235718442
 21
695.17914246693124
  0
LINE
  8
_0-6_P-0001
  6
CONTINUOUS
 62
    7
 10
1028.1402235718442
 20
729.82737474507201
 11
1062.6843794491285
 21
764.37153062235643
  0
LINE
  8
_0-6_P-0001
  6
CONTINUOUS
 62
    7
 10
1037.3326117272695
 20
720.63498658964693
 11
1071.8767676045536
 21
755.17914246693135
  0
ARC
  8
_0-6_P-0001
  6
CONTINUOUS
 62
    7
 10
1045.4643397109148
 20
712.50325860600151
 40
24.5
 50
135.00000000000662
 51
224.99999999999343
  0
ARC
  8
_0-6_P-0001
  6
CONTINUOUS
 62
    7
 10
1045.4643397109148
 20
712.50325860600151
 40
11.500000000000002
 50
135.00000000000662
 51
224.99999999999343
  0
ARC
  8
_0-6_P-0001
  6
CONTINUOUS
 62
    7
 10
1054.5526514654832
 20
772.50325860600174
 40
24.5
 50
315.00000000000659
 51
44.999999999993435
  0
ARC
  8
_0-6_P-0001
  6
CONTINUOUS
 62
    7
 10
1054.5526514654832
 20
772.50325860600174
 40
11.500000000000002
 50
315.00000000000659
 51
44.999999999993435
  0
ARC
  8
_0-6_P-0001
  6
CONTINUOUS
 62
    7
 10
1045.4643397109153
 20
952.50325860600128
 40
24.5
 50
135.00000000000662
 51
224.99999999999343
  0
LINE
  8
_0-6_P-0001
  6
CONTINUOUS
 62
    7
 10
1071.8767676045541
 20
909.82737474507189
 11
1037.3326117272698
 21
944.37153062235609
  0
ARC
  8
_0-6_P-0001
  6
CONTINUOUS
 62
    7
 10
1054.5526514654835
 20
892.50325860600151
 40
24.5
 50
315.00000000000659
 51
44.999999999993435
  0
ARC
  8
_0-6_P-0001
  6
CONTINUOUS
 62
    7
 10
1054.5526514654835
 20
892.50325860600151
 40
11.500000000000002
 50
315.00000000000659
 51
44.999999999993435
  0
LINE
  8
_0-6_P-0001
  6
CONTINUOUS
 62
    7
 10
1062.684379449129
 20
900.63498658964681
 11
1028.1402235718447
 21
935.1791424669309
  0
ARC
  8
_0-6_P-0001
  6
CONTINUOUS
 62
    7
 10
1054.5526514654837
 20
1012.5032586060013
 40
11.500000000000002
 50
315.00000000000659
 51
44.999999999993435
  0
ARC
  8
_0-6_P-0001
  6
CONTINUOUS
 62
    7
 10
1054.5526514654837
 20
1012.5032586060013
 40
24.5
 50
315.00000000000659
 51
44.999999999993435
  0
LINE
  8
_0-6_P-0001
  6
CONTINUOUS
 62
    7
 10
1037.3326117272698
 20
960.63498658964659
 11
1071.8767676045541
 21
995.17914246693113
  0
LINE
  8
_0-6_P-0001
  6
CONTINUOUS
 62
    7
 10
1028.1402235718447
 20
969.82737474507167
 11
1062.684379449129
 21
1004.3715306223561
  0
ARC
  8
_0-6_P-0001
  6
CONTINUOUS
 62
    7
 10
1045.4643397109153
 20
952.50325860600128
 40
11.500000000000002
 50
135.00000000000662
 51
224.99999999999343
  0
ARC
  8
_0-6_P-0001
  6
CONTINUOUS
 62
    7
 10
1092.0084955881994
 20
1059.9002282256715
 40
35.5
 50
180
 51
224.99999999999341
  0
LINE
  8
_0-6_P-0001
  6
CONTINUOUS
 62
    7
 10
1071.8767676045541
 20
1029.8273747450719
 11
1066.9062048560768
 21
1034.7979374935492
  0
ARC
  8
_0-6_P-0001
  6
CONTINUOUS
 62
    7
 10
1092.0084955881994
 20
1059.9002282256715
 40
48.500000000000007
 50
180
 51
224.99999999999341
  0
LINE
  8
_0-6_P-0001
  6
CONTINUOUS
 62
    7
 10
1062.684379449129
 20
1020.6349865896468
 11
1057.7138167006517
 21
1025.6055493381241
  0
LINE
  8
_0-6_P-0001
  6
CONTINUOUS
 62
    7
 10
1071.8767676045538
 20
789.82737474507189
 11
1037.3326117272695
 21
824.37153062235643
  0
LINE
  8
_0-6_P-0001
  6
CONTINUOUS
 62
    7
 10
1062.6843794491288
 20
780.63498658964681
 11
1028.1402235718447
 21
815.1791424669309
  0
LINE
  8
_0-6_P-0001
  6
CONTINUOUS
 62
    7
 10
1028.1402235718447
 20
849.82737474507201
 11
1062.6843794491288
 21
884.3715306223562
  0
LINE
  8
_0-6_P-0001
  6
CONTINUOUS
 62
    7
 10
1037.3326117272695
 20
840.63498658964681
 11
1071.8767676045538
 21
875.17914246693113
  0
ARC
  8
_0-6_P-0001
  6
CONTINUOUS
 62
    7
 10
1045.4643397109148
 20
832.50325860600151
 40
24.5
 50
135.00000000000662
 51
224.99999999999343
  0
ARC
  8
_0-6_P-0001
  6
CONTINUOUS
 62
    7
 10
1045.4643397109148
 20
832.50325860600151
 40
11.500000000000002
 50
135.00000000000662
 51
224.99999999999343
  0
LINE
  8
_0-6_P-0001
  6
CONTINUOUS
 62
    7
 10
1056.5084955881985
 20
1059.9002282256715
 11
1056.5084955881987
 21
1242.503258606002
  0
LINE
  8
_0-6_P-0001
  6
CONTINUOUS
 62
    7
 10
1043.5084955881987
 20
1059.9002282256715
 11
1043.5084955881985
 21
1242.503258606002
  0
LINE
  8
_0-4_P-6853
  6
CONTINUOUS
 62
    7
 10
1043.5084955881985
 20
1242.503258606002
 11
1056.5084955881987
 21
1242.503258606002
  0
LINE
  8
_0-4_P-6853
  6
CONTINUOUS
 62
    7
 10
1056.5084955881985
 20
242.50325860600191
 11
1043.5084955881982
 21
242.50325860600191
  0
ENDSEC
  0
EOF
