  0
SECTION
  2
HEADER
  9
$ACADVER
  1
AC1009
  9
$INSBASE
 10
0
 20
0
 30
0
  9
$EXTMIN
 10
0
 20
0
  9
$EXTMAX
 10
2100
 20
1485
  9
$LIMMIN
 10
0
 20
0
  9
$LIMMAX
 10
2100
 20
1485
  9
$LTSCALE
 40
5
  0
ENDSEC
  0
SECTION
  2
TABLES
  0
TABLE
  2
LTYPE
 70
     9
  0
LTYPE
  2
CONTINUOUS
 70
    64
  3
実線
 72
    65
 73
     0
 40
0.0
  0
LTYPE
  2
DASHED1
 70
    64
  3
--  --  --  --  --  --  --  --  
 72
    65
 73
     2
 40
2.5
 49
1.25
 49
-1.25
  0
LTYPE
  2
DASHED2
 70
    64
  3
----    ----    ----    ----    
 72
    65
 73
     2
 40
5.0
 49
2.5
 49
-2.5
  0
LTYPE
  2
DASHED3
 70
    64
  3
------  ------  ------  ------  
 72
    65
 73
     2
 40
5.0
 49
3.75
 49
-1.25
  0
LTYPE
  2
CENTER1
 70
    64
  3
----- - ----- - ----- - ----- - 
 72
    65
 73
     4
 40
10.0
 49
6.25
 49
-1.25
 49
1.25
 49
-1.25
  0
LTYPE
  2
CENTER2
 70
    64
  3
----------  --  ----------  --  
 72
    65
 73
     4
 40
20.0
 49
12.5
 49
-2.5
 49
2.5
 49
-2.5
  0
LTYPE
  2
PHANTOM1
 70
    64
  3
--- - - --- - - --- - - --- - - 
 72
    65
 73
     6
 40
10.0
 49
3.25
 49
-1.25
 49
1.25
 49
-1.25
 49
1.25
 49
-1.25
  0
LTYPE
  2
PHANTOM2
 70
    64
  3
--------  -  -  --------  -  -  
 72
    65
 73
     6
 40
20.0
 49
10.0
 49
-2.5
 49
1.25
 49
-2.5
 49
1.25
 49
-2.5
  0
LTYPE
  2
DOT
 70
    64
  3
-   -   -   -   -   -   -   -   
 72
    65
 73
     2
 40
2.5
 49
0.625
 49
-1.875
  0
LTYPE
  2
DUMMY
 70
    64
  3
ダミー
 72
    65
 73
     0
 40
0.0
  0
LTYPE
  2
RAND1
 70
    64
  3
ランダム線1
 72
    65
 73
     4
 40
10.0
 49
1.0
 49
-2.0
 49
3.0
 49
-4.0
  0
LTYPE
  2
RAND2
 70
    64
  3
ランダム線2
 72
    65
 73
     4
 40
14.0
 49
2.0
 49
-3.0
 49
4.0
 49
-5.0
  0
LTYPE
  2
RAND3
 70
    64
  3
ランダム線3
 72
    65
 73
     4
 40
18.0
 49
3.0
 49
-4.0
 49
5.0
 49
-6.0
  0
LTYPE
  2
RAND4
 70
    64
  3
ランダム線4
 72
    65
 73
     4
 40
22.0
 49
4.0
 49
-5.0
 49
6.0
 49
-7.0
  0
LTYPE
  2
RAND5
 70
    64
  3
ランダム線5
 72
    65
 73
     4
 40
26.0
 49
5.0
 49
-6.0
 49
7.0
 49
-8.0
  0
LTYPE
  2
LONG1
 70
    64
  3
----------  --  ----------  --  
 72
    65
 73
     4
 40
40.0
 49
32.5
 49
-2.5
 49
2.5
 49
-2.5
  0
LTYPE
  2
LONG2
 70
    64
  3
--------  -  -  --------  -  -  
 72
    65
 73
     6
 40
40.0
 49
30.0
 49
-2.5
 49
1.25
 49
-2.5
 49
1.25
 49
-2.5
  0
LTYPE
  2
LONG3
 70
    64
  3
+++++++++++++++..+++++++++++++++
 72
    65
 73
     2
 40
40.0
 49
37.5
 49
-2.5
  0
LTYPE
  2
LONG4
 70
    64
  3
+++++++++++++++..+++++++++++++++
 72
    65
 73
     2
 40
80.0
 49
75.0
 49
-5.0
  0
LTYPE
  2
LONG5
 70
    64
  3
----------  --  ----------  --  
 72
    65
 73
     4
 40
60.0
 49
37.5
 49
-7.5
 49
7.5
 49
-7.5
  0
LTYPE
  2
dashed
 70
   64
  3
-------   -------------   ------
 72
   65
 73
    2
 40
7.5
 49
6
 49
-1.5
  0
LTYPE
  2
dashed_spaced
 70
   64
  3
----        --------        ----
 72
   65
 73
    2
 40
12
 49
6
 49
-6
  0
LTYPE
  2
long_dashed_dotted
 70
   64
  3
------------- --- --------------
 72
   65
 73
    4
 40
15.25
 49
12
 49
-1.5
 49
0.25
 49
-1.5
  0
LTYPE
  2
long_dashed_double-dotted
 70
   64
  3
----------- --- --- ------------
 72
   65
 73
    6
 40
17
 49
12
 49
-1.5
 49
0.25
 49
-1.5
 49
0.25
 49
-1.5
  0
LTYPE
  2
long_dashed_triplicate-dotted
 70
   64
  3
--------- --- --- --- ----------
 72
   65
 73
    8
 40
18.75
 49
12
 49
-1.5
 49
0.25
 49
-1.5
 49
0.25
 49
-1.5
 49
0.25
 49
-1.5
  0
LTYPE
  2
dotted
 70
   64
  3
   -       -       -       -    
 72
   65
 73
    2
 40
1.75
 49
0.25
 49
-1.5
  0
LTYPE
  2
chain
 70
   64
  3
-------------- -- --------------
 72
   65
 73
    4
 40
18.5
 49
12
 49
-1.5
 49
3.5
 49
-1.5
  0
LTYPE
  2
chain_double_dash
 70
   64
  3
------------ -- -- -------------
 72
   65
 73
    6
 40
23.5
 49
12
 49
-1.5
 49
3.5
 49
-1.5
 49
3.5
 49
-1.5
  0
LTYPE
  2
dashed_dotted
 70
   64
  3
-----------     -     ----------
 72
   65
 73
    4
 40
9.25
 49
6
 49
-1.5
 49
0.25
 49
-1.5
  0
LTYPE
  2
double-dashed_dotted
 70
   64
  3
------   -----------   -   -----
 72
   65
 73
    6
 40
16.75
 49
6
 49
-1.5
 49
6
 49
-1.5
 49
0.25
 49
-1.5
  0
LTYPE
  2
dashed_double-dotted
 70
   64
  3
---------    -    -    ---------
 72
   65
 73
    6
 40
11
 49
6
 49
-1.5
 49
0.25
 49
-1.5
 49
0.25
 49
-1.5
  0
LTYPE
  2
double-dashed_double-dotted
 70
   64
  3
-----   ---------   -   -   ----
 72
   65
 73
    8
 40
18.5
 49
6
 49
-1.5
 49
6
 49
-1.5
 49
0.25
 49
-1.5
 49
0.25
 49
-1.5
  0
LTYPE
  2
dashed_triplicate-dotted
 70
   64
  3
-------    -    -    -    ------
 72
   65
 73
    8
 40
12.75
 49
6
 49
-1.5
 49
0.25
 49
-1.5
 49
0.25
 49
-1.5
 49
0.25
 49
-1.5
  0
LTYPE
  2
double-dashed_triplicate-dotted
 70
   64
  3
-----  ---------  -  -  -  -----
 72
   65
 73
   10
 40
20.25
 49
6
 49
-1.5
 49
6
 49
-1.5
 49
0.25
 49
-1.5
 49
0.25
 49
-1.5
 49
0.25
 49
-1.5
  0
LTYPE
  2
undefined
 70
   64
  3
--------------------------------
 72
   65
 73
    0
 40
0
  0
LTYPE
  2
BORDER
 70
   64
  3
----     --------     -     ----
 72
   65
 73
    6
 40
1.76
 49
0.5
 49
-0.25
 49
0.5
 49
-0.25
 49
0.01
 49
-0.25
  0
LTYPE
  2
BORDER2
 70
   64
  3
----     --------     -     ----
 72
   65
 73
    6
 40
0.885
 49
0.25
 49
-0.125
 49
0.25
 49
-0.125
 49
0.01
 49
-0.125
  0
LTYPE
  2
BORDERX2
 70
   64
  3
----     --------     -     ----
 72
   65
 73
    6
 40
3.5099999999999998
 49
1
 49
-0.5
 49
1
 49
-0.5
 49
0.01
 49
-0.5
  0
LTYPE
  2
CENTER
 70
   64
  3
----------    ----    ----------
 72
   65
 73
    4
 40
2
 49
1.25
 49
-0.25
 49
0.25
 49
-0.25
  0
LTYPE
  2
CENTER2_21
 70
   64
  3
----------    ----    ----------
 72
   65
 73
    4
 40
1.125
 49
0.75
 49
-0.125
 49
0.125
 49
-0.125
  0
LTYPE
  2
CENTERX2
 70
   64
  3
----------    ----    ----------
 72
   65
 73
    4
 40
4
 49
2.5
 49
-0.5
 49
0.5
 49
-0.5
  0
LTYPE
  2
DASHDOT
 70
   64
  3
--------        -        -------
 72
   65
 73
    4
 40
1.01
 49
0.5
 49
-0.25
 49
0.01
 49
-0.25
  0
LTYPE
  2
DASHDOT2
 70
   64
  3
--------        -        -------
 72
   65
 73
    4
 40
0.51
 49
0.25
 49
-0.125
 49
0.01
 49
-0.125
  0
LTYPE
  2
DASHDOTX2
 70
   64
  3
--------        -        -------
 72
   65
 73
    4
 40
2.0099999999999998
 49
1
 49
-0.5
 49
0.01
 49
-0.5
  0
LTYPE
  2
DASHED
 70
   64
  3
------     -----------     -----
 72
   65
 73
    2
 40
0.75
 49
0.5
 49
-0.25
  0
LTYPE
  2
DASHED2_27
 70
   64
  3
------     -----------     -----
 72
   65
 73
    2
 40
0.375
 49
0.25
 49
-0.125
  0
LTYPE
  2
DASHEDX2
 70
   64
  3
------     -----------     -----
 72
   65
 73
    2
 40
1.5
 49
1
 49
-0.5
  0
LTYPE
  2
DIVIDE
 70
   64
  3
------      -      -      ------
 72
   65
 73
    6
 40
1.27
 49
0.5
 49
-0.25
 49
0.01
 49
-0.25
 49
0.01
 49
-0.25
  0
LTYPE
  2
DIVIDE2
 70
   64
  3
------      -      -      ------
 72
   65
 73
    6
 40
0.645
 49
0.25
 49
-0.125
 49
0.01
 49
-0.125
 49
0.01
 49
-0.125
  0
LTYPE
  2
DIVIDEX2
 70
   64
  3
------      -      -      ------
 72
   65
 73
    6
 40
2.5199999999999996
 49
1
 49
-0.5
 49
0.01
 49
-0.5
 49
0.01
 49
-0.5
  0
LTYPE
  2
DOT_32
 70
   64
  3
-               -               
 72
   65
 73
    2
 40
0.26
 49
0.01
 49
-0.25
  0
ENDTAB
  0
TABLE
  2
STYLE
  5
3
100
AcDbSymbolTable
 70
     1
  0
STYLE
  5
10
100
AcDbSymbolTableRecord
100
AcDbTextStyleTableRecord
  2
STANDARD
 70
     0
 40
0.0
 41
1.0
 50
0.0
 71
     0
 42
0.2
  3
txt
  4
bigfont.shx
  0
STYLE
  5
26
100
AcDbSymbolTableRecord
100
AcDbTextStyleTableRecord
  2
TATEGAKI
 70
    68
 40
0.0
 41
1.0
 50
0.0
 71
     0
 42
1.0
  3
txt
  4
bigfont.shx
  0
ENDTAB
  0
TABLE
  2
LAYER
 70
    3
  0
LAYER
  2
_0-4_P-6853
 70
   64
 62
    7
  6
CONTINUOUS
  0
LAYER
  2
_0-6_P-0001
 70
   64
 62
    7
  6
CONTINUOUS
  0
LAYER
  2
ADD_LINE
 70
   64
 62
    7
  6
CONTINUOUS
  0
ENDTAB
  0
ENDSEC
  0
SECTION
  2
BLOCKS
  0
ENDSEC
  0
SECTION
  2
ENTITIES
  0
LINE
  8
_0-6_P-0001
  6
CONTINUOUS
 62
    7
 10
1062.6758838609292
 20
540.63172798364531
 11
1028.1317279836453
 21
575.17588386092939
  0
ARC
  8
_0-6_P-0001
  6
CONTINUOUS
 62
    7
 10
1045.4558441227155
 20
592.49999999999989
 40
24.5
 50
135.00000000000662
 51
224.99999999999343
  0
ARC
  8
_0-6_P-0001
  6
CONTINUOUS
 62
    7
 10
1054.5441558772839
 20
532.5
 40
11.500000000000002
 50
315.00000000000659
 51
44.999999999993435
  0
LINE
  8
_0-6_P-0001
  6
CONTINUOUS
 62
    7
 10
1028.1317279836453
 20
609.82411613907038
 11
1062.6758838609292
 21
644.36827201635469
  0
LINE
  8
_0-6_P-0001
  6
CONTINUOUS
 62
    7
 10
1028.1317279836449
 20
489.82411613907033
 11
1062.6758838609292
 21
524.36827201635469
  0
ARC
  8
_0-6_P-0001
  6
CONTINUOUS
 62
    7
 10
1054.5441558772839
 20
652.5
 40
11.500000000000002
 50
315.00000000000659
 51
44.999999999993435
  0
ARC
  8
_0-6_P-0001
  6
CONTINUOUS
 62
    7
 10
1045.4558441227152
 20
472.5
 40
24.5
 50
135.00000000000662
 51
224.99999999999343
  0
LINE
  8
_0-6_P-0001
  6
CONTINUOUS
 62
    7
 10
1028.1317279836449
 20
455.1758838609295
 11
1033.1022907321221
 21
450.20532111245217
  0
ARC
  8
_0-6_P-0001
  6
CONTINUOUS
 62
    7
 10
1007.9999999999997
 20
425.10303038032987
 40
35.5
 50
0
 51
44.999999999993378
  0
LINE
  8
_0-6_P-0001
  6
CONTINUOUS
 62
    7
 10
1043.4999999999995
 20
425.10303038032976
 11
1043.4999999999991
 21
242.50000000000006
  0
LINE
  8
_0-6_P-0001
  6
CONTINUOUS
 62
    7
 10
1071.8682720163545
 20
549.82411613907038
 11
1037.3241161390702
 21
584.36827201635469
  0
ARC
  8
_0-6_P-0001
  6
CONTINUOUS
 62
    7
 10
1054.5441558772839
 20
532.5
 40
24.5
 50
315.00000000000659
 51
44.999999999993435
  0
ARC
  8
_0-6_P-0001
  6
CONTINUOUS
 62
    7
 10
1045.4558441227155
 20
592.49999999999989
 40
11.500000000000002
 50
135.00000000000662
 51
224.99999999999343
  0
LINE
  8
_0-6_P-0001
  6
CONTINUOUS
 62
    7
 10
1037.3241161390702
 20
480.63172798364531
 11
1071.8682720163542
 21
515.1758838609295
  0
LINE
  8
_0-6_P-0001
  6
CONTINUOUS
 62
    7
 10
1037.3241161390702
 20
600.63172798364519
 11
1071.8682720163542
 21
635.17588386092962
  0
ARC
  8
_0-6_P-0001
  6
CONTINUOUS
 62
    7
 10
1045.4558441227152
 20
472.5
 40
11.500000000000002
 50
135.00000000000662
 51
224.99999999999343
  0
ARC
  8
_0-6_P-0001
  6
CONTINUOUS
 62
    7
 10
1054.5441558772839
 20
652.5
 40
24.5
 50
315.00000000000659
 51
44.999999999993435
  0
LINE
  8
_0-6_P-0001
  6
CONTINUOUS
 62
    7
 10
1037.3241161390702
 20
464.36827201635469
 11
1042.2946788875472
 21
459.3977092678773
  0
ARC
  8
_0-6_P-0001
  6
CONTINUOUS
 62
    7
 10
1007.9999999999997
 20
425.10303038032987
 40
48.500000000000007
 50
0
 51
44.999999999993378
  0
LINE
  8
_0-6_P-0001
  6
CONTINUOUS
 62
    7
 10
1056.4999999999995
 20
425.10303038032976
 11
1056.4999999999995
 21
242.50000000000006
  0
LINE
  8
_0-6_P-0001
  6
CONTINUOUS
 62
    7
 10
1071.8682720163545
 20
669.82411613907016
 11
1037.3241161390704
 21
704.36827201635447
  0
LINE
  8
_0-6_P-0001
  6
CONTINUOUS
 62
    7
 10
1062.6758838609294
 20
660.63172798364519
 11
1028.1317279836453
 21
695.17588386092939
  0
LINE
  8
_0-6_P-0001
  6
CONTINUOUS
 62
    7
 10
1028.1317279836453
 20
729.82411613907016
 11
1062.6758838609294
 21
764.36827201635447
  0
LINE
  8
_0-6_P-0001
  6
CONTINUOUS
 62
    7
 10
1037.3241161390704
 20
720.63172798364508
 11
1071.8682720163545
 21
755.1758838609295
  0
ARC
  8
_0-6_P-0001
  6
CONTINUOUS
 62
    7
 10
1045.4558441227157
 20
712.49999999999977
 40
24.5
 50
135.00000000000662
 51
224.99999999999343
  0
ARC
  8
_0-6_P-0001
  6
CONTINUOUS
 62
    7
 10
1045.4558441227157
 20
712.49999999999977
 40
11.500000000000002
 50
135.00000000000662
 51
224.99999999999343
  0
ARC
  8
_0-6_P-0001
  6
CONTINUOUS
 62
    7
 10
1054.5441558772841
 20
772.49999999999989
 40
24.5
 50
315.00000000000659
 51
44.999999999993435
  0
ARC
  8
_0-6_P-0001
  6
CONTINUOUS
 62
    7
 10
1054.5441558772841
 20
772.49999999999989
 40
11.500000000000002
 50
315.00000000000659
 51
44.999999999993435
  0
ARC
  8
_0-6_P-0001
  6
CONTINUOUS
 62
    7
 10
1045.4558441227161
 20
952.49999999999943
 40
24.5
 50
135.00000000000662
 51
224.99999999999343
  0
LINE
  8
_0-6_P-0001
  6
CONTINUOUS
 62
    7
 10
1071.8682720163549
 20
909.82411613906993
 11
1037.3241161390708
 21
944.36827201635424
  0
ARC
  8
_0-6_P-0001
  6
CONTINUOUS
 62
    7
 10
1054.5441558772845
 20
892.49999999999977
 40
24.5
 50
315.00000000000659
 51
44.999999999993435
  0
ARC
  8
_0-6_P-0001
  6
CONTINUOUS
 62
    7
 10
1054.5441558772845
 20
892.49999999999977
 40
11.500000000000002
 50
315.00000000000659
 51
44.999999999993435
  0
LINE
  8
_0-6_P-0001
  6
CONTINUOUS
 62
    7
 10
1062.6758838609298
 20
900.63172798364474
 11
1028.1317279836455
 21
935.17588386092916
  0
ARC
  8
_0-6_P-0001
  6
CONTINUOUS
 62
    7
 10
1054.5441558772845
 20
1012.4999999999994
 40
11.500000000000002
 50
315.00000000000659
 51
44.999999999993435
  0
ARC
  8
_0-6_P-0001
  6
CONTINUOUS
 62
    7
 10
1054.5441558772845
 20
1012.4999999999994
 40
24.5
 50
315.00000000000659
 51
44.999999999993435
  0
LINE
  8
_0-6_P-0001
  6
CONTINUOUS
 62
    7
 10
1037.3241161390708
 20
960.63172798364474
 11
1071.8682720163549
 21
995.17588386092916
  0
LINE
  8
_0-6_P-0001
  6
CONTINUOUS
 62
    7
 10
1028.1317279836455
 20
969.8241161390697
 11
1062.6758838609298
 21
1004.3682720163542
  0
ARC
  8
_0-6_P-0001
  6
CONTINUOUS
 62
    7
 10
1045.4558441227161
 20
952.49999999999943
 40
11.500000000000002
 50
135.00000000000662
 51
224.99999999999343
  0
ARC
  8
_0-6_P-0001
  6
CONTINUOUS
 62
    7
 10
1092.0000000000002
 20
1059.8969696196696
 40
35.5
 50
180
 51
224.99999999999341
  0
LINE
  8
_0-6_P-0001
  6
CONTINUOUS
 62
    7
 10
1071.8682720163549
 20
1029.8241161390702
 11
1066.8977092678776
 21
1034.7946788875474
  0
ARC
  8
_0-6_P-0001
  6
CONTINUOUS
 62
    7
 10
1092.0000000000002
 20
1059.8969696196696
 40
48.500000000000007
 50
180
 51
224.99999999999341
  0
LINE
  8
_0-6_P-0001
  6
CONTINUOUS
 62
    7
 10
1062.6758838609298
 20
1020.6317279836447
 11
1057.7053211124528
 21
1025.6022907321221
  0
LINE
  8
_0-6_P-0001
  6
CONTINUOUS
 62
    7
 10
1071.8682720163547
 20
789.82411613907004
 11
1037.3241161390706
 21
824.36827201635447
  0
LINE
  8
_0-6_P-0001
  6
CONTINUOUS
 62
    7
 10
1062.6758838609298
 20
780.63172798364485
 11
1028.1317279836455
 21
815.17588386092916
  0
LINE
  8
_0-6_P-0001
  6
CONTINUOUS
 62
    7
 10
1028.1317279836455
 20
849.82411613907016
 11
1062.6758838609298
 21
884.36827201635424
  0
LINE
  8
_0-6_P-0001
  6
CONTINUOUS
 62
    7
 10
1037.3241161390704
 20
840.63172798364485
 11
1071.8682720163547
 21
875.17588386092928
  0
ARC
  8
_0-6_P-0001
  6
CONTINUOUS
 62
    7
 10
1045.4558441227159
 20
832.49999999999977
 40
24.5
 50
135.00000000000662
 51
224.99999999999343
  0
ARC
  8
_0-6_P-0001
  6
CONTINUOUS
 62
    7
 10
1045.4558441227159
 20
832.49999999999977
 40
11.500000000000002
 50
135.00000000000662
 51
224.99999999999343
  0
LINE
  8
_0-6_P-0001
  6
CONTINUOUS
 62
    7
 10
1056.4999999999995
 20
1059.8969696196696
 11
1056.4999999999995
 21
1242.5
  0
LINE
  8
_0-6_P-0001
  6
CONTINUOUS
 62
    7
 10
1043.4999999999995
 20
1059.8969696196696
 11
1043.4999999999995
 21
1242.5
  0
LINE
  8
_0-4_P-6853
  6
CONTINUOUS
 62
    7
 10
1043.4999999999995
 20
1242.5
 11
1056.4999999999995
 21
1242.5
  0
LINE
  8
_0-4_P-6853
  6
CONTINUOUS
 62
    7
 10
1056.4999999999995
 20
242.50000000000006
 11
1043.4999999999991
 21
242.50000000000006
  0
ENDSEC
  0
EOF
