  0
SECTION
  2
HEADER
  9
$ACADVER
  1
AC1009
  9
$INSBASE
 10
0
 20
0
 30
0
  9
$EXTMIN
 10
0
 20
0
  9
$EXTMAX
 10
2376
 20
1680
  9
$LIMMIN
 10
0
 20
0
  9
$LIMMAX
 10
2376
 20
1680
  9
$LTSCALE
 40
4
  0
ENDSEC
  0
SECTION
  2
TABLES
  0
TABLE
  2
LTYPE
 70
     9
  0
LTYPE
  2
CONTINUOUS
 70
    64
  3
実線
 72
    65
 73
     0
 40
0.0
  0
LTYPE
  2
DASHED1
 70
    64
  3
--  --  --  --  --  --  --  --  
 72
    65
 73
     2
 40
2.5
 49
1.25
 49
-1.25
  0
LTYPE
  2
DASHED2
 70
    64
  3
----    ----    ----    ----    
 72
    65
 73
     2
 40
5.0
 49
2.5
 49
-2.5
  0
LTYPE
  2
DASHED3
 70
    64
  3
------  ------  ------  ------  
 72
    65
 73
     2
 40
5.0
 49
3.75
 49
-1.25
  0
LTYPE
  2
CENTER1
 70
    64
  3
----- - ----- - ----- - ----- - 
 72
    65
 73
     4
 40
10.0
 49
6.25
 49
-1.25
 49
1.25
 49
-1.25
  0
LTYPE
  2
CENTER2
 70
    64
  3
----------  --  ----------  --  
 72
    65
 73
     4
 40
20.0
 49
12.5
 49
-2.5
 49
2.5
 49
-2.5
  0
LTYPE
  2
PHANTOM1
 70
    64
  3
--- - - --- - - --- - - --- - - 
 72
    65
 73
     6
 40
10.0
 49
3.25
 49
-1.25
 49
1.25
 49
-1.25
 49
1.25
 49
-1.25
  0
LTYPE
  2
PHANTOM2
 70
    64
  3
--------  -  -  --------  -  -  
 72
    65
 73
     6
 40
20.0
 49
10.0
 49
-2.5
 49
1.25
 49
-2.5
 49
1.25
 49
-2.5
  0
LTYPE
  2
DOT
 70
    64
  3
-   -   -   -   -   -   -   -   
 72
    65
 73
     2
 40
2.5
 49
0.625
 49
-1.875
  0
LTYPE
  2
DUMMY
 70
    64
  3
ダミー
 72
    65
 73
     0
 40
0.0
  0
LTYPE
  2
RAND1
 70
    64
  3
ランダム線1
 72
    65
 73
     4
 40
10.0
 49
1.0
 49
-2.0
 49
3.0
 49
-4.0
  0
LTYPE
  2
RAND2
 70
    64
  3
ランダム線2
 72
    65
 73
     4
 40
14.0
 49
2.0
 49
-3.0
 49
4.0
 49
-5.0
  0
LTYPE
  2
RAND3
 70
    64
  3
ランダム線3
 72
    65
 73
     4
 40
18.0
 49
3.0
 49
-4.0
 49
5.0
 49
-6.0
  0
LTYPE
  2
RAND4
 70
    64
  3
ランダム線4
 72
    65
 73
     4
 40
22.0
 49
4.0
 49
-5.0
 49
6.0
 49
-7.0
  0
LTYPE
  2
RAND5
 70
    64
  3
ランダム線5
 72
    65
 73
     4
 40
26.0
 49
5.0
 49
-6.0
 49
7.0
 49
-8.0
  0
LTYPE
  2
LONG1
 70
    64
  3
----------  --  ----------  --  
 72
    65
 73
     4
 40
40.0
 49
32.5
 49
-2.5
 49
2.5
 49
-2.5
  0
LTYPE
  2
LONG2
 70
    64
  3
--------  -  -  --------  -  -  
 72
    65
 73
     6
 40
40.0
 49
30.0
 49
-2.5
 49
1.25
 49
-2.5
 49
1.25
 49
-2.5
  0
LTYPE
  2
LONG3
 70
    64
  3
+++++++++++++++..+++++++++++++++
 72
    65
 73
     2
 40
40.0
 49
37.5
 49
-2.5
  0
LTYPE
  2
LONG4
 70
    64
  3
+++++++++++++++..+++++++++++++++
 72
    65
 73
     2
 40
80.0
 49
75.0
 49
-5.0
  0
LTYPE
  2
LONG5
 70
    64
  3
----------  --  ----------  --  
 72
    65
 73
     4
 40
60.0
 49
37.5
 49
-7.5
 49
7.5
 49
-7.5
  0
LTYPE
  2
dashed
 70
   64
  3
-------   -------------   ------
 72
   65
 73
    2
 40
7.5
 49
6
 49
-1.5
  0
LTYPE
  2
dashed_spaced
 70
   64
  3
----        --------        ----
 72
   65
 73
    2
 40
12
 49
6
 49
-6
  0
LTYPE
  2
long_dashed_dotted
 70
   64
  3
------------- --- --------------
 72
   65
 73
    4
 40
15.25
 49
12
 49
-1.5
 49
0.25
 49
-1.5
  0
LTYPE
  2
long_dashed_double-dotted
 70
   64
  3
----------- --- --- ------------
 72
   65
 73
    6
 40
17
 49
12
 49
-1.5
 49
0.25
 49
-1.5
 49
0.25
 49
-1.5
  0
LTYPE
  2
long_dashed_triplicate-dotted
 70
   64
  3
--------- --- --- --- ----------
 72
   65
 73
    8
 40
18.75
 49
12
 49
-1.5
 49
0.25
 49
-1.5
 49
0.25
 49
-1.5
 49
0.25
 49
-1.5
  0
LTYPE
  2
dotted
 70
   64
  3
   -       -       -       -    
 72
   65
 73
    2
 40
1.75
 49
0.25
 49
-1.5
  0
LTYPE
  2
chain
 70
   64
  3
-------------- -- --------------
 72
   65
 73
    4
 40
18.5
 49
12
 49
-1.5
 49
3.5
 49
-1.5
  0
LTYPE
  2
chain_double_dash
 70
   64
  3
------------ -- -- -------------
 72
   65
 73
    6
 40
23.5
 49
12
 49
-1.5
 49
3.5
 49
-1.5
 49
3.5
 49
-1.5
  0
LTYPE
  2
dashed_dotted
 70
   64
  3
-----------     -     ----------
 72
   65
 73
    4
 40
9.25
 49
6
 49
-1.5
 49
0.25
 49
-1.5
  0
LTYPE
  2
double-dashed_dotted
 70
   64
  3
------   -----------   -   -----
 72
   65
 73
    6
 40
16.75
 49
6
 49
-1.5
 49
6
 49
-1.5
 49
0.25
 49
-1.5
  0
LTYPE
  2
dashed_double-dotted
 70
   64
  3
---------    -    -    ---------
 72
   65
 73
    6
 40
11
 49
6
 49
-1.5
 49
0.25
 49
-1.5
 49
0.25
 49
-1.5
  0
LTYPE
  2
double-dashed_double-dotted
 70
   64
  3
-----   ---------   -   -   ----
 72
   65
 73
    8
 40
18.5
 49
6
 49
-1.5
 49
6
 49
-1.5
 49
0.25
 49
-1.5
 49
0.25
 49
-1.5
  0
LTYPE
  2
dashed_triplicate-dotted
 70
   64
  3
-------    -    -    -    ------
 72
   65
 73
    8
 40
12.75
 49
6
 49
-1.5
 49
0.25
 49
-1.5
 49
0.25
 49
-1.5
 49
0.25
 49
-1.5
  0
LTYPE
  2
double-dashed_triplicate-dotted
 70
   64
  3
-----  ---------  -  -  -  -----
 72
   65
 73
   10
 40
20.25
 49
6
 49
-1.5
 49
6
 49
-1.5
 49
0.25
 49
-1.5
 49
0.25
 49
-1.5
 49
0.25
 49
-1.5
  0
LTYPE
  2
undefined
 70
   64
  3
--------------------------------
 72
   65
 73
    0
 40
0
  0
LTYPE
  2
BORDER
 70
   64
  3
----     --------     -     ----
 72
   65
 73
    6
 40
1.76
 49
0.5
 49
-0.25
 49
0.5
 49
-0.25
 49
0.01
 49
-0.25
  0
LTYPE
  2
BORDER2
 70
   64
  3
----     --------     -     ----
 72
   65
 73
    6
 40
0.885
 49
0.25
 49
-0.125
 49
0.25
 49
-0.125
 49
0.01
 49
-0.125
  0
LTYPE
  2
BORDERX2
 70
   64
  3
----     --------     -     ----
 72
   65
 73
    6
 40
3.5099999999999998
 49
1
 49
-0.5
 49
1
 49
-0.5
 49
0.01
 49
-0.5
  0
LTYPE
  2
CENTER
 70
   64
  3
----------    ----    ----------
 72
   65
 73
    4
 40
2
 49
1.25
 49
-0.25
 49
0.25
 49
-0.25
  0
LTYPE
  2
CENTER2_21
 70
   64
  3
----------    ----    ----------
 72
   65
 73
    4
 40
1.125
 49
0.75
 49
-0.125
 49
0.125
 49
-0.125
  0
LTYPE
  2
CENTERX2
 70
   64
  3
----------    ----    ----------
 72
   65
 73
    4
 40
4
 49
2.5
 49
-0.5
 49
0.5
 49
-0.5
  0
LTYPE
  2
DASHDOT
 70
   64
  3
--------        -        -------
 72
   65
 73
    4
 40
1.01
 49
0.5
 49
-0.25
 49
0.01
 49
-0.25
  0
LTYPE
  2
DASHDOT2
 70
   64
  3
--------        -        -------
 72
   65
 73
    4
 40
0.51
 49
0.25
 49
-0.125
 49
0.01
 49
-0.125
  0
LTYPE
  2
DASHDOTX2
 70
   64
  3
--------        -        -------
 72
   65
 73
    4
 40
2.0099999999999998
 49
1
 49
-0.5
 49
0.01
 49
-0.5
  0
LTYPE
  2
DASHED
 70
   64
  3
------     -----------     -----
 72
   65
 73
    2
 40
0.75
 49
0.5
 49
-0.25
  0
LTYPE
  2
DASHED2_27
 70
   64
  3
------     -----------     -----
 72
   65
 73
    2
 40
0.375
 49
0.25
 49
-0.125
  0
LTYPE
  2
DASHEDX2
 70
   64
  3
------     -----------     -----
 72
   65
 73
    2
 40
1.5
 49
1
 49
-0.5
  0
LTYPE
  2
DIVIDE
 70
   64
  3
------      -      -      ------
 72
   65
 73
    6
 40
1.27
 49
0.5
 49
-0.25
 49
0.01
 49
-0.25
 49
0.01
 49
-0.25
  0
LTYPE
  2
DIVIDE2
 70
   64
  3
------      -      -      ------
 72
   65
 73
    6
 40
0.645
 49
0.25
 49
-0.125
 49
0.01
 49
-0.125
 49
0.01
 49
-0.125
  0
LTYPE
  2
DIVIDEX2
 70
   64
  3
------      -      -      ------
 72
   65
 73
    6
 40
2.5199999999999996
 49
1
 49
-0.5
 49
0.01
 49
-0.5
 49
0.01
 49
-0.5
  0
LTYPE
  2
DOT_32
 70
   64
  3
-               -               
 72
   65
 73
    2
 40
0.26
 49
0.01
 49
-0.25
  0
ENDTAB
  0
TABLE
  2
STYLE
  5
3
100
AcDbSymbolTable
 70
     1
  0
STYLE
  5
10
100
AcDbSymbolTableRecord
100
AcDbTextStyleTableRecord
  2
STANDARD
 70
     0
 40
0.0
 41
1.0
 50
0.0
 71
     0
 42
0.2
  3
txt
  4
bigfont.shx
  0
STYLE
  5
26
100
AcDbSymbolTableRecord
100
AcDbTextStyleTableRecord
  2
TATEGAKI
 70
    68
 40
0.0
 41
1.0
 50
0.0
 71
     0
 42
1.0
  3
txt
  4
bigfont.shx
  0
ENDTAB
  0
TABLE
  2
LAYER
 70
    2
  0
LAYER
  2
_0-0_0
 70
   64
 62
    7
  6
CONTINUOUS
  0
LAYER
  2
ADD_LINE
 70
   64
 62
    7
  6
CONTINUOUS
  0
ENDTAB
  0
ENDSEC
  0
SECTION
  2
BLOCKS
  0
ENDSEC
  0
SECTION
  2
ENTITIES
  0
ARC
  8
_0-0_0
  6
CONTINUOUS
 62
    7
 10
1104.5383312150771
 20
596.04368301768636
 40
85.609662643836401
 50
343.72084934607352
 51
16.279150653926486
  0
ARC
  8
_0-0_0
  6
CONTINUOUS
 62
    7
 10
1245.9555909940673
 20
518.91909983398727
 40
72.087810758266983
 50
165.30945549800452
 51
185.80767837961022
  0
ARC
  8
_0-0_0
  6
CONTINUOUS
 62
    7
 10
926.55518652237879
 20
446.79645099336631
 40
253.42446341988847
 50
359.73689930175328
 51
7.8608469545433559
  0
LINE
  8
_0-0_0
  6
CONTINUOUS
 62
    7
 10
1179.9769780649485
 20
445.63273667586964
 11
1179.9769780649485
 21
340.00799270553534
  0
ARC
  8
_0-0_0
  6
CONTINUOUS
 62
    7
 10
1249.8676485359101
 20
679.62520556678646
 40
75.953949230454114
 50
165.19379766037821
 51
194.80620233962182
  0
LINE
  8
_0-0_0
  6
CONTINUOUS
 62
    7
 10
1176.4356946963489
 20
699.03526891050342
 11
1186.71567648779
 21
732.4285897933446
  0
LINE
  8
_0-0_0
  6
CONTINUOUS
 62
    7
 10
1186.7156764877855
 20
620.04156338078246
 11
1176.4356946963489
 21
660.2151422230736
  0
LINE
  8
_0-0_0
  6
CONTINUOUS
 62
    7
 10
1176.224358366926
 20
537.20044705511145
 11
1186.7156764877855
 21
572.04580265458662
  0
LINE
  8
_0-0_0
  6
CONTINUOUS
 62
    7
 10
1177.5982594473016
 20
481.45671925647457
 11
1174.2377956479722
 21
511.62456142395649
  0
ARC
  8
_0-0_0
  6
CONTINUOUS
 62
    7
 10
1104.538331215078
 20
756.42647015643252
 40
85.609662643836401
 50
343.72084934607352
 51
16.279150653926486
  0
LINE
  8
_0-0_0
  6
CONTINUOUS
 62
    7
 10
1191.9768515478499
 20
445.57763318814926
 11
1191.9770971922326
 21
340.00799270553534
  0
ARC
  8
_0-0_0
  6
CONTINUOUS
 62
    7
 10
927.35945086125048
 20
446.82127479800147
 40
264.62032308684604
 50
359.73072484777941
 51
7.8111100121338488
  0
LINE
  8
_0-0_0
  6
CONTINUOUS
 62
    7
 10
1189.5244957998748
 20
482.78520955095928
 11
1186.1762015324166
 21
512.83883690270341
  0
ARC
  8
_0-0_0
  6
CONTINUOUS
 62
    7
 10
1245.9555909940673
 20
518.91909983398727
 40
60.087810758266983
 50
165.30945549800452
 51
185.80767837961022
  0
LINE
  8
_0-0_0
  6
CONTINUOUS
 62
    7
 10
1187.8320737729564
 20
534.15726729495555
 11
1198.2345648097153
 21
568.68199352996453
  0
ARC
  8
_0-0_0
  6
CONTINUOUS
 62
    7
 10
1104.5383312150771
 20
596.04368301768636
 40
97.60966264383643
 50
343.72084934607352
 51
16.279150653926486
  0
LINE
  8
_0-0_0
  6
CONTINUOUS
 62
    7
 10
1198.2345648097162
 20
623.40537250540729
 11
1188.0372434637629
 21
663.2817472183965
  0
ARC
  8
_0-0_0
  6
CONTINUOUS
 62
    7
 10
1249.8676485359101
 20
679.62520556678646
 40
63.953949230454121
 50
165.19379766037821
 51
194.80620233962182
  0
LINE
  8
_0-0_0
  6
CONTINUOUS
 62
    7
 10
1188.0372434637629
 20
695.96866391518142
 11
1198.234564809718
 21
729.06478066871159
  0
ARC
  8
_0-0_0
  6
CONTINUOUS
 62
    7
 10
1104.538331215078
 20
756.42647015643252
 40
97.60966264383643
 50
343.72084934607352
 51
16.279150653926486
  0
ARC
  8
_0-0_0
  6
CONTINUOUS
 62
    7
 10
1249.867648535911
 20
840.00799270553262
 40
75.953949230454114
 50
165.19379766037821
 51
194.80620233962182
  0
ARC
  8
_0-0_0
  6
CONTINUOUS
 62
    7
 10
1249.867648535911
 20
840.00799270553262
 40
63.953949230454121
 50
165.19379766037821
 51
194.80620233962182
  0
LINE
  8
_0-0_0
  6
CONTINUOUS
 62
    7
 10
1176.4356946963526
 20
859.41805604924866
 11
1186.7156764877918
 21
892.8113769320903
  0
LINE
  8
_0-0_0
  6
CONTINUOUS
 62
    7
 10
1188.0372434637657
 20
856.35145105392758
 11
1198.2345648097198
 21
889.44756780745729
  0
LINE
  8
_0-0_0
  6
CONTINUOUS
 62
    7
 10
1186.7156764877873
 20
780.42435051952862
 11
1176.4356946963526
 21
820.5979293618193
  0
LINE
  8
_0-0_0
  6
CONTINUOUS
 62
    7
 10
1198.234564809718
 20
783.78815964415344
 11
1188.0372434637638
 21
823.66453435714266
  0
ARC
  8
_0-0_0
  6
CONTINUOUS
 62
    7
 10
1104.5383312150807
 20
916.80925729517867
 40
85.609662643836401
 50
343.72084934607352
 51
16.279150653926486
  0
ARC
  8
_0-0_0
  6
CONTINUOUS
 62
    7
 10
1104.5383312150807
 20
916.80925729517867
 40
97.60966264383643
 50
343.72084934607352
 51
16.279150653926486
  0
ARC
  8
_0-0_0
  6
CONTINUOUS
 62
    7
 10
1249.8676485359147
 20
1000.3907798442774
 40
75.953949230454114
 50
165.19379766037821
 51
194.80620233962182
  0
ARC
  8
_0-0_0
  6
CONTINUOUS
 62
    7
 10
1249.8676485359147
 20
1000.3907798442774
 40
63.953949230454121
 50
165.19379766037821
 51
194.80620233962182
  0
LINE
  8
_0-0_0
  6
CONTINUOUS
 62
    7
 10
1176.4356946963544
 20
1019.8008431879944
 11
1186.7156764877936
 21
1053.1941640708355
  0
LINE
  8
_0-0_0
  6
CONTINUOUS
 62
    7
 10
1188.0372434637684
 20
1016.7342381926724
 11
1198.2345648097216
 21
1049.8303549462025
  0
LINE
  8
_0-0_0
  6
CONTINUOUS
 62
    7
 10
1186.7156764877891
 20
940.8071376582734
 11
1176.4356946963544
 21
980.98071650056545
  0
LINE
  8
_0-0_0
  6
CONTINUOUS
 62
    7
 10
1198.2345648097198
 20
944.17094678289823
 11
1188.0372434637666
 21
984.04732149588745
  0
ARC
  8
_0-0_0
  6
CONTINUOUS
 62
    7
 10
1104.5383312150825
 20
1077.1920444339244
 40
85.609662643836401
 50
343.72084934607352
 51
16.279150653926486
  0
ARC
  8
_0-0_0
  6
CONTINUOUS
 62
    7
 10
1104.5383312150825
 20
1077.1920444339244
 40
97.60966264383643
 50
343.72084934607352
 51
16.279150653926486
  0
LINE
  8
_0-0_0
  6
CONTINUOUS
 62
    7
 10
1186.7156764877918
 20
1101.1899247970173
 11
1176.4356946963553
 21
1141.3635036393093
  0
LINE
  8
_0-0_0
  6
CONTINUOUS
 62
    7
 10
1198.2345648097216
 20
1104.5537339216435
 11
1188.0434101023875
 21
1144.4066833994575
  0
ARC
  8
_0-0_0
  6
CONTINUOUS
 62
    7
 10
1246.1669273235075
 20
1159.6448508603926
 40
72.087810758266983
 50
174.1923216204157
 51
194.69054450197032
  0
ARC
  8
_0-0_0
  6
CONTINUOUS
 62
    7
 10
1246.1669273235075
 20
1159.6448508603926
 40
60.087810758266983
 50
174.1923216204157
 51
194.69054450197032
  0
ARC
  8
_0-0_0
  6
CONTINUOUS
 62
    7
 10
926.76652285181899
 20
1231.7674997010135
 40
253.42446341988847
 50
352.13915304545668
 51
0.2631006982727776
  0
ARC
  8
_0-0_0
  6
CONTINUOUS
 62
    7
 10
927.57078719068886
 20
1231.7426758963784
 40
264.62032308684604
 50
352.18888998789907
 51
0.269275152220612
  0
LINE
  8
_0-0_0
  6
CONTINUOUS
 62
    7
 10
1180.1883143943896
 20
1232.9312140185102
 11
1180.1883143943896
 21
1340.0079927055344
  0
LINE
  8
_0-0_0
  6
CONTINUOUS
 62
    7
 10
1192.1881878772901
 20
1232.9863175062305
 11
1192.1884369003346
 21
1340.0079927055353
  0
LINE
  8
_0-0_0
  6
CONTINUOUS
 62
    7
 10
1177.8095957767418
 20
1197.1072314379066
 11
1174.4491319774133
 21
1166.9393892704243
  0
LINE
  8
_0-0_0
  6
CONTINUOUS
 62
    7
 10
1189.735832129315
 20
1195.7787411434215
 11
1186.387537861855
 21
1165.7251137916764
  0
LINE
  8
_0-0_0
  6
CONTINUOUS
 62
    7
 10
1191.9770971922326
 20
340.00799270553534
 11
1179.9769780649494
 21
340.00799270553534
  0
LINE
  8
_0-0_0
  6
CONTINUOUS
 62
    7
 10
1192.1884369003346
 20
1340.0079927055353
 11
1180.1883143943896
 21
1340.0079927055353
  0
ENDSEC
  0
EOF
