  0
SECTION
  2
HEADER
  9
$ACADVER
  1
AC1009
  9
$INSBASE
 10
0
 20
0
 30
0
  9
$EXTMIN
 10
0
 20
0
  9
$EXTMAX
 10
2100
 20
1485
  9
$LIMMIN
 10
0
 20
0
  9
$LIMMAX
 10
2100
 20
1485
  9
$LTSCALE
 40
5
  0
ENDSEC
  0
SECTION
  2
TABLES
  0
TABLE
  2
LTYPE
 70
     9
  0
LTYPE
  2
CONTINUOUS
 70
    64
  3
実線
 72
    65
 73
     0
 40
0.0
  0
LTYPE
  2
DASHED1
 70
    64
  3
--  --  --  --  --  --  --  --  
 72
    65
 73
     2
 40
2.5
 49
1.25
 49
-1.25
  0
LTYPE
  2
DASHED2
 70
    64
  3
----    ----    ----    ----    
 72
    65
 73
     2
 40
5.0
 49
2.5
 49
-2.5
  0
LTYPE
  2
DASHED3
 70
    64
  3
------  ------  ------  ------  
 72
    65
 73
     2
 40
5.0
 49
3.75
 49
-1.25
  0
LTYPE
  2
CENTER1
 70
    64
  3
----- - ----- - ----- - ----- - 
 72
    65
 73
     4
 40
10.0
 49
6.25
 49
-1.25
 49
1.25
 49
-1.25
  0
LTYPE
  2
CENTER2
 70
    64
  3
----------  --  ----------  --  
 72
    65
 73
     4
 40
20.0
 49
12.5
 49
-2.5
 49
2.5
 49
-2.5
  0
LTYPE
  2
PHANTOM1
 70
    64
  3
--- - - --- - - --- - - --- - - 
 72
    65
 73
     6
 40
10.0
 49
3.25
 49
-1.25
 49
1.25
 49
-1.25
 49
1.25
 49
-1.25
  0
LTYPE
  2
PHANTOM2
 70
    64
  3
--------  -  -  --------  -  -  
 72
    65
 73
     6
 40
20.0
 49
10.0
 49
-2.5
 49
1.25
 49
-2.5
 49
1.25
 49
-2.5
  0
LTYPE
  2
DOT
 70
    64
  3
-   -   -   -   -   -   -   -   
 72
    65
 73
     2
 40
2.5
 49
0.625
 49
-1.875
  0
LTYPE
  2
DUMMY
 70
    64
  3
ダミー
 72
    65
 73
     0
 40
0.0
  0
LTYPE
  2
RAND1
 70
    64
  3
ランダム線1
 72
    65
 73
     4
 40
10.0
 49
1.0
 49
-2.0
 49
3.0
 49
-4.0
  0
LTYPE
  2
RAND2
 70
    64
  3
ランダム線2
 72
    65
 73
     4
 40
14.0
 49
2.0
 49
-3.0
 49
4.0
 49
-5.0
  0
LTYPE
  2
RAND3
 70
    64
  3
ランダム線3
 72
    65
 73
     4
 40
18.0
 49
3.0
 49
-4.0
 49
5.0
 49
-6.0
  0
LTYPE
  2
RAND4
 70
    64
  3
ランダム線4
 72
    65
 73
     4
 40
22.0
 49
4.0
 49
-5.0
 49
6.0
 49
-7.0
  0
LTYPE
  2
RAND5
 70
    64
  3
ランダム線5
 72
    65
 73
     4
 40
26.0
 49
5.0
 49
-6.0
 49
7.0
 49
-8.0
  0
LTYPE
  2
LONG1
 70
    64
  3
----------  --  ----------  --  
 72
    65
 73
     4
 40
40.0
 49
32.5
 49
-2.5
 49
2.5
 49
-2.5
  0
LTYPE
  2
LONG2
 70
    64
  3
--------  -  -  --------  -  -  
 72
    65
 73
     6
 40
40.0
 49
30.0
 49
-2.5
 49
1.25
 49
-2.5
 49
1.25
 49
-2.5
  0
LTYPE
  2
LONG3
 70
    64
  3
+++++++++++++++..+++++++++++++++
 72
    65
 73
     2
 40
40.0
 49
37.5
 49
-2.5
  0
LTYPE
  2
LONG4
 70
    64
  3
+++++++++++++++..+++++++++++++++
 72
    65
 73
     2
 40
80.0
 49
75.0
 49
-5.0
  0
LTYPE
  2
LONG5
 70
    64
  3
----------  --  ----------  --  
 72
    65
 73
     4
 40
60.0
 49
37.5
 49
-7.5
 49
7.5
 49
-7.5
  0
LTYPE
  2
dashed
 70
   64
  3
-------   -------------   ------
 72
   65
 73
    2
 40
7.5
 49
6
 49
-1.5
  0
LTYPE
  2
dashed_spaced
 70
   64
  3
----        --------        ----
 72
   65
 73
    2
 40
12
 49
6
 49
-6
  0
LTYPE
  2
long_dashed_dotted
 70
   64
  3
------------- --- --------------
 72
   65
 73
    4
 40
15.25
 49
12
 49
-1.5
 49
0.25
 49
-1.5
  0
LTYPE
  2
long_dashed_double-dotted
 70
   64
  3
----------- --- --- ------------
 72
   65
 73
    6
 40
17
 49
12
 49
-1.5
 49
0.25
 49
-1.5
 49
0.25
 49
-1.5
  0
LTYPE
  2
long_dashed_triplicate-dotted
 70
   64
  3
--------- --- --- --- ----------
 72
   65
 73
    8
 40
18.75
 49
12
 49
-1.5
 49
0.25
 49
-1.5
 49
0.25
 49
-1.5
 49
0.25
 49
-1.5
  0
LTYPE
  2
dotted
 70
   64
  3
   -       -       -       -    
 72
   65
 73
    2
 40
1.75
 49
0.25
 49
-1.5
  0
LTYPE
  2
chain
 70
   64
  3
-------------- -- --------------
 72
   65
 73
    4
 40
18.5
 49
12
 49
-1.5
 49
3.5
 49
-1.5
  0
LTYPE
  2
chain_double_dash
 70
   64
  3
------------ -- -- -------------
 72
   65
 73
    6
 40
23.5
 49
12
 49
-1.5
 49
3.5
 49
-1.5
 49
3.5
 49
-1.5
  0
LTYPE
  2
dashed_dotted
 70
   64
  3
-----------     -     ----------
 72
   65
 73
    4
 40
9.25
 49
6
 49
-1.5
 49
0.25
 49
-1.5
  0
LTYPE
  2
double-dashed_dotted
 70
   64
  3
------   -----------   -   -----
 72
   65
 73
    6
 40
16.75
 49
6
 49
-1.5
 49
6
 49
-1.5
 49
0.25
 49
-1.5
  0
LTYPE
  2
dashed_double-dotted
 70
   64
  3
---------    -    -    ---------
 72
   65
 73
    6
 40
11
 49
6
 49
-1.5
 49
0.25
 49
-1.5
 49
0.25
 49
-1.5
  0
LTYPE
  2
double-dashed_double-dotted
 70
   64
  3
-----   ---------   -   -   ----
 72
   65
 73
    8
 40
18.5
 49
6
 49
-1.5
 49
6
 49
-1.5
 49
0.25
 49
-1.5
 49
0.25
 49
-1.5
  0
LTYPE
  2
dashed_triplicate-dotted
 70
   64
  3
-------    -    -    -    ------
 72
   65
 73
    8
 40
12.75
 49
6
 49
-1.5
 49
0.25
 49
-1.5
 49
0.25
 49
-1.5
 49
0.25
 49
-1.5
  0
LTYPE
  2
double-dashed_triplicate-dotted
 70
   64
  3
-----  ---------  -  -  -  -----
 72
   65
 73
   10
 40
20.25
 49
6
 49
-1.5
 49
6
 49
-1.5
 49
0.25
 49
-1.5
 49
0.25
 49
-1.5
 49
0.25
 49
-1.5
  0
LTYPE
  2
undefined
 70
   64
  3
--------------------------------
 72
   65
 73
    0
 40
0
  0
LTYPE
  2
BORDER
 70
   64
  3
----     --------     -     ----
 72
   65
 73
    6
 40
1.76
 49
0.5
 49
-0.25
 49
0.5
 49
-0.25
 49
0.01
 49
-0.25
  0
LTYPE
  2
BORDER2
 70
   64
  3
----     --------     -     ----
 72
   65
 73
    6
 40
0.885
 49
0.25
 49
-0.125
 49
0.25
 49
-0.125
 49
0.01
 49
-0.125
  0
LTYPE
  2
BORDERX2
 70
   64
  3
----     --------     -     ----
 72
   65
 73
    6
 40
3.5099999999999998
 49
1
 49
-0.5
 49
1
 49
-0.5
 49
0.01
 49
-0.5
  0
LTYPE
  2
CENTER
 70
   64
  3
----------    ----    ----------
 72
   65
 73
    4
 40
2
 49
1.25
 49
-0.25
 49
0.25
 49
-0.25
  0
LTYPE
  2
CENTER2_21
 70
   64
  3
----------    ----    ----------
 72
   65
 73
    4
 40
1.125
 49
0.75
 49
-0.125
 49
0.125
 49
-0.125
  0
LTYPE
  2
CENTERX2
 70
   64
  3
----------    ----    ----------
 72
   65
 73
    4
 40
4
 49
2.5
 49
-0.5
 49
0.5
 49
-0.5
  0
LTYPE
  2
DASHDOT
 70
   64
  3
--------        -        -------
 72
   65
 73
    4
 40
1.01
 49
0.5
 49
-0.25
 49
0.01
 49
-0.25
  0
LTYPE
  2
DASHDOT2
 70
   64
  3
--------        -        -------
 72
   65
 73
    4
 40
0.51
 49
0.25
 49
-0.125
 49
0.01
 49
-0.125
  0
LTYPE
  2
DASHDOTX2
 70
   64
  3
--------        -        -------
 72
   65
 73
    4
 40
2.0099999999999998
 49
1
 49
-0.5
 49
0.01
 49
-0.5
  0
LTYPE
  2
DASHED
 70
   64
  3
------     -----------     -----
 72
   65
 73
    2
 40
0.75
 49
0.5
 49
-0.25
  0
LTYPE
  2
DASHED2_27
 70
   64
  3
------     -----------     -----
 72
   65
 73
    2
 40
0.375
 49
0.25
 49
-0.125
  0
LTYPE
  2
DASHEDX2
 70
   64
  3
------     -----------     -----
 72
   65
 73
    2
 40
1.5
 49
1
 49
-0.5
  0
LTYPE
  2
DIVIDE
 70
   64
  3
------      -      -      ------
 72
   65
 73
    6
 40
1.27
 49
0.5
 49
-0.25
 49
0.01
 49
-0.25
 49
0.01
 49
-0.25
  0
LTYPE
  2
DIVIDE2
 70
   64
  3
------      -      -      ------
 72
   65
 73
    6
 40
0.645
 49
0.25
 49
-0.125
 49
0.01
 49
-0.125
 49
0.01
 49
-0.125
  0
LTYPE
  2
DIVIDEX2
 70
   64
  3
------      -      -      ------
 72
   65
 73
    6
 40
2.5199999999999996
 49
1
 49
-0.5
 49
0.01
 49
-0.5
 49
0.01
 49
-0.5
  0
LTYPE
  2
DOT_32
 70
   64
  3
-               -               
 72
   65
 73
    2
 40
0.26
 49
0.01
 49
-0.25
  0
ENDTAB
  0
TABLE
  2
STYLE
  5
3
100
AcDbSymbolTable
 70
     1
  0
STYLE
  5
10
100
AcDbSymbolTableRecord
100
AcDbTextStyleTableRecord
  2
STANDARD
 70
     0
 40
0.0
 41
1.0
 50
0.0
 71
     0
 42
0.2
  3
txt
  4
bigfont.shx
  0
STYLE
  5
26
100
AcDbSymbolTableRecord
100
AcDbTextStyleTableRecord
  2
TATEGAKI
 70
    68
 40
0.0
 41
1.0
 50
0.0
 71
     0
 42
1.0
  3
txt
  4
bigfont.shx
  0
ENDTAB
  0
TABLE
  2
LAYER
 70
    2
  0
LAYER
  2
_0-0_0
 70
   64
 62
    7
  6
CONTINUOUS
  0
LAYER
  2
ADD_LINE
 70
   64
 62
    7
  6
CONTINUOUS
  0
ENDTAB
  0
ENDSEC
  0
SECTION
  2
BLOCKS
  0
ENDSEC
  0
SECTION
  2
ENTITIES
  0
LINE
  8
_0-0_0
  6
CONTINUOUS
 62
    7
 10
1052.5183468165826
 20
385.39593514234974
 11
1049.1700525491244
 21
415.44956249409387
  0
LINE
  8
_0-0_0
  6
CONTINUOUS
 62
    7
 10
1041.1883143943896
 20
1135.4312140185102
 11
1041.1883143943896
 21
1192.5079927055353
  0
ARC
  8
_0-0_0
  6
CONTINUOUS
 62
    7
 10
788.76652285181899
 20
1134.2674997010135
 40
252.42446341988847
 50
352.13915304545668
 51
0.2631006982727776
  0
LINE
  8
_0-0_0
  6
CONTINUOUS
 62
    7
 10
1038.8157427473607
 20
1099.7179389624471
 11
1035.4552789480322
 21
1069.5500967949647
  0
ARC
  8
_0-0_0
  6
CONTINUOUS
 62
    7
 10
1108.1669273235075
 20
1062.1448508603926
 40
73.087810758266983
 50
174.1923216204157
 51
194.69054450197032
  0
LINE
  8
_0-0_0
  6
CONTINUOUS
 62
    7
 10
1047.7468912702814
 20
1003.4420231989317
 11
1037.4669094788449
 21
1043.6156020412238
  0
ARC
  8
_0-0_0
  6
CONTINUOUS
 62
    7
 10
966.53833121508251
 20
979.69204443392437
 40
84.609662643836415
 50
343.72084934607352
 51
16.279150653926486
  0
LINE
  8
_0-0_0
  6
CONTINUOUS
 62
    7
 10
1037.4799568362814
 20
922.59506273667034
 11
1047.7599386277207
 21
955.98838361951152
  0
ARC
  8
_0-0_0
  6
CONTINUOUS
 62
    7
 10
966.53833121508251
 20
979.69204443392437
 40
98.60966264383643
 50
343.72084934607352
 51
16.279150653926486
  0
LINE
  8
_0-0_0
  6
CONTINUOUS
 62
    7
 10
1061.2033896078854
 20
1007.3014807893599
 11
1051.012234900551
 21
1047.1544302671739
  0
LINE
  8
_0-0_0
  6
CONTINUOUS
 62
    7
 10
1052.7296831460228
 20
1098.168015552031
 11
1049.3813888785628
 21
1068.1143882002859
  0
ARC
  8
_0-0_0
  6
CONTINUOUS
 62
    7
 10
1108.1669273235075
 20
1062.1448508603926
 40
59.08781075826699
 50
174.1923216204157
 51
194.69054450197032
  0
ARC
  8
_0-0_0
  6
CONTINUOUS
 62
    7
 10
789.57078719068886
 20
1134.2426758963784
 40
265.62032308684604
 50
352.18888998789907
 51
0.269275152220612
  0
LINE
  8
_0-0_0
  6
CONTINUOUS
 62
    7
 10
1055.1881878772874
 20
1135.4863151793836
 11
1055.1883205579909
 21
1192.5079903789592
  0
LINE
  8
_0-0_0
  6
CONTINUOUS
 62
    7
 10
1050.9929095783448
 20
918.93978568809757
 11
1061.1902309242982
 21
952.03590244162785
  0
ARC
  8
_0-0_0
  6
CONTINUOUS
 62
    7
 10
1111.8676485359147
 20
902.8907798442774
 40
76.953949230454114
 50
165.19379766037821
 51
194.80620233962182
  0
LINE
  8
_0-0_0
  6
CONTINUOUS
 62
    7
 10
1047.7468912702786
 20
843.05923606018791
 11
1037.4669094788439
 21
883.23281490247996
  0
ARC
  8
_0-0_0
  6
CONTINUOUS
 62
    7
 10
1111.8676485359147
 20
902.8907798442774
 40
62.953949230454128
 50
165.19379766037821
 51
194.80620233962182
  0
LINE
  8
_0-0_0
  6
CONTINUOUS
 62
    7
 10
1061.2033885794153
 20
846.9186976724485
 11
1051.0060672334621
 21
886.79507238543783
  0
ARC
  8
_0-0_0
  6
CONTINUOUS
 62
    7
 10
966.53833121508069
 20
819.30925729517867
 40
98.60966264383643
 50
343.72084934607352
 51
16.279150653926486
  0
LINE
  8
_0-0_0
  6
CONTINUOUS
 62
    7
 10
1050.9929095783421
 20
758.55699854935278
 11
1061.1902309242962
 21
791.6531153028825
  0
ARC
  8
_0-0_0
  6
CONTINUOUS
 62
    7
 10
966.53833121508069
 20
819.30925729517867
 40
84.609662643836415
 50
343.72084934607352
 51
16.279150653926486
  0
LINE
  8
_0-0_0
  6
CONTINUOUS
 62
    7
 10
1037.4799568362796
 20
762.21227559792453
 11
1047.7599386277188
 21
795.60559648076617
  0
ARC
  8
_0-0_0
  6
CONTINUOUS
 62
    7
 10
1111.867648535911
 20
742.50799270553262
 40
62.953949230454128
 50
165.19379766037821
 51
194.80620233962182
  0
ARC
  8
_0-0_0
  6
CONTINUOUS
 62
    7
 10
1111.867648535911
 20
742.50799270553262
 40
76.953949230454114
 50
165.19379766037821
 51
194.80620233962182
  0
LINE
  8
_0-0_0
  6
CONTINUOUS
 62
    7
 10
1047.7468912702768
 20
682.67644892144313
 11
1037.4669094788421
 21
722.85002776373381
  0
LINE
  8
_0-0_0
  6
CONTINUOUS
 62
    7
 10
1061.2033885794135
 20
686.53591053370383
 11
1051.0060672334594
 21
726.41228524669282
  0
ARC
  8
_0-0_0
  6
CONTINUOUS
 62
    7
 10
966.53833121507796
 20
658.92647015643252
 40
98.60966264383643
 50
343.72084934607352
 51
16.279150653926486
  0
ARC
  8
_0-0_0
  6
CONTINUOUS
 62
    7
 10
966.53833121507796
 20
658.92647015643252
 40
84.609662643836415
 50
343.72084934607352
 51
16.279150653926486
  0
LINE
  8
_0-0_0
  6
CONTINUOUS
 62
    7
 10
1037.479956836276
 20
601.8294884591794
 11
1047.759938627717
 21
635.22280934202058
  0
LINE
  8
_0-0_0
  6
CONTINUOUS
 62
    7
 10
1050.9929095783395
 20
598.17421141060663
 11
1061.1902309242944
 21
631.2703281641368
  0
ARC
  8
_0-0_0
  6
CONTINUOUS
 62
    7
 10
1111.8676485359101
 20
582.12520556678646
 40
62.953949230454128
 50
165.19379766037821
 51
194.80620233962182
  0
ARC
  8
_0-0_0
  6
CONTINUOUS
 62
    7
 10
1111.8676485359101
 20
582.12520556678646
 40
76.953949230454114
 50
165.19379766037821
 51
194.80620233962182
  0
LINE
  8
_0-0_0
  6
CONTINUOUS
 62
    7
 10
1047.7468912702752
 20
522.29366178269697
 11
1037.4669094788387
 21
562.46724062498811
  0
LINE
  8
_0-0_0
  6
CONTINUOUS
 62
    7
 10
1061.2033885794117
 20
526.15312339495756
 11
1051.0060672334585
 21
566.02949810794678
  0
ARC
  8
_0-0_0
  6
CONTINUOUS
 62
    7
 10
966.53833121507705
 20
498.54368301768631
 40
84.609662643836415
 50
343.72084934607352
 51
16.279150653926486
  0
ARC
  8
_0-0_0
  6
CONTINUOUS
 62
    7
 10
966.53833121507705
 20
498.54368301768631
 40
98.60966264383643
 50
343.72084934607352
 51
16.279150653926486
  0
LINE
  8
_0-0_0
  6
CONTINUOUS
 62
    7
 10
1037.2668177736848
 20
439.98874553290011
 11
1047.7581358945442
 21
474.83410113237528
  0
LINE
  8
_0-0_0
  6
CONTINUOUS
 62
    7
 10
1050.7895553284211
 20
436.36877280463614
 11
1061.19204636518
 21
470.89349903964518
  0
ARC
  8
_0-0_0
  6
CONTINUOUS
 62
    7
 10
1107.9555909940673
 20
421.41909983398727
 40
73.087810758266983
 50
165.30945549800452
 51
185.80767837961022
  0
ARC
  8
_0-0_0
  6
CONTINUOUS
 62
    7
 10
1107.9555909940673
 20
421.41909983398727
 40
59.08781075826699
 50
165.30945549800452
 51
185.80767837961022
  0
LINE
  8
_0-0_0
  6
CONTINUOUS
 62
    7
 10
1038.6044064179205
 20
383.84601173193408
 11
1035.2439426185911
 21
414.01385389941601
  0
ARC
  8
_0-0_0
  6
CONTINUOUS
 62
    7
 10
788.55518652237879
 20
349.29645099336631
 40
252.42446341988847
 50
359.73689930175328
 51
7.8608469545433559
  0
ARC
  8
_0-0_0
  6
CONTINUOUS
 62
    7
 10
789.35945086125048
 20
349.32127479800147
 40
265.62032308684604
 50
359.73072484777941
 51
7.8111100121338488
  0
LINE
  8
_0-0_0
  6
CONTINUOUS
 62
    7
 10
1054.9768515478472
 20
348.07763551499613
 11
1054.9769808498886
 21
292.50799503238221
  0
LINE
  8
_0-0_0
  6
CONTINUOUS
 62
    7
 10
1040.9769780649485
 20
348.13273667586964
 11
1040.9769780649485
 21
292.50799270553534
  0
LINE
  8
_0-0_0
  6
CONTINUOUS
 62
    7
 10
1054.9769808498886
 20
292.50799270553534
 11
1040.9769780649485
 21
292.50799270553534
  0
LINE
  8
_0-0_0
  6
CONTINUOUS
 62
    7
 10
1055.1883205579909
 20
1192.5079927055353
 11
1041.1883143943896
 21
1192.5079927055353
  0
ENDSEC
  0
EOF
