  0
SECTION
  2
HEADER
  9
$ACADVER
  1
AC1009
  9
$INSBASE
 10
0
 20
0
 30
0
  9
$EXTMIN
 10
0
 20
0
  9
$EXTMAX
 10
2100
 20
1485
  9
$LIMMIN
 10
0
 20
0
  9
$LIMMAX
 10
2100
 20
1485
  9
$LTSCALE
 40
5
  0
ENDSEC
  0
SECTION
  2
TABLES
  0
TABLE
  2
LTYPE
 70
     9
  0
LTYPE
  2
CONTINUOUS
 70
    64
  3
実線
 72
    65
 73
     0
 40
0.0
  0
LTYPE
  2
DASHED1
 70
    64
  3
--  --  --  --  --  --  --  --  
 72
    65
 73
     2
 40
2.5
 49
1.25
 49
-1.25
  0
LTYPE
  2
DASHED2
 70
    64
  3
----    ----    ----    ----    
 72
    65
 73
     2
 40
5.0
 49
2.5
 49
-2.5
  0
LTYPE
  2
DASHED3
 70
    64
  3
------  ------  ------  ------  
 72
    65
 73
     2
 40
5.0
 49
3.75
 49
-1.25
  0
LTYPE
  2
CENTER1
 70
    64
  3
----- - ----- - ----- - ----- - 
 72
    65
 73
     4
 40
10.0
 49
6.25
 49
-1.25
 49
1.25
 49
-1.25
  0
LTYPE
  2
CENTER2
 70
    64
  3
----------  --  ----------  --  
 72
    65
 73
     4
 40
20.0
 49
12.5
 49
-2.5
 49
2.5
 49
-2.5
  0
LTYPE
  2
PHANTOM1
 70
    64
  3
--- - - --- - - --- - - --- - - 
 72
    65
 73
     6
 40
10.0
 49
3.25
 49
-1.25
 49
1.25
 49
-1.25
 49
1.25
 49
-1.25
  0
LTYPE
  2
PHANTOM2
 70
    64
  3
--------  -  -  --------  -  -  
 72
    65
 73
     6
 40
20.0
 49
10.0
 49
-2.5
 49
1.25
 49
-2.5
 49
1.25
 49
-2.5
  0
LTYPE
  2
DOT
 70
    64
  3
-   -   -   -   -   -   -   -   
 72
    65
 73
     2
 40
2.5
 49
0.625
 49
-1.875
  0
LTYPE
  2
DUMMY
 70
    64
  3
ダミー
 72
    65
 73
     0
 40
0.0
  0
LTYPE
  2
RAND1
 70
    64
  3
ランダム線1
 72
    65
 73
     4
 40
10.0
 49
1.0
 49
-2.0
 49
3.0
 49
-4.0
  0
LTYPE
  2
RAND2
 70
    64
  3
ランダム線2
 72
    65
 73
     4
 40
14.0
 49
2.0
 49
-3.0
 49
4.0
 49
-5.0
  0
LTYPE
  2
RAND3
 70
    64
  3
ランダム線3
 72
    65
 73
     4
 40
18.0
 49
3.0
 49
-4.0
 49
5.0
 49
-6.0
  0
LTYPE
  2
RAND4
 70
    64
  3
ランダム線4
 72
    65
 73
     4
 40
22.0
 49
4.0
 49
-5.0
 49
6.0
 49
-7.0
  0
LTYPE
  2
RAND5
 70
    64
  3
ランダム線5
 72
    65
 73
     4
 40
26.0
 49
5.0
 49
-6.0
 49
7.0
 49
-8.0
  0
LTYPE
  2
LONG1
 70
    64
  3
----------  --  ----------  --  
 72
    65
 73
     4
 40
40.0
 49
32.5
 49
-2.5
 49
2.5
 49
-2.5
  0
LTYPE
  2
LONG2
 70
    64
  3
--------  -  -  --------  -  -  
 72
    65
 73
     6
 40
40.0
 49
30.0
 49
-2.5
 49
1.25
 49
-2.5
 49
1.25
 49
-2.5
  0
LTYPE
  2
LONG3
 70
    64
  3
+++++++++++++++..+++++++++++++++
 72
    65
 73
     2
 40
40.0
 49
37.5
 49
-2.5
  0
LTYPE
  2
LONG4
 70
    64
  3
+++++++++++++++..+++++++++++++++
 72
    65
 73
     2
 40
80.0
 49
75.0
 49
-5.0
  0
LTYPE
  2
LONG5
 70
    64
  3
----------  --  ----------  --  
 72
    65
 73
     4
 40
60.0
 49
37.5
 49
-7.5
 49
7.5
 49
-7.5
  0
LTYPE
  2
dashed
 70
   64
  3
-------   -------------   ------
 72
   65
 73
    2
 40
7.5
 49
6
 49
-1.5
  0
LTYPE
  2
dashed_spaced
 70
   64
  3
----        --------        ----
 72
   65
 73
    2
 40
12
 49
6
 49
-6
  0
LTYPE
  2
long_dashed_dotted
 70
   64
  3
------------- --- --------------
 72
   65
 73
    4
 40
15.25
 49
12
 49
-1.5
 49
0.25
 49
-1.5
  0
LTYPE
  2
long_dashed_double-dotted
 70
   64
  3
----------- --- --- ------------
 72
   65
 73
    6
 40
17
 49
12
 49
-1.5
 49
0.25
 49
-1.5
 49
0.25
 49
-1.5
  0
LTYPE
  2
long_dashed_triplicate-dotted
 70
   64
  3
--------- --- --- --- ----------
 72
   65
 73
    8
 40
18.75
 49
12
 49
-1.5
 49
0.25
 49
-1.5
 49
0.25
 49
-1.5
 49
0.25
 49
-1.5
  0
LTYPE
  2
dotted
 70
   64
  3
   -       -       -       -    
 72
   65
 73
    2
 40
1.75
 49
0.25
 49
-1.5
  0
LTYPE
  2
chain
 70
   64
  3
-------------- -- --------------
 72
   65
 73
    4
 40
18.5
 49
12
 49
-1.5
 49
3.5
 49
-1.5
  0
LTYPE
  2
chain_double_dash
 70
   64
  3
------------ -- -- -------------
 72
   65
 73
    6
 40
23.5
 49
12
 49
-1.5
 49
3.5
 49
-1.5
 49
3.5
 49
-1.5
  0
LTYPE
  2
dashed_dotted
 70
   64
  3
-----------     -     ----------
 72
   65
 73
    4
 40
9.25
 49
6
 49
-1.5
 49
0.25
 49
-1.5
  0
LTYPE
  2
double-dashed_dotted
 70
   64
  3
------   -----------   -   -----
 72
   65
 73
    6
 40
16.75
 49
6
 49
-1.5
 49
6
 49
-1.5
 49
0.25
 49
-1.5
  0
LTYPE
  2
dashed_double-dotted
 70
   64
  3
---------    -    -    ---------
 72
   65
 73
    6
 40
11
 49
6
 49
-1.5
 49
0.25
 49
-1.5
 49
0.25
 49
-1.5
  0
LTYPE
  2
double-dashed_double-dotted
 70
   64
  3
-----   ---------   -   -   ----
 72
   65
 73
    8
 40
18.5
 49
6
 49
-1.5
 49
6
 49
-1.5
 49
0.25
 49
-1.5
 49
0.25
 49
-1.5
  0
LTYPE
  2
dashed_triplicate-dotted
 70
   64
  3
-------    -    -    -    ------
 72
   65
 73
    8
 40
12.75
 49
6
 49
-1.5
 49
0.25
 49
-1.5
 49
0.25
 49
-1.5
 49
0.25
 49
-1.5
  0
LTYPE
  2
double-dashed_triplicate-dotted
 70
   64
  3
-----  ---------  -  -  -  -----
 72
   65
 73
   10
 40
20.25
 49
6
 49
-1.5
 49
6
 49
-1.5
 49
0.25
 49
-1.5
 49
0.25
 49
-1.5
 49
0.25
 49
-1.5
  0
LTYPE
  2
undefined
 70
   64
  3
--------------------------------
 72
   65
 73
    0
 40
0
  0
LTYPE
  2
LINEA-LINEETTA
 70
   64
  3
----------    ----    ----------
 72
   65
 73
    4
 40
2
 49
1.25
 49
-0.25
 49
0.25
 49
-0.25
  0
LTYPE
  2
NASCOSTA
 70
   64
  3
------     -----------     -----
 72
   65
 73
    2
 40
0.375
 49
0.25
 49
-0.125
  0
LTYPE
  2
BORDER
 70
   64
  3
----     --------     -     ----
 72
   65
 73
    6
 40
1.76
 49
0.5
 49
-0.25
 49
0.5
 49
-0.25
 49
0.01
 49
-0.25
  0
LTYPE
  2
BORDER2
 70
   64
  3
----     --------     -     ----
 72
   65
 73
    6
 40
0.885
 49
0.25
 49
-0.125
 49
0.25
 49
-0.125
 49
0.01
 49
-0.125
  0
LTYPE
  2
BORDERX2
 70
   64
  3
----     --------     -     ----
 72
   65
 73
    6
 40
3.5099999999999998
 49
1
 49
-0.5
 49
1
 49
-0.5
 49
0.01
 49
-0.5
  0
LTYPE
  2
CENTER2_22
 70
   64
  3
----------    ----    ----------
 72
   65
 73
    4
 40
1.125
 49
0.75
 49
-0.125
 49
0.125
 49
-0.125
  0
LTYPE
  2
CENTERX2
 70
   64
  3
----------    ----    ----------
 72
   65
 73
    4
 40
4
 49
2.5
 49
-0.5
 49
0.5
 49
-0.5
  0
LTYPE
  2
DASHDOT
 70
   64
  3
--------        -        -------
 72
   65
 73
    4
 40
1.01
 49
0.5
 49
-0.25
 49
0.01
 49
-0.25
  0
LTYPE
  2
DASHDOT2
 70
   64
  3
--------        -        -------
 72
   65
 73
    4
 40
0.51
 49
0.25
 49
-0.125
 49
0.01
 49
-0.125
  0
LTYPE
  2
DASHDOTX2
 70
   64
  3
--------        -        -------
 72
   65
 73
    4
 40
2.0099999999999998
 49
1
 49
-0.5
 49
0.01
 49
-0.5
  0
LTYPE
  2
DASHED
 70
   64
  3
------     -----------     -----
 72
   65
 73
    2
 40
0.75
 49
0.5
 49
-0.25
  0
LTYPE
  2
DASHEDX2
 70
   64
  3
------     -----------     -----
 72
   65
 73
    2
 40
1.5
 49
1
 49
-0.5
  0
LTYPE
  2
DIVIDE
 70
   64
  3
------      -      -      ------
 72
   65
 73
    6
 40
1.27
 49
0.5
 49
-0.25
 49
0.01
 49
-0.25
 49
0.01
 49
-0.25
  0
LTYPE
  2
DIVIDE2
 70
   64
  3
------      -      -      ------
 72
   65
 73
    6
 40
0.645
 49
0.25
 49
-0.125
 49
0.01
 49
-0.125
 49
0.01
 49
-0.125
  0
LTYPE
  2
DIVIDEX2
 70
   64
  3
------      -      -      ------
 72
   65
 73
    6
 40
2.5199999999999996
 49
1
 49
-0.5
 49
0.01
 49
-0.5
 49
0.01
 49
-0.5
  0
LTYPE
  2
DOT_32
 70
   64
  3
-               -               
 72
   65
 73
    2
 40
0.26
 49
0.01
 49
-0.25
  0
ENDTAB
  0
TABLE
  2
STYLE
  5
3
100
AcDbSymbolTable
 70
     1
  0
STYLE
  5
10
100
AcDbSymbolTableRecord
100
AcDbTextStyleTableRecord
  2
STANDARD
 70
     0
 40
0.0
 41
1.0
 50
0.0
 71
     0
 42
0.2
  3
txt
  4
bigfont.shx
  0
STYLE
  5
26
100
AcDbSymbolTableRecord
100
AcDbTextStyleTableRecord
  2
TATEGAKI
 70
    68
 40
0.0
 41
1.0
 50
0.0
 71
     0
 42
1.0
  3
txt
  4
bigfont.shx
  0
ENDTAB
  0
TABLE
  2
LAYER
 70
    2
  0
LAYER
  2
_0-0_0
 70
   64
 62
    7
  6
CONTINUOUS
  0
LAYER
  2
ADD_LINE
 70
   64
 62
    7
  6
CONTINUOUS
  0
ENDTAB
  0
ENDSEC
  0
SECTION
  2
BLOCKS
  0
ENDSEC
  0
SECTION
  2
ENTITIES
  0
LINE
  8
_0-0_0
  6
CONTINUOUS
 62
    7
 10
884.81175185777124
 20
608.53854223502492
 11
884.7260518226758
 21
608.06474157584512
  0
LINE
  8
_0-0_0
  6
CONTINUOUS
 62
    7
 10
876.21396960355219
 20
561.56765600455617
 11
876.21396960355219
 21
564.39904638541543
  0
LINE
  8
_0-0_0
  6
CONTINUOUS
 62
    7
 10
885.31743098832533
 20
557.56765600455606
 11
867.31743098832544
 21
557.56765600455606
  0
LINE
  8
_0-0_0
  6
CONTINUOUS
 62
    7
 10
867.31743098832544
 20
551.56765600455617
 11
885.31743098832533
 21
551.56765600455617
  0
LINE
  8
_0-0_0
  6
CONTINUOUS
 62
    7
 10
867.31743098832544
 20
557.56765600455606
 11
867.31743098832544
 21
560.56765600455617
  0
LINE
  8
_0-0_0
  6
CONTINUOUS
 62
    7
 10
885.31743098832533
 20
557.56765600455606
 11
885.31743098832533
 21
560.56765600455617
  0
LINE
  8
_0-0_0
  6
CONTINUOUS
 62
    7
 10
884.31743098832521
 20
561.56765600455617
 11
868.31743146516249
 21
561.56765600455617
  0
LINE
  8
_0-0_0
  6
CONTINUOUS
 62
    7
 10
885.31743098832533
 20
551.56765600455617
 11
885.31743098832533
 21
548.56765600455617
  0
LINE
  8
_0-0_0
  6
CONTINUOUS
 62
    7
 10
867.31743098832544
 20
551.56765600455617
 11
867.31743098832544
 21
548.56765600455617
  0
LINE
  8
_0-0_0
  6
CONTINUOUS
 62
    7
 10
868.31743146516249
 20
547.56765600455606
 11
884.31743098832521
 21
547.56765600455606
  0
LINE
  8
_0-0_0
  6
CONTINUOUS
 62
    7
 10
885.31743098832533
 20
420.33924719107949
 11
867.31743098832544
 21
420.33924719107949
  0
LINE
  8
_0-0_0
  6
CONTINUOUS
 62
    7
 10
867.31743098832544
 20
414.33924719107955
 11
885.31743098832533
 21
414.33924719107955
  0
LINE
  8
_0-0_0
  6
CONTINUOUS
 62
    7
 10
867.31743098832544
 20
420.33924719107949
 11
867.31743098832544
 21
423.33924719107955
  0
LINE
  8
_0-0_0
  6
CONTINUOUS
 62
    7
 10
885.31743098832533
 20
420.33924719107949
 11
885.31743098832533
 21
423.33924719107955
  0
LINE
  8
_0-0_0
  6
CONTINUOUS
 62
    7
 10
884.31743098832521
 20
424.33924719107949
 11
868.31743146516249
 21
424.33924719107949
  0
LINE
  8
_0-0_0
  6
CONTINUOUS
 62
    7
 10
885.31743098832533
 20
414.33924719107955
 11
885.31743098832533
 21
411.33924719107949
  0
LINE
  8
_0-0_0
  6
CONTINUOUS
 62
    7
 10
867.31743098832544
 20
414.33924719107955
 11
867.31743098832544
 21
411.33924719107949
  0
LINE
  8
_0-0_0
  6
CONTINUOUS
 62
    7
 10
868.31743146516249
 20
410.33924719107949
 11
884.31743098832521
 21
410.33924719107949
  0
LINE
  8
_0-0_0
  6
CONTINUOUS
 62
    7
 10
866.8565850410597
 20
900.0799393297516
 11
884.8565850410597
 21
900.0799393297516
  0
LINE
  8
_0-0_0
  6
CONTINUOUS
 62
    7
 10
866.8565850410597
 20
906.07993932975148
 11
866.8565850410597
 21
909.07993932975148
  0
LINE
  8
_0-0_0
  6
CONTINUOUS
 62
    7
 10
884.8565850410597
 20
906.07993932975148
 11
884.8565850410597
 21
909.07993932975148
  0
LINE
  8
_0-0_0
  6
CONTINUOUS
 62
    7
 10
884.8565850410597
 20
900.0799393297516
 11
884.8565850410597
 21
897.07993932975137
  0
LINE
  8
_0-0_0
  6
CONTINUOUS
 62
    7
 10
866.8565850410597
 20
900.0799393297516
 11
866.8565850410597
 21
897.07993932975137
  0
LINE
  8
_0-0_0
  6
CONTINUOUS
 62
    7
 10
867.8565850410597
 20
896.07993932975148
 11
883.85658551789686
 21
896.07993932975148
  0
LINE
  8
_0-0_0
  6
CONTINUOUS
 62
    7
 10
885.332949176802
 20
1041.5148453356107
 11
867.33294917680178
 21
1041.5148453356107
  0
LINE
  8
_0-0_0
  6
CONTINUOUS
 62
    7
 10
867.33294917680178
 20
1035.5148453356107
 11
885.332949176802
 21
1035.5148453356107
  0
LINE
  8
_0-0_0
  6
CONTINUOUS
 62
    7
 10
867.33294917680178
 20
1041.5148453356107
 11
867.33294917680178
 21
1044.514845335611
  0
LINE
  8
_0-0_0
  6
CONTINUOUS
 62
    7
 10
885.332949176802
 20
1041.5148453356107
 11
885.332949176802
 21
1044.514845335611
  0
LINE
  8
_0-0_0
  6
CONTINUOUS
 62
    7
 10
884.33294917680189
 20
1045.5148453356107
 11
868.33294965363905
 21
1045.5148453356107
  0
LINE
  8
_0-0_0
  6
CONTINUOUS
 62
    7
 10
885.332949176802
 20
1035.5148453356107
 11
885.332949176802
 21
1032.5148453356107
  0
LINE
  8
_0-0_0
  6
CONTINUOUS
 62
    7
 10
867.33294917680178
 20
1035.5148453356107
 11
867.33294917680178
 21
1032.5148453356107
  0
LINE
  8
_0-0_0
  6
CONTINUOUS
 62
    7
 10
868.33294965363905
 20
1031.5148453356107
 11
884.33294917680189
 21
1031.5148453356107
  0
LINE
  8
_0-0_0
  6
CONTINUOUS
 62
    7
 10
866.8565850410597
 20
906.07993932975148
 11
884.8565850410597
 21
906.07993932975148
  0
LINE
  8
_0-0_0
  6
CONTINUOUS
 62
    7
 10
870.31743146516249
 20
420.33924719107949
 11
882.31743146516249
 21
420.33924719107949
  0
LINE
  8
_0-0_0
  6
CONTINUOUS
 62
    7
 10
870.31743146516249
 20
420.33924719107949
 11
882.31743146516249
 21
420.33924719107949
  0
LINE
  8
_0-0_0
  6
CONTINUOUS
 62
    7
 10
876.47160060740873
 20
910.0799393297516
 11
876.35146260298654
 21
910.0799393297516
  0
LINE
  8
_0-0_0
  6
CONTINUOUS
 62
    7
 10
882.31743146516249
 20
910.0799393297516
 11
882.26444579698011
 21
910.0799393297516
  0
LINE
  8
_0-0_0
  6
CONTINUOUS
 62
    7
 10
867.8565850410597
 20
910.0799393297516
 11
883.85658551789686
 21
910.0799393297516
  0
LINE
  8
_0-0_0
  6
CONTINUOUS
 62
    7
 10
883.85658551789686
 20
910.0799393297516
 11
867.8565850410597
 21
910.0799393297516
  0
LINE
  8
_0-0_0
  6
CONTINUOUS
 62
    7
 10
870.31743575669691
 20
906.07995458854043
 11
882.31743146516249
 21
906.07995458854043
  0
LINE
  8
_0-0_0
  6
CONTINUOUS
 62
    7
 10
870.31743575669691
 20
906.07995458854043
 11
882.31743146516249
 21
906.07995458854043
  0
LINE
  8
_0-0_0
  6
CONTINUOUS
 62
    7
 10
870.31743575669691
 20
906.07995458854043
 11
882.31743146516249
 21
906.07995458854043
  0
LINE
  8
_0-0_0
  6
CONTINUOUS
 62
    7
 10
870.31743575669691
 20
906.07995458854043
 11
882.31743146516249
 21
906.07995458854043
  0
LINE
  8
_0-0_0
  6
CONTINUOUS
 62
    7
 10
870.31743575669691
 20
914.30038305533742
 11
870.31743575669691
 21
910.0799393297516
  0
LINE
  8
_0-0_0
  6
CONTINUOUS
 62
    7
 10
870.31743575669691
 20
914.30038305533742
 11
870.31743575669691
 21
910.0799393297516
  0
LINE
  8
_0-0_0
  6
CONTINUOUS
 62
    7
 10
870.31743575669691
 20
914.30038305533742
 11
870.31743575669691
 21
910.0799393297516
  0
LINE
  8
_0-0_0
  6
CONTINUOUS
 62
    7
 10
870.31743575669691
 20
914.30038305533742
 11
870.31743575669691
 21
910.0799393297516
  0
LINE
  8
_0-0_0
  6
CONTINUOUS
 62
    7
 10
870.31743575669691
 20
914.30038305533742
 11
870.31743575669691
 21
910.0799393297516
  0
LINE
  8
_0-0_0
  6
CONTINUOUS
 62
    7
 10
870.31743575669691
 20
914.30038305533742
 11
870.31743575669691
 21
910.0799393297516
  0
LINE
  8
_0-0_0
  6
CONTINUOUS
 62
    7
 10
870.31743575669691
 20
914.30038305533742
 11
870.31743575669691
 21
910.0799393297516
  0
LINE
  8
_0-0_0
  6
CONTINUOUS
 62
    7
 10
882.31743146516249
 20
910.0799393297516
 11
882.31743146516249
 21
910.34875341666543
  0
LINE
  8
_0-0_0
  6
CONTINUOUS
 62
    7
 10
870.32738448716577
 20
432.97294470084518
 11
870.32738448716577
 21
424.7525162340483
  0
LINE
  8
_0-0_0
  6
CONTINUOUS
 62
    7
 10
870.32738448716577
 20
432.97294470084518
 11
870.32738448716577
 21
424.7525162340483
  0
LINE
  8
_0-0_0
  6
CONTINUOUS
 62
    7
 10
870.32738448716577
 20
432.97294470084518
 11
870.32738448716577
 21
424.7525162340483
  0
LINE
  8
_0-0_0
  6
CONTINUOUS
 62
    7
 10
870.32738448716577
 20
432.97294470084518
 11
870.32738448716577
 21
424.7525162340483
  0
LINE
  8
_0-0_0
  6
CONTINUOUS
 62
    7
 10
870.32738448716577
 20
432.97294470084518
 11
870.32738448716577
 21
424.7525162340483
  0
LINE
  8
_0-0_0
  6
CONTINUOUS
 62
    7
 10
870.32738448716577
 20
432.97294470084518
 11
870.32738448716577
 21
424.7525162340483
  0
LINE
  8
_0-0_0
  6
CONTINUOUS
 62
    7
 10
870.32738448716577
 20
432.97294470084518
 11
870.32738448716577
 21
424.7525162340483
  0
LINE
  8
_0-0_0
  6
CONTINUOUS
 62
    7
 10
882.32738257981714
 20
424.7525162340483
 11
882.32738257981714
 21
429.0213150621733
  0
LINE
  8
_0-0_0
  6
CONTINUOUS
 62
    7
 10
870.33294965363905
 20
1045.5148453356107
 11
870.33294965363905
 21
1177.9270462633451
  0
LINE
  8
_0-0_0
  6
CONTINUOUS
 62
    7
 10
882.33294965363916
 20
1177.9270462633451
 11
882.33294965363916
 21
1045.5148453356107
  0
LINE
  8
_0-0_0
  6
CONTINUOUS
 62
    7
 10
882.33294965363916
 20
277.92704626334512
 11
870.33294965363905
 21
277.92704626334512
  0
LINE
  8
_0-0_0
  6
CONTINUOUS
 62
    7
 10
870.33294965363905
 20
277.92704626334512
 11
870.33294965363905
 21
410.33924719107949
  0
LINE
  8
_0-0_0
  6
CONTINUOUS
 62
    7
 10
882.33294965363916
 20
277.92704626334512
 11
882.33294965363916
 21
410.33924719107949
  0
LINE
  8
_0-0_0
  6
CONTINUOUS
 62
    7
 10
870.37273265458509
 20
735.26845833075856
 11
870.19083263017114
 21
735.71175667060231
  0
LINE
  8
_0-0_0
  6
CONTINUOUS
 62
    7
 10
870.19083263017114
 20
735.71175667060231
 11
870.01413251496717
 21
736.15896173728311
  0
LINE
  8
_0-0_0
  6
CONTINUOUS
 62
    7
 10
870.01413251496717
 20
736.15896173728311
 11
869.84283258057997
 21
736.60885187400197
  0
LINE
  8
_0-0_0
  6
CONTINUOUS
 62
    7
 10
869.84283258057997
 20
736.60885187400197
 11
869.67723275758192
 21
737.06026788962686
  0
LINE
  8
_0-0_0
  6
CONTINUOUS
 62
    7
 10
869.67723275758192
 20
737.06026788962686
 11
869.51693250276003
 21
737.5141558290801
  0
LINE
  8
_0-0_0
  6
CONTINUOUS
 62
    7
 10
869.51693250276003
 20
737.5141558290801
 11
869.3623328361648
 21
737.97005792868947
  0
LINE
  8
_0-0_0
  6
CONTINUOUS
 62
    7
 10
869.3623328361648
 20
737.97005792868947
 11
869.21353246308729
 21
738.4273638368926
  0
LINE
  8
_0-0_0
  6
CONTINUOUS
 62
    7
 10
869.21353246308729
 20
738.4273638368926
 11
869.07023288346693
 21
738.8869585634551
  0
LINE
  8
_0-0_0
  6
CONTINUOUS
 62
    7
 10
869.07023288346693
 20
738.8869585634551
 11
868.93263246156141
 21
739.3482622743926
  0
LINE
  8
_0-0_0
  6
CONTINUOUS
 62
    7
 10
868.93263246156141
 20
739.3482622743926
 11
868.80083276368532
 21
739.81066461814248
  0
LINE
  8
_0-0_0
  6
CONTINUOUS
 62
    7
 10
868.80083276368532
 20
739.81066461814248
 11
868.67463256455824
 21
740.2752642275176
  0
LINE
  8
_0-0_0
  6
CONTINUOUS
 62
    7
 10
868.67463256455824
 20
740.2752642275176
 11
868.5541324768202
 21
740.74135919822072
  0
LINE
  8
_0-0_0
  6
CONTINUOUS
 62
    7
 10
868.5541324768202
 20
740.74135919822072
 11
868.43953277207777
 21
741.20836969626748
  0
LINE
  8
_0-0_0
  6
CONTINUOUS
 62
    7
 10
868.43953277207777
 20
741.20836969626748
 11
868.33063222505018
 21
741.67727228415811
  0
LINE
  8
_0-0_0
  6
CONTINUOUS
 62
    7
 10
868.33063222505018
 20
741.67727228415811
 11
868.22753192521509
 21
742.14754816306436
  0
LINE
  8
_0-0_0
  6
CONTINUOUS
 62
    7
 10
868.22753192521509
 20
742.14754816306436
 11
868.13033153153822
 21
742.61846491111123
  0
LINE
  8
_0-0_0
  6
CONTINUOUS
 62
    7
 10
868.13033153153822
 20
742.61846491111123
 11
868.03883124925062
 21
743.0910601259551
  0
LINE
  8
_0-0_0
  6
CONTINUOUS
 62
    7
 10
868.03883124925062
 20
743.0910601259551
 11
867.95313216782972
 21
743.56484552634572
  0
LINE
  8
_0-0_0
  6
CONTINUOUS
 62
    7
 10
867.95313216782972
 20
743.56484552634572
 11
867.87343169785902
 21
744.03896566642129
  0
LINE
  8
_0-0_0
  6
CONTINUOUS
 62
    7
 10
867.87343169785902
 20
744.03896566642129
 11
867.79943133927748
 21
744.51464315665578
  0
LINE
  8
_0-0_0
  6
CONTINUOUS
 62
    7
 10
867.79943133927748
 20
744.51464315665578
 11
867.73143149949476
 21
744.99126669181192
  0
LINE
  8
_0-0_0
  6
CONTINUOUS
 62
    7
 10
867.73143149949476
 20
744.99126669181192
 11
867.66923190690454
 21
745.4680428148589
  0
LINE
  8
_0-0_0
  6
CONTINUOUS
 62
    7
 10
867.66923190690454
 20
745.4680428148589
 11
867.61303187943872
 21
745.94625326407765
  0
LINE
  8
_0-0_0
  6
CONTINUOUS
 62
    7
 10
867.61303187943872
 20
745.94625326407765
 11
867.56263209916506
 21
746.4249519945464
  0
LINE
  8
_0-0_0
  6
CONTINUOUS
 62
    7
 10
867.56263209916506
 20
746.4249519945464
 11
867.51813174821314
 21
746.90377279532765
  0
LINE
  8
_0-0_0
  6
CONTINUOUS
 62
    7
 10
867.51813174821314
 20
746.90377279532765
 11
867.47963191605982
 21
747.38366171134328
  0
LINE
  8
_0-0_0
  6
CONTINUOUS
 62
    7
 10
867.47963191605982
 20
747.38366171134328
 11
867.44703151322767
 21
747.86336752189015
  0
LINE
  8
_0-0_0
  6
CONTINUOUS
 62
    7
 10
867.44703151322767
 20
747.86336752189015
 11
867.42023135758802
 21
748.34404989493703
  0
LINE
  8
_0-0_0
  6
CONTINUOUS
 62
    7
 10
867.42023135758802
 20
748.34404989493703
 11
867.39953185655042
 21
748.82506796134317
  0
LINE
  8
_0-0_0
  6
CONTINUOUS
 62
    7
 10
867.39953185655042
 20
748.82506796134317
 11
867.38463164903101
 21
749.30565878165578
  0
LINE
  8
_0-0_0
  6
CONTINUOUS
 62
    7
 10
867.38463164903101
 20
749.30565878165578
 11
867.37573196031019
 21
749.78695150626504
  0
LINE
  8
_0-0_0
  6
CONTINUOUS
 62
    7
 10
867.37573196031019
 20
749.78695150626504
 11
867.37273170091066
 21
750.2684578539214
  0
LINE
  8
_0-0_0
  6
CONTINUOUS
 62
    7
 10
867.37273170091066
 20
750.2684578539214
 11
867.37573196031019
 21
750.74926229728078
  0
LINE
  8
_0-0_0
  6
CONTINUOUS
 62
    7
 10
867.37573196031019
 20
750.74926229728078
 11
867.38463164903101
 21
751.23055502189015
  0
LINE
  8
_0-0_0
  6
CONTINUOUS
 62
    7
 10
867.38463164903101
 20
751.23055502189015
 11
867.39953185655042
 21
751.71175619376515
  0
LINE
  8
_0-0_0
  6
CONTINUOUS
 62
    7
 10
867.39953185655042
 20
751.71175619376515
 11
867.42023135758802
 21
752.1921639086089
  0
LINE
  8
_0-0_0
  6
CONTINUOUS
 62
    7
 10
867.42023135758802
 20
752.1921639086089
 11
867.44693137742445
 21
752.67284628165567
  0
LINE
  8
_0-0_0
  6
CONTINUOUS
 62
    7
 10
867.44693137742445
 20
752.67284628165567
 11
867.47963191605982
 21
753.15316244376515
  0
LINE
  8
_0-0_0
  6
CONTINUOUS
 62
    7
 10
867.47963191605982
 20
753.15316244376515
 11
867.51813174821314
 21
753.63247152579629
  0
LINE
  8
_0-0_0
  6
CONTINUOUS
 62
    7
 10
867.51813174821314
 20
753.63247152579629
 11
867.56263209916506
 21
754.11187216056203
  0
LINE
  8
_0-0_0
  6
CONTINUOUS
 62
    7
 10
867.56263209916506
 20
754.11187216056203
 11
867.61303187943872
 21
754.59057089103067
  0
LINE
  8
_0-0_0
  6
CONTINUOUS
 62
    7
 10
867.61303187943872
 20
754.59057089103067
 11
867.66923190690454
 21
755.06817098868692
  0
LINE
  8
_0-0_0
  6
CONTINUOUS
 62
    7
 10
867.66923190690454
 20
755.06817098868692
 11
867.73143149949476
 21
755.5455574632964
  0
LINE
  8
_0-0_0
  6
CONTINUOUS
 62
    7
 10
867.73143149949476
 20
755.5455574632964
 11
867.79943133927748
 21
756.02215048087442
  0
LINE
  8
_0-0_0
  6
CONTINUOUS
 62
    7
 10
867.79943133927748
 20
756.02215048087442
 11
867.8733315620558
 21
756.49724813712453
  0
LINE
  8
_0-0_0
  6
CONTINUOUS
 62
    7
 10
867.8733315620558
 20
756.49724813712453
 11
867.95313216782972
 21
756.9719490648589
  0
LINE
  8
_0-0_0
  6
CONTINUOUS
 62
    7
 10
867.95313216782972
 20
756.9719490648589
 11
868.03883124925062
 21
757.44576498282765
  0
LINE
  8
_0-0_0
  6
CONTINUOUS
 62
    7
 10
868.03883124925062
 20
757.44576498282765
 11
868.130231395735
 21
757.91774984610879
  0
LINE
  8
_0-0_0
  6
CONTINUOUS
 62
    7
 10
868.130231395735
 20
757.91774984610879
 11
868.22753192521509
 21
758.38924642814004
  0
LINE
  8
_0-0_0
  6
CONTINUOUS
 62
    7
 10
868.22753192521509
 20
758.38924642814004
 11
868.33053208924696
 21
758.85897299064015
  0
LINE
  8
_0-0_0
  6
CONTINUOUS
 62
    7
 10
868.33053208924696
 20
758.85897299064015
 11
868.43943263627455
 21
759.32784506095254
  0
LINE
  8
_0-0_0
  6
CONTINUOUS
 62
    7
 10
868.43943263627455
 20
759.32784506095254
 11
868.5541324768202
 21
759.79546591056203
  0
LINE
  8
_0-0_0
  6
CONTINUOUS
 62
    7
 10
868.5541324768202
 20
759.79546591056203
 11
868.67443276978884
 21
760.26095052970265
  0
LINE
  8
_0-0_0
  6
CONTINUOUS
 62
    7
 10
868.67443276978884
 20
760.26095052970265
 11
868.80063249207888
 21
760.72555013907754
  0
LINE
  8
_0-0_0
  6
CONTINUOUS
 62
    7
 10
868.80063249207888
 20
760.72555013907754
 11
868.93263246156141
 21
761.18856283439015
  0
LINE
  8
_0-0_0
  6
CONTINUOUS
 62
    7
 10
868.93263246156141
 20
761.18856283439015
 11
869.07003261186048
 21
761.64934774649953
  0
LINE
  8
_0-0_0
  6
CONTINUOUS
 62
    7
 10
869.07003261186048
 20
761.64934774649953
 11
869.21333266831789
 21
762.10897299064015
  0
LINE
  8
_0-0_0
  6
CONTINUOUS
 62
    7
 10
869.21333266831789
 20
762.10897299064015
 11
869.3623328361648
 21
762.56676718009328
  0
LINE
  8
_0-0_0
  6
CONTINUOUS
 62
    7
 10
869.3623328361648
 20
762.56676718009328
 11
869.51673270799097
 21
763.02205892814015
  0
LINE
  8
_0-0_0
  6
CONTINUOUS
 62
    7
 10
869.51673270799097
 20
763.02205892814015
 11
869.67703248597547
 21
763.47606893790567
  0
LINE
  8
_0-0_0
  6
CONTINUOUS
 62
    7
 10
869.67703248597547
 20
763.47606893790567
 11
869.84283258057997
 21
763.92794271720265
  0
LINE
  8
_0-0_0
  6
CONTINUOUS
 62
    7
 10
869.84283258057997
 20
763.92794271720265
 11
870.01393272019777
 21
764.3773445726714
  0
LINE
  8
_0-0_0
  6
CONTINUOUS
 62
    7
 10
870.01393272019777
 20
764.3773445726714
 11
870.19083263017114
 21
764.82506796134328
  0
LINE
  8
_0-0_0
  6
CONTINUOUS
 62
    7
 10
870.19083263017114
 20
764.82506796134328
 11
870.37333251573023
 21
765.27056356681203
  0
LINE
  8
_0-0_0
  6
CONTINUOUS
 62
    7
 10
870.37333251573023
 20
765.27056356681203
 11
870.37273265458509
 21
765.2684578539214
  0
LINE
  8
_0-0_0
  6
CONTINUOUS
 62
    7
 10
870.37273265458509
 20
765.2684578539214
 11
870.19083263017114
 21
765.71175619376515
  0
LINE
  8
_0-0_0
  6
CONTINUOUS
 62
    7
 10
870.19083263017114
 20
765.71175619376515
 11
870.01413251496717
 21
766.1589607836089
  0
LINE
  8
_0-0_0
  6
CONTINUOUS
 62
    7
 10
870.01413251496717
 20
766.1589607836089
 11
869.84283258057997
 21
766.60885092032754
  0
LINE
  8
_0-0_0
  6
CONTINUOUS
 62
    7
 10
869.84283258057997
 20
766.60885092032754
 11
869.67723275758192
 21
767.06026693595265
  0
LINE
  8
_0-0_0
  6
CONTINUOUS
 62
    7
 10
869.67723275758192
 20
767.06026693595265
 11
869.51693250276003
 21
767.51415487540567
  0
LINE
  8
_0-0_0
  6
CONTINUOUS
 62
    7
 10
869.51693250276003
 20
767.51415487540567
 11
869.3623328361648
 21
767.97005697501515
  0
LINE
  8
_0-0_0
  6
CONTINUOUS
 62
    7
 10
869.3623328361648
 20
767.97005697501515
 11
869.21353246308729
 21
768.42736288321828
  0
LINE
  8
_0-0_0
  6
CONTINUOUS
 62
    7
 10
869.21353246308729
 20
768.42736288321828
 11
869.07023288346693
 21
768.88695760978078
  0
LINE
  8
_0-0_0
  6
CONTINUOUS
 62
    7
 10
869.07023288346693
 20
768.88695760978078
 11
868.93263246156141
 21
769.34826132071817
  0
LINE
  8
_0-0_0
  6
CONTINUOUS
 62
    7
 10
868.93263246156141
 20
769.34826132071817
 11
868.80083276368532
 21
769.81066366446828
  0
LINE
  8
_0-0_0
  6
CONTINUOUS
 62
    7
 10
868.80083276368532
 20
769.81066366446828
 11
868.67463256455824
 21
770.27526327384317
  0
LINE
  8
_0-0_0
  6
CONTINUOUS
 62
    7
 10
868.67463256455824
 20
770.27526327384317
 11
868.5541324768202
 21
770.7413582445464
  0
LINE
  8
_0-0_0
  6
CONTINUOUS
 62
    7
 10
868.5541324768202
 20
770.7413582445464
 11
868.43953277207777
 21
771.20836874259328
  0
LINE
  8
_0-0_0
  6
CONTINUOUS
 62
    7
 10
868.43953277207777
 20
771.20836874259328
 11
868.33063222505018
 21
771.6772713304839
  0
LINE
  8
_0-0_0
  6
CONTINUOUS
 62
    7
 10
868.33063222505018
 20
771.6772713304839
 11
868.22753192521509
 21
772.14754720939015
  0
LINE
  8
_0-0_0
  6
CONTINUOUS
 62
    7
 10
868.22753192521509
 20
772.14754720939015
 11
868.13033153153822
 21
772.61846395743703
  0
LINE
  8
_0-0_0
  6
CONTINUOUS
 62
    7
 10
868.13033153153822
 20
772.61846395743703
 11
868.03883124925062
 21
773.09105917228078
  0
LINE
  8
_0-0_0
  6
CONTINUOUS
 62
    7
 10
868.03883124925062
 20
773.09105917228078
 11
867.95313216782972
 21
773.5648445726714
  0
LINE
  8
_0-0_0
  6
CONTINUOUS
 62
    7
 10
867.95313216782972
 20
773.5648445726714
 11
867.87343169785902
 21
774.03896566642129
  0
LINE
  8
_0-0_0
  6
CONTINUOUS
 62
    7
 10
867.87343169785902
 20
774.03896566642129
 11
867.79943133927748
 21
774.51464315665578
  0
LINE
  8
_0-0_0
  6
CONTINUOUS
 62
    7
 10
867.79943133927748
 20
774.51464315665578
 11
867.73143149949476
 21
774.99126669181192
  0
LINE
  8
_0-0_0
  6
CONTINUOUS
 62
    7
 10
867.73143149949476
 20
774.99126669181192
 11
867.66923190690454
 21
775.4680428148589
  0
LINE
  8
_0-0_0
  6
CONTINUOUS
 62
    7
 10
867.66923190690454
 20
775.4680428148589
 11
867.61303187943872
 21
775.94625326407765
  0
LINE
  8
_0-0_0
  6
CONTINUOUS
 62
    7
 10
867.61303187943872
 20
775.94625326407765
 11
867.56263209916506
 21
776.4249519945464
  0
LINE
  8
_0-0_0
  6
CONTINUOUS
 62
    7
 10
867.56263209916506
 20
776.4249519945464
 11
867.51813174821314
 21
776.90377279532765
  0
LINE
  8
_0-0_0
  6
CONTINUOUS
 62
    7
 10
867.51813174821314
 20
776.90377279532765
 11
867.47963191605982
 21
777.38366171134328
  0
LINE
  8
_0-0_0
  6
CONTINUOUS
 62
    7
 10
867.47963191605982
 20
777.38366171134328
 11
867.44703151322767
 21
777.86336752189015
  0
LINE
  8
_0-0_0
  6
CONTINUOUS
 62
    7
 10
867.44703151322767
 20
777.86336752189015
 11
867.42023135758802
 21
778.34404989493703
  0
LINE
  8
_0-0_0
  6
CONTINUOUS
 62
    7
 10
867.42023135758802
 20
778.34404989493703
 11
867.39953185655042
 21
778.82506796134317
  0
LINE
  8
_0-0_0
  6
CONTINUOUS
 62
    7
 10
867.39953185655042
 20
778.82506796134317
 11
867.38463164903101
 21
779.30565878165578
  0
LINE
  8
_0-0_0
  6
CONTINUOUS
 62
    7
 10
867.38463164903101
 20
779.30565878165578
 11
867.37573196031019
 21
779.78695150626504
  0
LINE
  8
_0-0_0
  6
CONTINUOUS
 62
    7
 10
867.37573196031019
 20
779.78695150626504
 11
867.37273170091066
 21
780.2684578539214
  0
LINE
  8
_0-0_0
  6
CONTINUOUS
 62
    7
 10
867.37273170091066
 20
780.2684578539214
 11
867.37573196031019
 21
780.74926229728078
  0
LINE
  8
_0-0_0
  6
CONTINUOUS
 62
    7
 10
867.37573196031019
 20
780.74926229728078
 11
867.38463164903101
 21
781.23055502189015
  0
LINE
  8
_0-0_0
  6
CONTINUOUS
 62
    7
 10
867.38463164903101
 20
781.23055502189015
 11
867.39953185655042
 21
781.71175619376515
  0
LINE
  8
_0-0_0
  6
CONTINUOUS
 62
    7
 10
867.39953185655042
 20
781.71175619376515
 11
867.42023135758802
 21
782.1921639086089
  0
LINE
  8
_0-0_0
  6
CONTINUOUS
 62
    7
 10
867.42023135758802
 20
782.1921639086089
 11
867.44693137742445
 21
782.67284628165567
  0
LINE
  8
_0-0_0
  6
CONTINUOUS
 62
    7
 10
867.44693137742445
 20
782.67284628165567
 11
867.47963191605982
 21
783.15316244376515
  0
LINE
  8
_0-0_0
  6
CONTINUOUS
 62
    7
 10
867.47963191605982
 20
783.15316244376515
 11
867.51813174821314
 21
783.63247152579629
  0
LINE
  8
_0-0_0
  6
CONTINUOUS
 62
    7
 10
867.51813174821314
 20
783.63247152579629
 11
867.56263209916506
 21
784.11187216056203
  0
LINE
  8
_0-0_0
  6
CONTINUOUS
 62
    7
 10
867.56263209916506
 20
784.11187216056203
 11
867.61303187943872
 21
784.59057089103067
  0
LINE
  8
_0-0_0
  6
CONTINUOUS
 62
    7
 10
867.61303187943872
 20
784.59057089103067
 11
867.66923190690454
 21
785.06817098868692
  0
LINE
  8
_0-0_0
  6
CONTINUOUS
 62
    7
 10
867.66923190690454
 20
785.06817098868692
 11
867.73143149949476
 21
785.5455574632964
  0
LINE
  8
_0-0_0
  6
CONTINUOUS
 62
    7
 10
867.73143149949476
 20
785.5455574632964
 11
867.79943133927748
 21
786.02215048087442
  0
LINE
  8
_0-0_0
  6
CONTINUOUS
 62
    7
 10
867.79943133927748
 20
786.02215048087442
 11
867.8733315620558
 21
786.49724813712453
  0
LINE
  8
_0-0_0
  6
CONTINUOUS
 62
    7
 10
867.8733315620558
 20
786.49724813712453
 11
867.95313216782972
 21
786.9719490648589
  0
LINE
  8
_0-0_0
  6
CONTINUOUS
 62
    7
 10
867.95313216782972
 20
786.9719490648589
 11
868.03883124925062
 21
787.44576498282765
  0
LINE
  8
_0-0_0
  6
CONTINUOUS
 62
    7
 10
868.03883124925062
 20
787.44576498282765
 11
868.130231395735
 21
787.91774984610879
  0
LINE
  8
_0-0_0
  6
CONTINUOUS
 62
    7
 10
868.130231395735
 20
787.91774984610879
 11
868.22753192521509
 21
788.38924642814004
  0
LINE
  8
_0-0_0
  6
CONTINUOUS
 62
    7
 10
868.22753192521509
 20
788.38924642814004
 11
868.33053208924696
 21
788.85897299064015
  0
LINE
  8
_0-0_0
  6
CONTINUOUS
 62
    7
 10
868.33053208924696
 20
788.85897299064015
 11
868.43943263627455
 21
789.32784506095254
  0
LINE
  8
_0-0_0
  6
CONTINUOUS
 62
    7
 10
868.43943263627455
 20
789.32784506095254
 11
868.5541324768202
 21
789.79546591056203
  0
LINE
  8
_0-0_0
  6
CONTINUOUS
 62
    7
 10
868.5541324768202
 20
789.79546591056203
 11
868.67443276978884
 21
790.26095052970265
  0
LINE
  8
_0-0_0
  6
CONTINUOUS
 62
    7
 10
868.67443276978884
 20
790.26095052970265
 11
868.80063249207888
 21
790.72555013907754
  0
LINE
  8
_0-0_0
  6
CONTINUOUS
 62
    7
 10
868.80063249207888
 20
790.72555013907754
 11
868.93263246156141
 21
791.18856283439015
  0
LINE
  8
_0-0_0
  6
CONTINUOUS
 62
    7
 10
868.93263246156141
 20
791.18856283439015
 11
869.07003261186048
 21
791.64934774649953
  0
LINE
  8
_0-0_0
  6
CONTINUOUS
 62
    7
 10
869.07003261186048
 20
791.64934774649953
 11
869.21333266831789
 21
792.10897680533731
  0
LINE
  8
_0-0_0
  6
CONTINUOUS
 62
    7
 10
869.21333266831789
 20
792.10897680533731
 11
869.3623328361648
 21
792.56677099479043
  0
LINE
  8
_0-0_0
  6
CONTINUOUS
 62
    7
 10
869.3623328361648
 20
792.56677099479043
 11
869.51673270799097
 21
793.02206274283731
  0
LINE
  8
_0-0_0
  6
CONTINUOUS
 62
    7
 10
869.51673270799097
 20
793.02206274283731
 11
869.67703248597547
 21
793.47607275260305
  0
LINE
  8
_0-0_0
  6
CONTINUOUS
 62
    7
 10
869.67703248597547
 20
793.47607275260305
 11
869.84283258057997
 21
793.92794653189992
  0
LINE
  8
_0-0_0
  6
CONTINUOUS
 62
    7
 10
869.84283258057997
 20
793.92794653189992
 11
870.01393272019777
 21
794.37734838736856
  0
LINE
  8
_0-0_0
  6
CONTINUOUS
 62
    7
 10
870.01393272019777
 20
794.37734838736856
 11
870.19083263017114
 21
794.82507177604043
  0
LINE
  8
_0-0_0
  6
CONTINUOUS
 62
    7
 10
870.19083263017114
 20
794.82507177604043
 11
870.37333251573023
 21
795.2705673815093
  0
LINE
  8
_0-0_0
  6
CONTINUOUS
 62
    7
 10
870.37333251573023
 20
795.2705673815093
 11
870.37273265458509
 21
795.26846166861856
  0
LINE
  8
_0-0_0
  6
CONTINUOUS
 62
    7
 10
870.37273265458509
 20
795.26846166861856
 11
870.19083263017114
 21
795.71176000846231
  0
LINE
  8
_0-0_0
  6
CONTINUOUS
 62
    7
 10
870.19083263017114
 20
795.71176000846231
 11
870.01413251496717
 21
796.15896459830606
  0
LINE
  8
_0-0_0
  6
CONTINUOUS
 62
    7
 10
870.01413251496717
 20
796.15896459830606
 11
869.84283258057997
 21
796.60885473502492
  0
LINE
  8
_0-0_0
  6
CONTINUOUS
 62
    7
 10
869.84283258057997
 20
796.60885473502492
 11
869.67723275758192
 21
797.06027075064992
  0
LINE
  8
_0-0_0
  6
CONTINUOUS
 62
    7
 10
869.67723275758192
 20
797.06027075064992
 11
869.51693250276003
 21
797.51415869010305
  0
LINE
  8
_0-0_0
  6
CONTINUOUS
 62
    7
 10
869.51693250276003
 20
797.51415869010305
 11
869.3623328361648
 21
797.97006078971231
  0
LINE
  8
_0-0_0
  6
CONTINUOUS
 62
    7
 10
869.3623328361648
 20
797.97006078971231
 11
869.21353246308729
 21
798.42736669791543
  0
LINE
  8
_0-0_0
  6
CONTINUOUS
 62
    7
 10
869.21353246308729
 20
798.42736669791543
 11
869.07023288346693
 21
798.88696142447793
  0
LINE
  8
_0-0_0
  6
CONTINUOUS
 62
    7
 10
869.07023288346693
 20
798.88696142447793
 11
868.93263246156141
 21
799.34826513541555
  0
LINE
  8
_0-0_0
  6
CONTINUOUS
 62
    7
 10
868.93263246156141
 20
799.34826513541555
 11
868.80083276368532
 21
799.81066747916555
  0
LINE
  8
_0-0_0
  6
CONTINUOUS
 62
    7
 10
868.80083276368532
 20
799.81066747916555
 11
868.67463256455824
 21
800.27526708854055
  0
LINE
  8
_0-0_0
  6
CONTINUOUS
 62
    7
 10
868.67463256455824
 20
800.27526708854055
 11
868.5541324768202
 21
800.74136205924356
  0
LINE
  8
_0-0_0
  6
CONTINUOUS
 62
    7
 10
868.5541324768202
 20
800.74136205924356
 11
868.43953277207777
 21
801.20837255729055
  0
LINE
  8
_0-0_0
  6
CONTINUOUS
 62
    7
 10
868.43953277207777
 20
801.20837255729055
 11
868.33063222505018
 21
801.67727514518117
  0
LINE
  8
_0-0_0
  6
CONTINUOUS
 62
    7
 10
868.33063222505018
 20
801.67727514518117
 11
868.22753192521509
 21
802.14755102408742
  0
LINE
  8
_0-0_0
  6
CONTINUOUS
 62
    7
 10
868.22753192521509
 20
802.14755102408742
 11
868.13033153153822
 21
802.61846777213418
  0
LINE
  8
_0-0_0
  6
CONTINUOUS
 62
    7
 10
868.13033153153822
 20
802.61846777213418
 11
868.03883124925062
 21
803.09106298697793
  0
LINE
  8
_0-0_0
  6
CONTINUOUS
 62
    7
 10
868.03883124925062
 20
803.09106298697793
 11
867.95313216782972
 21
803.56484838736856
  0
LINE
  8
_0-0_0
  6
CONTINUOUS
 62
    7
 10
867.95313216782972
 20
803.56484838736856
 11
867.87343169785902
 21
804.03896948111867
  0
LINE
  8
_0-0_0
  6
CONTINUOUS
 62
    7
 10
867.87343169785902
 20
804.03896948111867
 11
867.79943133927748
 21
804.51464697135305
  0
LINE
  8
_0-0_0
  6
CONTINUOUS
 62
    7
 10
867.79943133927748
 20
804.51464697135305
 11
867.73143149949476
 21
804.9912705065093
  0
LINE
  8
_0-0_0
  6
CONTINUOUS
 62
    7
 10
867.73143149949476
 20
804.9912705065093
 11
867.66923190690454
 21
805.46804662955606
  0
LINE
  8
_0-0_0
  6
CONTINUOUS
 62
    7
 10
867.66923190690454
 20
805.46804662955606
 11
867.61303187943872
 21
805.94625707877481
  0
LINE
  8
_0-0_0
  6
CONTINUOUS
 62
    7
 10
867.61303187943872
 20
805.94625707877481
 11
867.56263209916506
 21
806.42495580924356
  0
LINE
  8
_0-0_0
  6
CONTINUOUS
 62
    7
 10
867.56263209916506
 20
806.42495580924356
 11
867.51813174821314
 21
806.90377661002481
  0
LINE
  8
_0-0_0
  6
CONTINUOUS
 62
    7
 10
867.51813174821314
 20
806.90377661002481
 11
867.47963191605982
 21
807.38366552604043
  0
LINE
  8
_0-0_0
  6
CONTINUOUS
 62
    7
 10
867.47963191605982
 20
807.38366552604043
 11
867.44703151322767
 21
807.86337133658731
  0
LINE
  8
_0-0_0
  6
CONTINUOUS
 62
    7
 10
867.44703151322767
 20
807.86337133658731
 11
867.42023135758802
 21
808.34405370963418
  0
LINE
  8
_0-0_0
  6
CONTINUOUS
 62
    7
 10
867.42023135758802
 20
808.34405370963418
 11
867.39953185655042
 21
808.82507177604055
  0
LINE
  8
_0-0_0
  6
CONTINUOUS
 62
    7
 10
867.39953185655042
 20
808.82507177604055
 11
867.38463164903101
 21
809.30566259635293
  0
LINE
  8
_0-0_0
  6
CONTINUOUS
 62
    7
 10
867.38463164903101
 20
809.30566259635293
 11
867.37573196031019
 21
809.78695532096242
  0
LINE
  8
_0-0_0
  6
CONTINUOUS
 62
    7
 10
867.37573196031019
 20
809.78695532096242
 11
867.37273170091066
 21
810.26846166861856
  0
LINE
  8
_0-0_0
  6
CONTINUOUS
 62
    7
 10
867.37273170091066
 20
810.26846166861856
 11
867.37573196031019
 21
810.74926611197793
  0
LINE
  8
_0-0_0
  6
CONTINUOUS
 62
    7
 10
867.37573196031019
 20
810.74926611197793
 11
867.38463164903101
 21
811.23055883658731
  0
LINE
  8
_0-0_0
  6
CONTINUOUS
 62
    7
 10
867.38463164903101
 20
811.23055883658731
 11
867.39953185655042
 21
811.71176000846242
  0
LINE
  8
_0-0_0
  6
CONTINUOUS
 62
    7
 10
867.39953185655042
 20
811.71176000846242
 11
867.42023135758802
 21
812.19216772330606
  0
LINE
  8
_0-0_0
  6
CONTINUOUS
 62
    7
 10
867.42023135758802
 20
812.19216772330606
 11
867.44693137742445
 21
812.67285009635305
  0
LINE
  8
_0-0_0
  6
CONTINUOUS
 62
    7
 10
867.44693137742445
 20
812.67285009635305
 11
867.47963191605982
 21
813.15316625846231
  0
LINE
  8
_0-0_0
  6
CONTINUOUS
 62
    7
 10
867.47963191605982
 20
813.15316625846231
 11
867.51813174821314
 21
813.63247534049367
  0
LINE
  8
_0-0_0
  6
CONTINUOUS
 62
    7
 10
867.51813174821314
 20
813.63247534049367
 11
867.56263209916506
 21
814.11187597525918
  0
LINE
  8
_0-0_0
  6
CONTINUOUS
 62
    7
 10
867.56263209916506
 20
814.11187597525918
 11
867.61303187943872
 21
814.59057470572805
  0
LINE
  8
_0-0_0
  6
CONTINUOUS
 62
    7
 10
867.61303187943872
 20
814.59057470572805
 11
867.66923190690454
 21
815.0681748033843
  0
LINE
  8
_0-0_0
  6
CONTINUOUS
 62
    7
 10
867.66923190690454
 20
815.0681748033843
 11
867.73143149949476
 21
815.54556127799356
  0
LINE
  8
_0-0_0
  6
CONTINUOUS
 62
    7
 10
867.73143149949476
 20
815.54556127799356
 11
867.79943133927748
 21
816.0221542955718
  0
LINE
  8
_0-0_0
  6
CONTINUOUS
 62
    7
 10
867.79943133927748
 20
816.0221542955718
 11
867.8733315620558
 21
816.49725195182168
  0
LINE
  8
_0-0_0
  6
CONTINUOUS
 62
    7
 10
867.8733315620558
 20
816.49725195182168
 11
867.95313216782972
 21
816.97195287955606
  0
LINE
  8
_0-0_0
  6
CONTINUOUS
 62
    7
 10
867.95313216782972
 20
816.97195287955606
 11
868.03883124925062
 21
817.44576879752481
  0
LINE
  8
_0-0_0
  6
CONTINUOUS
 62
    7
 10
868.03883124925062
 20
817.44576879752481
 11
868.130231395735
 21
817.91775366080617
  0
LINE
  8
_0-0_0
  6
CONTINUOUS
 62
    7
 10
868.130231395735
 20
817.91775366080617
 11
868.22753192521509
 21
818.38925024283742
  0
LINE
  8
_0-0_0
  6
CONTINUOUS
 62
    7
 10
868.22753192521509
 20
818.38925024283742
 11
868.33053208924696
 21
818.85897680533742
  0
LINE
  8
_0-0_0
  6
CONTINUOUS
 62
    7
 10
868.33053208924696
 20
818.85897680533742
 11
868.43943263627455
 21
819.32784887564992
  0
LINE
  8
_0-0_0
  6
CONTINUOUS
 62
    7
 10
868.43943263627455
 20
819.32784887564992
 11
868.5541324768202
 21
819.79546972525918
  0
LINE
  8
_0-0_0
  6
CONTINUOUS
 62
    7
 10
868.5541324768202
 20
819.79546972525918
 11
868.67443276978884
 21
820.26095434439992
  0
LINE
  8
_0-0_0
  6
CONTINUOUS
 62
    7
 10
868.67443276978884
 20
820.26095434439992
 11
868.80063249207888
 21
820.72555395377492
  0
LINE
  8
_0-0_0
  6
CONTINUOUS
 62
    7
 10
868.80063249207888
 20
820.72555395377492
 11
868.93263246156141
 21
821.18856664908731
  0
LINE
  8
_0-0_0
  6
CONTINUOUS
 62
    7
 10
868.93263246156141
 20
821.18856664908731
 11
869.07003261186048
 21
821.6493515611968
  0
LINE
  8
_0-0_0
  6
CONTINUOUS
 62
    7
 10
869.07003261186048
 20
821.6493515611968
 11
869.21333266831789
 21
822.10897680533731
  0
LINE
  8
_0-0_0
  6
CONTINUOUS
 62
    7
 10
869.21333266831789
 20
822.10897680533731
 11
869.3623328361648
 21
822.56677099479043
  0
LINE
  8
_0-0_0
  6
CONTINUOUS
 62
    7
 10
869.3623328361648
 20
822.56677099479043
 11
869.51673270799097
 21
823.02206274283731
  0
LINE
  8
_0-0_0
  6
CONTINUOUS
 62
    7
 10
869.51673270799097
 20
823.02206274283731
 11
869.67703248597547
 21
823.47607275260305
  0
LINE
  8
_0-0_0
  6
CONTINUOUS
 62
    7
 10
869.67703248597547
 20
823.47607275260305
 11
869.84283258057997
 21
823.92794653189992
  0
LINE
  8
_0-0_0
  6
CONTINUOUS
 62
    7
 10
869.84283258057997
 20
823.92794653189992
 11
870.01393272019777
 21
824.37734838736856
  0
LINE
  8
_0-0_0
  6
CONTINUOUS
 62
    7
 10
870.01393272019777
 20
824.37734838736856
 11
870.19083263017114
 21
824.82507177604043
  0
LINE
  8
_0-0_0
  6
CONTINUOUS
 62
    7
 10
870.19083263017114
 20
824.82507177604043
 11
870.37333251573023
 21
825.2705673815093
  0
LINE
  8
_0-0_0
  6
CONTINUOUS
 62
    7
 10
870.37273265458509
 20
705.2684578539214
 11
870.19083263017114
 21
705.71175619376515
  0
LINE
  8
_0-0_0
  6
CONTINUOUS
 62
    7
 10
870.19083263017114
 20
705.71175619376515
 11
870.01413251496717
 21
706.1589607836089
  0
LINE
  8
_0-0_0
  6
CONTINUOUS
 62
    7
 10
870.01413251496717
 20
706.1589607836089
 11
869.84283258057997
 21
706.60885092032754
  0
LINE
  8
_0-0_0
  6
CONTINUOUS
 62
    7
 10
869.84283258057997
 20
706.60885092032754
 11
869.67723275758192
 21
707.06025167716359
  0
LINE
  8
_0-0_0
  6
CONTINUOUS
 62
    7
 10
869.67723275758192
 20
707.06025167716359
 11
869.51693250276003
 21
707.51415487540567
  0
LINE
  8
_0-0_0
  6
CONTINUOUS
 62
    7
 10
869.51693250276003
 20
707.51415487540567
 11
869.3623328361648
 21
707.97005697501515
  0
LINE
  8
_0-0_0
  6
CONTINUOUS
 62
    7
 10
869.3623328361648
 20
707.97005697501515
 11
869.21353246308729
 21
708.42736288321828
  0
LINE
  8
_0-0_0
  6
CONTINUOUS
 62
    7
 10
869.21353246308729
 20
708.42736288321828
 11
869.07023288346693
 21
708.88695760978078
  0
LINE
  8
_0-0_0
  6
CONTINUOUS
 62
    7
 10
869.07023288346693
 20
708.88695760978078
 11
868.93263246156141
 21
709.34826132071817
  0
LINE
  8
_0-0_0
  6
CONTINUOUS
 62
    7
 10
868.93263246156141
 20
709.34826132071817
 11
868.80083276368532
 21
709.81066366446828
  0
LINE
  8
_0-0_0
  6
CONTINUOUS
 62
    7
 10
868.80083276368532
 20
709.81066366446828
 11
868.67463256455824
 21
710.27526327384317
  0
LINE
  8
_0-0_0
  6
CONTINUOUS
 62
    7
 10
868.67463256455824
 20
710.27526327384317
 11
868.5541324768202
 21
710.7413582445464
  0
LINE
  8
_0-0_0
  6
CONTINUOUS
 62
    7
 10
868.5541324768202
 20
710.7413582445464
 11
868.43953277207777
 21
711.20835348380422
  0
LINE
  8
_0-0_0
  6
CONTINUOUS
 62
    7
 10
868.43953277207777
 20
711.20835348380422
 11
868.33063222505018
 21
711.67725607169484
  0
LINE
  8
_0-0_0
  6
CONTINUOUS
 62
    7
 10
868.33063222505018
 20
711.67725607169484
 11
868.22753192521509
 21
712.14756342185353
  0
LINE
  8
_0-0_0
  6
CONTINUOUS
 62
    7
 10
868.22753192521509
 20
712.14756342185353
 11
868.13033153153822
 21
712.61846491111123
  0
LINE
  8
_0-0_0
  6
CONTINUOUS
 62
    7
 10
868.13033153153822
 20
712.61846491111123
 11
868.03883124925062
 21
713.0910601259551
  0
LINE
  8
_0-0_0
  6
CONTINUOUS
 62
    7
 10
868.03883124925062
 20
713.0910601259551
 11
867.95313216782972
 21
713.56486078513467
  0
LINE
  8
_0-0_0
  6
CONTINUOUS
 62
    7
 10
867.95313216782972
 20
713.56486078513467
 11
867.87343169785902
 21
714.03895136130654
  0
LINE
  8
_0-0_0
  6
CONTINUOUS
 62
    7
 10
867.87343169785902
 20
714.03895136130654
 11
867.79943133927748
 21
714.51465936911916
  0
LINE
  8
_0-0_0
  6
CONTINUOUS
 62
    7
 10
867.79943133927748
 20
714.51465936911916
 11
867.73143149949476
 21
714.99125238669717
  0
LINE
  8
_0-0_0
  6
CONTINUOUS
 62
    7
 10
867.73143149949476
 20
714.99125238669717
 11
867.66923190690454
 21
715.46805902732228
  0
LINE
  8
_0-0_0
  6
CONTINUOUS
 62
    7
 10
867.66923190690454
 20
715.46805902732228
 11
867.61303187943872
 21
715.94625421775186
  0
LINE
  8
_0-0_0
  6
CONTINUOUS
 62
    7
 10
867.61303187943872
 20
715.94625421775186
 11
867.56263209916506
 21
716.42495294822072
  0
LINE
  8
_0-0_0
  6
CONTINUOUS
 62
    7
 10
867.56263209916506
 20
716.42495294822072
 11
867.51813174821314
 21
716.90375849021291
  0
LINE
  8
_0-0_0
  6
CONTINUOUS
 62
    7
 10
867.51813174821314
 20
716.90375849021291
 11
867.47963191605982
 21
717.3836626650176
  0
LINE
  8
_0-0_0
  6
CONTINUOUS
 62
    7
 10
867.47963191605982
 20
717.3836626650176
 11
867.44703151322767
 21
717.86335321677541
  0
LINE
  8
_0-0_0
  6
CONTINUOUS
 62
    7
 10
867.44703151322767
 20
717.86335321677541
 11
867.42023135758802
 21
718.34406610740029
  0
LINE
  8
_0-0_0
  6
CONTINUOUS
 62
    7
 10
867.42023135758802
 20
718.34406610740029
 11
867.39953185655042
 21
718.82505365622842
  0
LINE
  8
_0-0_0
  6
CONTINUOUS
 62
    7
 10
867.39953185655042
 20
718.82505365622842
 11
867.38463164903101
 21
719.3056597353301
  0
LINE
  8
_0-0_0
  6
CONTINUOUS
 62
    7
 10
867.38463164903101
 20
719.3056597353301
 11
867.37573196031019
 21
719.78695245993947
  0
LINE
  8
_0-0_0
  6
CONTINUOUS
 62
    7
 10
867.37573196031019
 20
719.78695245993947
 11
867.37273170091066
 21
720.26845833075856
  0
LINE
  8
_0-0_0
  6
CONTINUOUS
 62
    7
 10
867.37273170091066
 20
720.26845833075856
 11
867.37573196031019
 21
720.74926277411794
  0
LINE
  8
_0-0_0
  6
CONTINUOUS
 62
    7
 10
867.37573196031019
 20
720.74926277411794
 11
867.38463164903101
 21
721.23055549872731
  0
LINE
  8
_0-0_0
  6
CONTINUOUS
 62
    7
 10
867.38463164903101
 20
721.23055549872731
 11
867.39953185655042
 21
721.7117566706022
  0
LINE
  8
_0-0_0
  6
CONTINUOUS
 62
    7
 10
867.39953185655042
 20
721.7117566706022
 11
867.42023135758802
 21
722.19216438544606
  0
LINE
  8
_0-0_0
  6
CONTINUOUS
 62
    7
 10
867.42023135758802
 20
722.19216438544606
 11
867.44693137742445
 21
722.672862017282
  0
LINE
  8
_0-0_0
  6
CONTINUOUS
 62
    7
 10
867.44693137742445
 20
722.672862017282
 11
867.47963191605982
 21
723.15316292060231
  0
LINE
  8
_0-0_0
  6
CONTINUOUS
 62
    7
 10
867.47963191605982
 20
723.15316292060231
 11
867.51813174821314
 21
723.63245674384439
  0
LINE
  8
_0-0_0
  6
CONTINUOUS
 62
    7
 10
867.51813174821314
 20
723.63245674384439
 11
867.56263209916506
 21
724.11185737861001
  0
LINE
  8
_0-0_0
  6
CONTINUOUS
 62
    7
 10
867.56263209916506
 20
724.11185737861001
 11
867.61303187943872
 21
724.59055610907876
  0
LINE
  8
_0-0_0
  6
CONTINUOUS
 62
    7
 10
867.61303187943872
 20
724.59055610907876
 11
867.66923190690454
 21
725.06815620673501
  0
LINE
  8
_0-0_0
  6
CONTINUOUS
 62
    7
 10
867.66923190690454
 20
725.06815620673501
 11
867.73143149949476
 21
725.54555794013356
  0
LINE
  8
_0-0_0
  6
CONTINUOUS
 62
    7
 10
867.73143149949476
 20
725.54555794013356
 11
867.79943133927748
 21
726.02215095771169
  0
LINE
  8
_0-0_0
  6
CONTINUOUS
 62
    7
 10
867.79943133927748
 20
726.02215095771169
 11
867.8733315620558
 21
726.49726387275064
  0
LINE
  8
_0-0_0
  6
CONTINUOUS
 62
    7
 10
867.8733315620558
 20
726.49726387275064
 11
867.95313216782972
 21
726.97196486008977
  0
LINE
  8
_0-0_0
  6
CONTINUOUS
 62
    7
 10
867.95313216782972
 20
726.97196486008977
 11
868.03883124925062
 21
727.44576548946714
  0
LINE
  8
_0-0_0
  6
CONTINUOUS
 62
    7
 10
868.03883124925062
 20
727.44576548946714
 11
868.130231395735
 21
727.91775032294606
  0
LINE
  8
_0-0_0
  6
CONTINUOUS
 62
    7
 10
868.130231395735
 20
727.91775032294606
 11
868.22753192521509
 21
728.38924693477964
  0
LINE
  8
_0-0_0
  6
CONTINUOUS
 62
    7
 10
868.22753192521509
 20
728.38924693477964
 11
868.33053208924696
 21
728.8589734674772
  0
LINE
  8
_0-0_0
  6
CONTINUOUS
 62
    7
 10
868.33053208924696
 20
728.8589734674772
 11
868.43943263627455
 21
729.3278455377897
  0
LINE
  8
_0-0_0
  6
CONTINUOUS
 62
    7
 10
868.43943263627455
 20
729.3278455377897
 11
868.5541324768202
 21
729.79546650660848
  0
LINE
  8
_0-0_0
  6
CONTINUOUS
 62
    7
 10
868.5541324768202
 20
729.79546650660848
 11
868.67443276978884
 21
730.2609510065397
  0
LINE
  8
_0-0_0
  6
CONTINUOUS
 62
    7
 10
868.67443276978884
 20
730.2609510065397
 11
868.80063249207888
 21
730.7255506159147
  0
LINE
  8
_0-0_0
  6
CONTINUOUS
 62
    7
 10
868.80063249207888
 20
730.7255506159147
 11
868.93263246156141
 21
731.18856331122731
  0
LINE
  8
_0-0_0
  6
CONTINUOUS
 62
    7
 10
868.93263246156141
 20
731.18856331122731
 11
869.07003261186048
 21
731.64934822333657
  0
LINE
  8
_0-0_0
  6
CONTINUOUS
 62
    7
 10
869.07003261186048
 20
731.64934822333657
 11
869.21333266831789
 21
732.10897346747731
  0
LINE
  8
_0-0_0
  6
CONTINUOUS
 62
    7
 10
869.21333266831789
 20
732.10897346747731
 11
869.3623328361648
 21
732.56676765693044
  0
LINE
  8
_0-0_0
  6
CONTINUOUS
 62
    7
 10
869.3623328361648
 20
732.56676765693044
 11
869.51673270799097
 21
733.02205940497731
  0
LINE
  8
_0-0_0
  6
CONTINUOUS
 62
    7
 10
869.51673270799097
 20
733.02205940497731
 11
869.67703248597547
 21
733.47606941474294
  0
LINE
  8
_0-0_0
  6
CONTINUOUS
 62
    7
 10
869.67703248597547
 20
733.47606941474294
 11
869.84283258057997
 21
733.9279431940397
  0
LINE
  8
_0-0_0
  6
CONTINUOUS
 62
    7
 10
869.84283258057997
 20
733.9279431940397
 11
870.01393272019777
 21
734.37734504950856
  0
LINE
  8
_0-0_0
  6
CONTINUOUS
 62
    7
 10
870.01393272019777
 20
734.37734504950856
 11
870.19083263017114
 21
734.82506843818044
  0
LINE
  8
_0-0_0
  6
CONTINUOUS
 62
    7
 10
870.19083263017114
 20
734.82506843818044
 11
870.37333251573023
 21
735.27056404364907
  0
LINE
  8
_0-0_0
  6
CONTINUOUS
 62
    7
 10
870.37333251573023
 20
735.27056404364907
 11
870.37273265458509
 21
735.26845833075856
  0
LINE
  8
_0-0_0
  6
CONTINUOUS
 62
    7
 10
870.37273265458509
 20
675.2684578539214
 11
870.19083263017114
 21
675.71175619376515
  0
LINE
  8
_0-0_0
  6
CONTINUOUS
 62
    7
 10
870.19083263017114
 20
675.71175619376515
 11
870.01413251496717
 21
676.1589607836089
  0
LINE
  8
_0-0_0
  6
CONTINUOUS
 62
    7
 10
870.01413251496717
 20
676.1589607836089
 11
869.84283258057997
 21
676.60885092032754
  0
LINE
  8
_0-0_0
  6
CONTINUOUS
 62
    7
 10
869.84283258057997
 20
676.60885092032754
 11
869.67723275758192
 21
677.06025167716359
  0
LINE
  8
_0-0_0
  6
CONTINUOUS
 62
    7
 10
869.67723275758192
 20
677.06025167716359
 11
869.51693250276003
 21
677.51415487540567
  0
LINE
  8
_0-0_0
  6
CONTINUOUS
 62
    7
 10
869.51693250276003
 20
677.51415487540567
 11
869.3623328361648
 21
677.97005697501515
  0
LINE
  8
_0-0_0
  6
CONTINUOUS
 62
    7
 10
869.3623328361648
 20
677.97005697501515
 11
869.21353246308729
 21
678.42736288321828
  0
LINE
  8
_0-0_0
  6
CONTINUOUS
 62
    7
 10
869.21353246308729
 20
678.42736288321828
 11
869.07023288346693
 21
678.88695760978067
  0
LINE
  8
_0-0_0
  6
CONTINUOUS
 62
    7
 10
869.07023288346693
 20
678.88695760978067
 11
868.93263246156141
 21
679.34826132071817
  0
LINE
  8
_0-0_0
  6
CONTINUOUS
 62
    7
 10
868.93263246156141
 20
679.34826132071817
 11
868.80083276368532
 21
679.81066366446828
  0
LINE
  8
_0-0_0
  6
CONTINUOUS
 62
    7
 10
868.80083276368532
 20
679.81066366446828
 11
868.67463256455824
 21
680.27526327384317
  0
LINE
  8
_0-0_0
  6
CONTINUOUS
 62
    7
 10
868.67463256455824
 20
680.27526327384317
 11
868.5541324768202
 21
680.74135824454629
  0
LINE
  8
_0-0_0
  6
CONTINUOUS
 62
    7
 10
868.5541324768202
 20
680.74135824454629
 11
868.43953277207777
 21
681.2083534838041
  0
LINE
  8
_0-0_0
  6
CONTINUOUS
 62
    7
 10
868.43953277207777
 20
681.2083534838041
 11
868.33063222505018
 21
681.67725607169473
  0
LINE
  8
_0-0_0
  6
CONTINUOUS
 62
    7
 10
868.33063222505018
 20
681.67725607169473
 11
868.22753192521509
 21
682.1475624681791
  0
LINE
  8
_0-0_0
  6
CONTINUOUS
 62
    7
 10
868.22753192521509
 20
682.1475624681791
 11
868.13033153153822
 21
682.61846395743703
  0
LINE
  8
_0-0_0
  6
CONTINUOUS
 62
    7
 10
868.13033153153822
 20
682.61846395743703
 11
868.03883124925062
 21
683.09105917228067
  0
LINE
  8
_0-0_0
  6
CONTINUOUS
 62
    7
 10
868.03883124925062
 20
683.09105917228067
 11
867.95313216782972
 21
683.56485983146047
  0
LINE
  8
_0-0_0
  6
CONTINUOUS
 62
    7
 10
867.95313216782972
 20
683.56485983146047
 11
867.87343169785902
 21
684.03895040763234
  0
LINE
  8
_0-0_0
  6
CONTINUOUS
 62
    7
 10
867.87343169785902
 20
684.03895040763234
 11
867.79943133927748
 21
684.51465841544473
  0
LINE
  8
_0-0_0
  6
CONTINUOUS
 62
    7
 10
867.79943133927748
 20
684.51465841544473
 11
867.73143149949476
 21
684.99125143302297
  0
LINE
  8
_0-0_0
  6
CONTINUOUS
 62
    7
 10
867.73143149949476
 20
684.99125143302297
 11
867.66923190690454
 21
685.46805807364785
  0
LINE
  8
_0-0_0
  6
CONTINUOUS
 62
    7
 10
867.66923190690454
 20
685.46805807364785
 11
867.61303187943872
 21
685.94625326407765
  0
LINE
  8
_0-0_0
  6
CONTINUOUS
 62
    7
 10
867.61303187943872
 20
685.94625326407765
 11
867.56263209916506
 21
686.42495199454629
  0
LINE
  8
_0-0_0
  6
CONTINUOUS
 62
    7
 10
867.56263209916506
 20
686.42495199454629
 11
867.51813174821314
 21
686.90375753653848
  0
LINE
  8
_0-0_0
  6
CONTINUOUS
 62
    7
 10
867.51813174821314
 20
686.90375753653848
 11
867.47963191605982
 21
687.38366171134317
  0
LINE
  8
_0-0_0
  6
CONTINUOUS
 62
    7
 10
867.47963191605982
 20
687.38366171134317
 11
867.44703151322767
 21
687.86335226310098
  0
LINE
  8
_0-0_0
  6
CONTINUOUS
 62
    7
 10
867.44703151322767
 20
687.86335226310098
 11
867.42023135758802
 21
688.34406515372609
  0
LINE
  8
_0-0_0
  6
CONTINUOUS
 62
    7
 10
867.42023135758802
 20
688.34406515372609
 11
867.39953185655042
 21
688.82505270255422
  0
LINE
  8
_0-0_0
  6
CONTINUOUS
 62
    7
 10
867.39953185655042
 20
688.82505270255422
 11
867.38463164903101
 21
689.30565878165567
  0
LINE
  8
_0-0_0
  6
CONTINUOUS
 62
    7
 10
867.38463164903101
 20
689.30565878165567
 11
867.37573196031019
 21
689.78695150626504
  0
LINE
  8
_0-0_0
  6
CONTINUOUS
 62
    7
 10
867.37573196031019
 20
689.78695150626504
 11
867.37273170091066
 21
690.2684578539214
  0
LINE
  8
_0-0_0
  6
CONTINUOUS
 62
    7
 10
867.37273170091066
 20
690.2684578539214
 11
867.37573196031019
 21
690.74926229728078
  0
LINE
  8
_0-0_0
  6
CONTINUOUS
 62
    7
 10
867.37573196031019
 20
690.74926229728078
 11
867.38463164903101
 21
691.23055502189004
  0
LINE
  8
_0-0_0
  6
CONTINUOUS
 62
    7
 10
867.38463164903101
 20
691.23055502189004
 11
867.39953185655042
 21
691.71175619376515
  0
LINE
  8
_0-0_0
  6
CONTINUOUS
 62
    7
 10
867.39953185655042
 20
691.71175619376515
 11
867.42023135758802
 21
692.19216390860879
  0
LINE
  8
_0-0_0
  6
CONTINUOUS
 62
    7
 10
867.42023135758802
 20
692.19216390860879
 11
867.44693137742445
 21
692.67286154044484
  0
LINE
  8
_0-0_0
  6
CONTINUOUS
 62
    7
 10
867.44693137742445
 20
692.67286154044484
 11
867.47963191605982
 21
693.15316244376504
  0
LINE
  8
_0-0_0
  6
CONTINUOUS
 62
    7
 10
867.47963191605982
 20
693.15316244376504
 11
867.51813174821314
 21
693.63245626700734
  0
LINE
  8
_0-0_0
  6
CONTINUOUS
 62
    7
 10
867.51813174821314
 20
693.63245626700734
 11
867.56263209916506
 21
694.11185690177285
  0
LINE
  8
_0-0_0
  6
CONTINUOUS
 62
    7
 10
867.56263209916506
 20
694.11185690177285
 11
867.61303187943872
 21
694.59055563224172
  0
LINE
  8
_0-0_0
  6
CONTINUOUS
 62
    7
 10
867.61303187943872
 20
694.59055563224172
 11
867.66923190690454
 21
695.06815572989797
  0
LINE
  8
_0-0_0
  6
CONTINUOUS
 62
    7
 10
867.66923190690454
 20
695.06815572989797
 11
867.73143149949476
 21
695.5455574632964
  0
LINE
  8
_0-0_0
  6
CONTINUOUS
 62
    7
 10
867.73143149949476
 20
695.5455574632964
 11
867.79943133927748
 21
696.02215048087442
  0
LINE
  8
_0-0_0
  6
CONTINUOUS
 62
    7
 10
867.79943133927748
 20
696.02215048087442
 11
867.8733315620558
 21
696.49726339591348
  0
LINE
  8
_0-0_0
  6
CONTINUOUS
 62
    7
 10
867.8733315620558
 20
696.49726339591348
 11
867.95313216782972
 21
696.97196432364785
  0
LINE
  8
_0-0_0
  6
CONTINUOUS
 62
    7
 10
867.95313216782972
 20
696.97196432364785
 11
868.03883124925062
 21
697.44576498282765
  0
LINE
  8
_0-0_0
  6
CONTINUOUS
 62
    7
 10
868.03883124925062
 20
697.44576498282765
 11
868.130231395735
 21
697.91776510489797
  0
LINE
  8
_0-0_0
  6
CONTINUOUS
 62
    7
 10
868.130231395735
 20
697.91776510489797
 11
868.22753192521509
 21
698.38926168692922
  0
LINE
  8
_0-0_0
  6
CONTINUOUS
 62
    7
 10
868.22753192521509
 20
698.38926168692922
 11
868.33053208924696
 21
698.85895773185109
  0
LINE
  8
_0-0_0
  6
CONTINUOUS
 62
    7
 10
868.33053208924696
 20
698.85895773185109
 11
868.43943263627455
 21
699.32786031974172
  0
LINE
  8
_0-0_0
  6
CONTINUOUS
 62
    7
 10
868.43943263627455
 20
699.32786031974172
 11
868.5541324768202
 21
699.79545065177285
  0
LINE
  8
_0-0_0
  6
CONTINUOUS
 62
    7
 10
868.5541324768202
 20
699.79545065177285
 11
868.67443276978884
 21
700.26095052970265
  0
LINE
  8
_0-0_0
  6
CONTINUOUS
 62
    7
 10
868.67443276978884
 20
700.26095052970265
 11
868.80063249207888
 21
700.72556539786672
  0
LINE
  8
_0-0_0
  6
CONTINUOUS
 62
    7
 10
868.80063249207888
 20
700.72556539786672
 11
868.93263246156141
 21
701.18856283439015
  0
LINE
  8
_0-0_0
  6
CONTINUOUS
 62
    7
 10
868.93263246156141
 20
701.18856283439015
 11
869.07003261186048
 21
701.64936300528848
  0
LINE
  8
_0-0_0
  6
CONTINUOUS
 62
    7
 10
869.07003261186048
 20
701.64936300528848
 11
869.21333266831789
 21
702.10895773185098
  0
LINE
  8
_0-0_0
  6
CONTINUOUS
 62
    7
 10
869.21333266831789
 20
702.10895773185098
 11
869.3623328361648
 21
702.5667519213041
  0
LINE
  8
_0-0_0
  6
CONTINUOUS
 62
    7
 10
869.3623328361648
 20
702.5667519213041
 11
869.51673270799097
 21
703.02205892814015
  0
LINE
  8
_0-0_0
  6
CONTINUOUS
 62
    7
 10
869.51673270799097
 20
703.02205892814015
 11
869.67703248597547
 21
703.47605367911672
  0
LINE
  8
_0-0_0
  6
CONTINUOUS
 62
    7
 10
869.67703248597547
 20
703.47605367911672
 11
869.84283258057997
 21
703.9279579759916
  0
LINE
  8
_0-0_0
  6
CONTINUOUS
 62
    7
 10
869.84283258057997
 20
703.9279579759916
 11
870.01393272019777
 21
704.37735983146035
  0
LINE
  8
_0-0_0
  6
CONTINUOUS
 62
    7
 10
870.01393272019777
 20
704.37735983146035
 11
870.19083263017114
 21
704.8250527025541
  0
LINE
  8
_0-0_0
  6
CONTINUOUS
 62
    7
 10
870.19083263017114
 20
704.8250527025541
 11
870.37333251573023
 21
705.27056356681203
  0
LINE
  8
_0-0_0
  6
CONTINUOUS
 62
    7
 10
870.37333251573023
 20
705.27056356681203
 11
870.37273265458509
 21
705.2684578539214
  0
LINE
  8
_0-0_0
  6
CONTINUOUS
 62
    7
 10
870.37273265458509
 20
645.26846166861856
 11
870.19083263017114
 21
645.71176000846231
  0
LINE
  8
_0-0_0
  6
CONTINUOUS
 62
    7
 10
870.19083263017114
 20
645.71176000846231
 11
870.01413251496717
 21
646.15896459830606
  0
LINE
  8
_0-0_0
  6
CONTINUOUS
 62
    7
 10
870.01413251496717
 20
646.15896459830606
 11
869.84283258057997
 21
646.60885473502492
  0
LINE
  8
_0-0_0
  6
CONTINUOUS
 62
    7
 10
869.84283258057997
 20
646.60885473502492
 11
869.67723275758192
 21
647.06025549186074
  0
LINE
  8
_0-0_0
  6
CONTINUOUS
 62
    7
 10
869.67723275758192
 20
647.06025549186074
 11
869.51693250276003
 21
647.51415869010305
  0
LINE
  8
_0-0_0
  6
CONTINUOUS
 62
    7
 10
869.51693250276003
 20
647.51415869010305
 11
869.3623328361648
 21
647.97006078971231
  0
LINE
  8
_0-0_0
  6
CONTINUOUS
 62
    7
 10
869.3623328361648
 20
647.97006078971231
 11
869.21353246308729
 21
648.42736669791543
  0
LINE
  8
_0-0_0
  6
CONTINUOUS
 62
    7
 10
869.21353246308729
 20
648.42736669791543
 11
869.07023288346693
 21
648.88696142447793
  0
LINE
  8
_0-0_0
  6
CONTINUOUS
 62
    7
 10
869.07023288346693
 20
648.88696142447793
 11
868.93263246156141
 21
649.34826513541555
  0
LINE
  8
_0-0_0
  6
CONTINUOUS
 62
    7
 10
868.93263246156141
 20
649.34826513541555
 11
868.80083276368532
 21
649.81066747916555
  0
LINE
  8
_0-0_0
  6
CONTINUOUS
 62
    7
 10
868.80083276368532
 20
649.81066747916555
 11
868.67463256455824
 21
650.27526708854055
  0
LINE
  8
_0-0_0
  6
CONTINUOUS
 62
    7
 10
868.67463256455824
 20
650.27526708854055
 11
868.5541324768202
 21
650.74136205924356
  0
LINE
  8
_0-0_0
  6
CONTINUOUS
 62
    7
 10
868.5541324768202
 20
650.74136205924356
 11
868.43953277207777
 21
651.20835729850137
  0
LINE
  8
_0-0_0
  6
CONTINUOUS
 62
    7
 10
868.43953277207777
 20
651.20835729850137
 11
868.33063222505018
 21
651.67725988639199
  0
LINE
  8
_0-0_0
  6
CONTINUOUS
 62
    7
 10
868.33063222505018
 20
651.67725988639199
 11
868.22753192521509
 21
652.14756628287648
  0
LINE
  8
_0-0_0
  6
CONTINUOUS
 62
    7
 10
868.22753192521509
 20
652.14756628287648
 11
868.13033153153822
 21
652.61846777213418
  0
LINE
  8
_0-0_0
  6
CONTINUOUS
 62
    7
 10
868.13033153153822
 20
652.61846777213418
 11
868.03883124925062
 21
653.09106298697793
  0
LINE
  8
_0-0_0
  6
CONTINUOUS
 62
    7
 10
868.03883124925062
 20
653.09106298697793
 11
867.95313216782972
 21
653.56486364615773
  0
LINE
  8
_0-0_0
  6
CONTINUOUS
 62
    7
 10
867.95313216782972
 20
653.56486364615773
 11
867.87343169785902
 21
654.03895422232961
  0
LINE
  8
_0-0_0
  6
CONTINUOUS
 62
    7
 10
867.87343169785902
 20
654.03895422232961
 11
867.79943133927748
 21
654.51466223014211
  0
LINE
  8
_0-0_0
  6
CONTINUOUS
 62
    7
 10
867.79943133927748
 20
654.51466223014211
 11
867.73143149949476
 21
654.99125524772023
  0
LINE
  8
_0-0_0
  6
CONTINUOUS
 62
    7
 10
867.73143149949476
 20
654.99125524772023
 11
867.66923190690454
 21
655.46806188834523
  0
LINE
  8
_0-0_0
  6
CONTINUOUS
 62
    7
 10
867.66923190690454
 20
655.46806188834523
 11
867.61303187943872
 21
655.94625707877481
  0
LINE
  8
_0-0_0
  6
CONTINUOUS
 62
    7
 10
867.61303187943872
 20
655.94625707877481
 11
867.56263209916506
 21
656.42495580924356
  0
LINE
  8
_0-0_0
  6
CONTINUOUS
 62
    7
 10
867.56263209916506
 20
656.42495580924356
 11
867.51813174821314
 21
656.90376135123586
  0
LINE
  8
_0-0_0
  6
CONTINUOUS
 62
    7
 10
867.51813174821314
 20
656.90376135123586
 11
867.47963191605982
 21
657.38366552604043
  0
LINE
  8
_0-0_0
  6
CONTINUOUS
 62
    7
 10
867.47963191605982
 20
657.38366552604043
 11
867.44703151322767
 21
657.86335607779836
  0
LINE
  8
_0-0_0
  6
CONTINUOUS
 62
    7
 10
867.44703151322767
 20
657.86335607779836
 11
867.42023135758802
 21
658.34406896842336
  0
LINE
  8
_0-0_0
  6
CONTINUOUS
 62
    7
 10
867.42023135758802
 20
658.34406896842336
 11
867.39953185655042
 21
658.82505651725137
  0
LINE
  8
_0-0_0
  6
CONTINUOUS
 62
    7
 10
867.39953185655042
 20
658.82505651725137
 11
867.38463164903101
 21
659.30566259635293
  0
LINE
  8
_0-0_0
  6
CONTINUOUS
 62
    7
 10
867.38463164903101
 20
659.30566259635293
 11
867.37573196031019
 21
659.78695532096242
  0
LINE
  8
_0-0_0
  6
CONTINUOUS
 62
    7
 10
867.37573196031019
 20
659.78695532096242
 11
867.37273170091066
 21
660.26846166861856
  0
LINE
  8
_0-0_0
  6
CONTINUOUS
 62
    7
 10
867.37273170091066
 20
660.26846166861856
 11
867.37573196031019
 21
660.74926611197793
  0
LINE
  8
_0-0_0
  6
CONTINUOUS
 62
    7
 10
867.37573196031019
 20
660.74926611197793
 11
867.38463164903101
 21
661.23055883658731
  0
LINE
  8
_0-0_0
  6
CONTINUOUS
 62
    7
 10
867.38463164903101
 20
661.23055883658731
 11
867.39953185655042
 21
661.71176000846242
  0
LINE
  8
_0-0_0
  6
CONTINUOUS
 62
    7
 10
867.39953185655042
 20
661.71176000846242
 11
867.42023135758802
 21
662.19216772330606
  0
LINE
  8
_0-0_0
  6
CONTINUOUS
 62
    7
 10
867.42023135758802
 20
662.19216772330606
 11
867.44693137742445
 21
662.67286535514199
  0
LINE
  8
_0-0_0
  6
CONTINUOUS
 62
    7
 10
867.44693137742445
 20
662.67286535514199
 11
867.47963191605982
 21
663.15316625846231
  0
LINE
  8
_0-0_0
  6
CONTINUOUS
 62
    7
 10
867.47963191605982
 20
663.15316625846231
 11
867.51813174821314
 21
663.63246008170461
  0
LINE
  8
_0-0_0
  6
CONTINUOUS
 62
    7
 10
867.51813174821314
 20
663.63246008170461
 11
867.56263209916506
 21
664.11185690177285
  0
LINE
  8
_0-0_0
  6
CONTINUOUS
 62
    7
 10
867.56263209916506
 20
664.11185690177285
 11
867.61303187943872
 21
664.59055563224172
  0
LINE
  8
_0-0_0
  6
CONTINUOUS
 62
    7
 10
867.61303187943872
 20
664.59055563224172
 11
867.66923190690454
 21
665.06815572989797
  0
LINE
  8
_0-0_0
  6
CONTINUOUS
 62
    7
 10
867.66923190690454
 20
665.06815572989797
 11
867.73143149949476
 21
665.5455574632964
  0
LINE
  8
_0-0_0
  6
CONTINUOUS
 62
    7
 10
867.73143149949476
 20
665.5455574632964
 11
867.79943133927748
 21
666.02215048087442
  0
LINE
  8
_0-0_0
  6
CONTINUOUS
 62
    7
 10
867.79943133927748
 20
666.02215048087442
 11
867.8733315620558
 21
666.49726339591348
  0
LINE
  8
_0-0_0
  6
CONTINUOUS
 62
    7
 10
867.8733315620558
 20
666.49726339591348
 11
867.95313216782972
 21
666.97196432364785
  0
LINE
  8
_0-0_0
  6
CONTINUOUS
 62
    7
 10
867.95313216782972
 20
666.97196432364785
 11
868.03883124925062
 21
667.44576498282765
  0
LINE
  8
_0-0_0
  6
CONTINUOUS
 62
    7
 10
868.03883124925062
 20
667.44576498282765
 11
868.130231395735
 21
667.91776510489797
  0
LINE
  8
_0-0_0
  6
CONTINUOUS
 62
    7
 10
868.130231395735
 20
667.91776510489797
 11
868.22753192521509
 21
668.38926168692922
  0
LINE
  8
_0-0_0
  6
CONTINUOUS
 62
    7
 10
868.22753192521509
 20
668.38926168692922
 11
868.33053208924696
 21
668.85895773185109
  0
LINE
  8
_0-0_0
  6
CONTINUOUS
 62
    7
 10
868.33053208924696
 20
668.85895773185109
 11
868.43943263627455
 21
669.32786031974172
  0
LINE
  8
_0-0_0
  6
CONTINUOUS
 62
    7
 10
868.43943263627455
 20
669.32786031974172
 11
868.5541324768202
 21
669.79545065177285
  0
LINE
  8
_0-0_0
  6
CONTINUOUS
 62
    7
 10
868.5541324768202
 20
669.79545065177285
 11
868.67443276978884
 21
670.26095052970265
  0
LINE
  8
_0-0_0
  6
CONTINUOUS
 62
    7
 10
868.67443276978884
 20
670.26095052970265
 11
868.80063249207888
 21
670.72556539786672
  0
LINE
  8
_0-0_0
  6
CONTINUOUS
 62
    7
 10
868.80063249207888
 20
670.72556539786672
 11
868.93263246156141
 21
671.18856283439015
  0
LINE
  8
_0-0_0
  6
CONTINUOUS
 62
    7
 10
868.93263246156141
 20
671.18856283439015
 11
869.07003261186048
 21
671.64936300528848
  0
LINE
  8
_0-0_0
  6
CONTINUOUS
 62
    7
 10
869.07003261186048
 20
671.64936300528848
 11
869.21333266831789
 21
672.10895773185098
  0
LINE
  8
_0-0_0
  6
CONTINUOUS
 62
    7
 10
869.21333266831789
 20
672.10895773185098
 11
869.3623328361648
 21
672.5667519213041
  0
LINE
  8
_0-0_0
  6
CONTINUOUS
 62
    7
 10
869.3623328361648
 20
672.5667519213041
 11
869.51673270799097
 21
673.02205892814015
  0
LINE
  8
_0-0_0
  6
CONTINUOUS
 62
    7
 10
869.51673270799097
 20
673.02205892814015
 11
869.67703248597547
 21
673.47605367911672
  0
LINE
  8
_0-0_0
  6
CONTINUOUS
 62
    7
 10
869.67703248597547
 20
673.47605367911672
 11
869.84283258057997
 21
673.9279579759916
  0
LINE
  8
_0-0_0
  6
CONTINUOUS
 62
    7
 10
869.84283258057997
 20
673.9279579759916
 11
870.01393272019777
 21
674.37735983146035
  0
LINE
  8
_0-0_0
  6
CONTINUOUS
 62
    7
 10
870.01393272019777
 20
674.37735983146035
 11
870.19083263017114
 21
674.8250527025541
  0
LINE
  8
_0-0_0
  6
CONTINUOUS
 62
    7
 10
870.19083263017114
 20
674.8250527025541
 11
870.37333251573023
 21
675.27056356681203
  0
LINE
  8
_0-0_0
  6
CONTINUOUS
 62
    7
 10
870.37333251573023
 20
675.27056356681203
 11
870.37273265458509
 21
675.2684578539214
  0
LINE
  8
_0-0_0
  6
CONTINUOUS
 62
    7
 10
870.19083263017114
 20
644.82505651725148
 11
870.37333251573023
 21
645.27056738150918
  0
LINE
  8
_0-0_0
  6
CONTINUOUS
 62
    7
 10
870.37333251573023
 20
645.27056738150918
 11
870.37273265458509
 21
645.26846166861856
  0
LINE
  8
_0-0_0
  6
CONTINUOUS
 62
    7
 10
882.37273265458509
 20
750.2684578539214
 11
882.55473281480238
 21
749.82506796134328
  0
LINE
  8
_0-0_0
  6
CONTINUOUS
 62
    7
 10
882.55473281480238
 20
749.82506796134328
 11
882.73143245316896
 21
749.37786337149942
  0
LINE
  8
_0-0_0
  6
CONTINUOUS
 62
    7
 10
882.73143245316896
 20
749.37786337149942
 11
882.90273286439344
 21
748.92794271720265
  0
LINE
  8
_0-0_0
  6
CONTINUOUS
 62
    7
 10
882.90273286439344
 20
748.92794271720265
 11
883.0683326873916
 21
748.47655721915567
  0
LINE
  8
_0-0_0
  6
CONTINUOUS
 62
    7
 10
883.0683326873916
 20
748.47655721915567
 11
883.22863246537611
 21
748.02266927970265
  0
LINE
  8
_0-0_0
  6
CONTINUOUS
 62
    7
 10
883.22863246537611
 20
748.02266927970265
 11
883.38323260880873
 21
747.56676718009328
  0
LINE
  8
_0-0_0
  6
CONTINUOUS
 62
    7
 10
883.38323260880873
 20
747.56676718009328
 11
883.53203250504885
 21
747.10946127189015
  0
LINE
  8
_0-0_0
  6
CONTINUOUS
 62
    7
 10
883.53203250504885
 20
747.10946127189015
 11
883.67533256150648
 21
746.64986654532765
  0
LINE
  8
_0-0_0
  6
CONTINUOUS
 62
    7
 10
883.67533256150648
 20
746.64986654532765
 11
883.81293250657473
 21
746.18856283439015
  0
LINE
  8
_0-0_0
  6
CONTINUOUS
 62
    7
 10
883.81293250657473
 20
746.18856283439015
 11
883.94473268128786
 21
745.72616049064004
  0
LINE
  8
_0-0_0
  6
CONTINUOUS
 62
    7
 10
883.94473268128786
 20
745.72616049064004
 11
884.07093288041528
 21
745.26156088126515
  0
LINE
  8
_0-0_0
  6
CONTINUOUS
 62
    7
 10
884.07093288041528
 20
745.26156088126515
 11
884.19143249131605
 21
744.79546591056203
  0
LINE
  8
_0-0_0
  6
CONTINUOUS
 62
    7
 10
884.19143249131605
 20
744.79546591056203
 11
884.30603267289575
 21
744.32845541251504
  0
LINE
  8
_0-0_0
  6
CONTINUOUS
 62
    7
 10
884.30603267289575
 20
744.32845541251504
 11
884.41493178941175
 21
743.85955377829885
  0
LINE
  8
_0-0_0
  6
CONTINUOUS
 62
    7
 10
884.41493178941175
 20
743.85955377829885
 11
884.51803161240969
 21
743.38924738181447
  0
LINE
  8
_0-0_0
  6
CONTINUOUS
 62
    7
 10
884.51803161240969
 20
743.38924738181447
 11
884.61523200608656
 21
742.91836115134572
  0
LINE
  8
_0-0_0
  6
CONTINUOUS
 62
    7
 10
884.61523200608656
 20
742.91836115134572
 11
884.70673133469984
 21
742.44576593650197
  0
LINE
  8
_0-0_0
  6
CONTINUOUS
 62
    7
 10
884.70673133469984
 20
742.44576593650197
 11
884.79243136979505
 21
741.97195001853311
  0
LINE
  8
_0-0_0
  6
CONTINUOUS
 62
    7
 10
884.79243136979505
 20
741.97195001853311
 11
884.87213183976576
 21
741.49785944236123
  0
LINE
  8
_0-0_0
  6
CONTINUOUS
 62
    7
 10
884.87213183976576
 20
741.49785944236123
 11
884.94613124467287
 21
741.02215143454885
  0
LINE
  8
_0-0_0
  6
CONTINUOUS
 62
    7
 10
884.94613124467287
 20
741.02215143454885
 11
885.01413203813001
 21
740.54555841697061
  0
LINE
  8
_0-0_0
  6
CONTINUOUS
 62
    7
 10
885.01413203813001
 20
740.54555841697061
 11
885.07633163072023
 21
740.06875177634572
  0
LINE
  8
_0-0_0
  6
CONTINUOUS
 62
    7
 10
885.07633163072023
 20
740.06875177634572
 11
885.13253165818605
 21
739.5905718447051
  0
LINE
  8
_0-0_0
  6
CONTINUOUS
 62
    7
 10
885.13253165818605
 20
739.5905718447051
 11
885.18293143845972
 21
739.11187311423635
  0
LINE
  8
_0-0_0
  6
CONTINUOUS
 62
    7
 10
885.18293143845972
 20
739.11187311423635
 11
885.22743178941164
 21
738.6330523134551
  0
LINE
  8
_0-0_0
  6
CONTINUOUS
 62
    7
 10
885.22743178941164
 20
738.6330523134551
 11
885.26593162156496
 21
738.15316339743947
  0
LINE
  8
_0-0_0
  6
CONTINUOUS
 62
    7
 10
885.26593162156496
 20
738.15316339743947
 11
885.2985320243971
 21
737.6734575868926
  0
LINE
  8
_0-0_0
  6
CONTINUOUS
 62
    7
 10
885.2985320243971
 20
737.6734575868926
 11
885.32533122636232
 21
737.19274469626748
  0
LINE
  8
_0-0_0
  6
CONTINUOUS
 62
    7
 10
885.32533122636232
 20
737.19274469626748
 11
885.34603168107435
 21
736.71175714743936
  0
LINE
  8
_0-0_0
  6
CONTINUOUS
 62
    7
 10
885.34603168107435
 20
736.71175714743936
 11
885.36093188859377
 21
736.23116632712697
  0
LINE
  8
_0-0_0
  6
CONTINUOUS
 62
    7
 10
885.36093188859377
 20
736.23116632712697
 11
885.36983157731459
 21
735.74987312568044
  0
LINE
  8
_0-0_0
  6
CONTINUOUS
 62
    7
 10
885.36983157731459
 20
735.74987312568044
 11
885.37273170091089
 21
735.26845833075856
  0
LINE
  8
_0-0_0
  6
CONTINUOUS
 62
    7
 10
885.37273170091089
 20
735.26845833075856
 11
885.36983157731459
 21
734.78756233466481
  0
LINE
  8
_0-0_0
  6
CONTINUOUS
 62
    7
 10
885.36983157731459
 20
734.78756233466481
 11
885.36093188859377
 21
734.30626961005544
  0
LINE
  8
_0-0_0
  6
CONTINUOUS
 62
    7
 10
885.36093188859377
 20
734.30626961005544
 11
885.34603168107435
 21
733.82506843818032
  0
LINE
  8
_0-0_0
  6
CONTINUOUS
 62
    7
 10
885.34603168107435
 20
733.82506843818032
 11
885.32533122636232
 21
733.34466072333669
  0
LINE
  8
_0-0_0
  6
CONTINUOUS
 62
    7
 10
885.32533122636232
 20
733.34466072333669
 11
885.29863216020033
 21
732.86394783271157
  0
LINE
  8
_0-0_0
  6
CONTINUOUS
 62
    7
 10
885.29863216020033
 20
732.86394783271157
 11
885.26593162156496
 21
732.38366218818044
  0
LINE
  8
_0-0_0
  6
CONTINUOUS
 62
    7
 10
885.26593162156496
 20
732.38366218818044
 11
885.22743178941164
 21
731.90435310614919
  0
LINE
  8
_0-0_0
  6
CONTINUOUS
 62
    7
 10
885.22743178941164
 20
731.90435310614919
 11
885.18293143845972
 21
731.42495247138356
  0
LINE
  8
_0-0_0
  6
CONTINUOUS
 62
    7
 10
885.18293143845972
 20
731.42495247138356
 11
885.13253165818605
 21
730.94625374091481
  0
LINE
  8
_0-0_0
  6
CONTINUOUS
 62
    7
 10
885.13253165818605
 20
730.94625374091481
 11
885.07633163072023
 21
730.46865364325856
  0
LINE
  8
_0-0_0
  6
CONTINUOUS
 62
    7
 10
885.07633163072023
 20
730.46865364325856
 11
885.01413203813001
 21
729.99126716864919
  0
LINE
  8
_0-0_0
  6
CONTINUOUS
 62
    7
 10
885.01413203813001
 20
729.99126716864919
 11
884.94613124467287
 21
729.51464363349282
  0
LINE
  8
_0-0_0
  6
CONTINUOUS
 62
    7
 10
884.94613124467287
 20
729.51464363349282
 11
884.87223197556898
 21
729.03954597724294
  0
LINE
  8
_0-0_0
  6
CONTINUOUS
 62
    7
 10
884.87223197556898
 20
729.03954597724294
 11
884.79243136979505
 21
728.56484510911309
  0
LINE
  8
_0-0_0
  6
CONTINUOUS
 62
    7
 10
884.79243136979505
 20
728.56484510911309
 11
884.70673133469984
 21
728.09105964911794
  0
LINE
  8
_0-0_0
  6
CONTINUOUS
 62
    7
 10
884.70673133469984
 20
728.09105964911794
 11
884.61533214188978
 21
727.61904426825845
  0
LINE
  8
_0-0_0
  6
CONTINUOUS
 62
    7
 10
884.61533214188978
 20
727.61904426825845
 11
884.51803161240969
 21
727.1475476862272
  0
LINE
  8
_0-0_0
  6
CONTINUOUS
 62
    7
 10
884.51803161240969
 20
727.1475476862272
 11
884.41503192521498
 21
726.67785164130532
  0
LINE
  8
_0-0_0
  6
CONTINUOUS
 62
    7
 10
884.41503192521498
 20
726.67785164130532
 11
884.30613280869898
 21
726.20896431220388
  0
LINE
  8
_0-0_0
  6
CONTINUOUS
 62
    7
 10
884.30613280869898
 20
726.20896431220388
 11
884.19143249131605
 21
725.74135872138356
  0
LINE
  8
_0-0_0
  6
CONTINUOUS
 62
    7
 10
884.19143249131605
 20
725.74135872138356
 11
884.07113267518434
 21
725.27585884345388
  0
LINE
  8
_0-0_0
  6
CONTINUOUS
 62
    7
 10
884.07113267518434
 20
725.27585884345388
 11
883.94493247605726
 21
724.81125923407888
  0
LINE
  8
_0-0_0
  6
CONTINUOUS
 62
    7
 10
883.94493247605726
 20
724.81125923407888
 11
883.81293250657473
 21
724.34826179755544
  0
LINE
  8
_0-0_0
  6
CONTINUOUS
 62
    7
 10
883.81293250657473
 20
724.34826179755544
 11
883.67553283311292
 21
723.887461626657
  0
LINE
  8
_0-0_0
  6
CONTINUOUS
 62
    7
 10
883.67553283311292
 20
723.887461626657
 11
883.53223277665529
 21
723.42785164130544
  0
LINE
  8
_0-0_0
  6
CONTINUOUS
 62
    7
 10
883.53223277665529
 20
723.42785164130544
 11
883.38323260880873
 21
722.97005745185231
  0
LINE
  8
_0-0_0
  6
CONTINUOUS
 62
    7
 10
883.38323260880873
 20
722.97005745185231
 11
883.22883273698255
 21
722.51476570380544
  0
LINE
  8
_0-0_0
  6
CONTINUOUS
 62
    7
 10
883.22883273698255
 20
722.51476570380544
 11
883.06853248216066
 21
722.06075569403981
  0
LINE
  8
_0-0_0
  6
CONTINUOUS
 62
    7
 10
883.06853248216066
 20
722.06075569403981
 11
882.90273286439344
 21
721.60885139716481
  0
LINE
  8
_0-0_0
  6
CONTINUOUS
 62
    7
 10
882.90273286439344
 20
721.60885139716481
 11
882.73163272477541
 21
721.15946480048501
  0
LINE
  8
_0-0_0
  6
CONTINUOUS
 62
    7
 10
882.73163272477541
 20
721.15946480048501
 11
882.55473281480238
 21
720.71175667060231
  0
LINE
  8
_0-0_0
  6
CONTINUOUS
 62
    7
 10
882.55473281480238
 20
720.71175667060231
 11
882.37223245240614
 21
720.26626106513345
  0
LINE
  8
_0-0_0
  6
CONTINUOUS
 62
    7
 10
882.37223245240614
 20
720.26626106513345
 11
882.37273265458509
 21
720.26845833075856
  0
LINE
  8
_0-0_0
  6
CONTINUOUS
 62
    7
 10
882.37273265458509
 20
780.2684578539214
 11
882.55473281480238
 21
779.82506796134328
  0
LINE
  8
_0-0_0
  6
CONTINUOUS
 62
    7
 10
882.55473281480238
 20
779.82506796134328
 11
882.73143245316896
 21
779.37786337149942
  0
LINE
  8
_0-0_0
  6
CONTINUOUS
 62
    7
 10
882.73143245316896
 20
779.37786337149942
 11
882.90273286439344
 21
778.92794271720265
  0
LINE
  8
_0-0_0
  6
CONTINUOUS
 62
    7
 10
882.90273286439344
 20
778.92794271720265
 11
883.0683326873916
 21
778.47655721915567
  0
LINE
  8
_0-0_0
  6
CONTINUOUS
 62
    7
 10
883.0683326873916
 20
778.47655721915567
 11
883.22863246537611
 21
778.02266927970265
  0
LINE
  8
_0-0_0
  6
CONTINUOUS
 62
    7
 10
883.22863246537611
 20
778.02266927970265
 11
883.38323260880873
 21
777.56676718009328
  0
LINE
  8
_0-0_0
  6
CONTINUOUS
 62
    7
 10
883.38323260880873
 20
777.56676718009328
 11
883.53203250504885
 21
777.10946127189015
  0
LINE
  8
_0-0_0
  6
CONTINUOUS
 62
    7
 10
883.53203250504885
 20
777.10946127189015
 11
883.67533256150648
 21
776.64986654532765
  0
LINE
  8
_0-0_0
  6
CONTINUOUS
 62
    7
 10
883.67533256150648
 20
776.64986654532765
 11
883.81293250657473
 21
776.18856283439015
  0
LINE
  8
_0-0_0
  6
CONTINUOUS
 62
    7
 10
883.81293250657473
 20
776.18856283439015
 11
883.94473268128786
 21
775.72616049064004
  0
LINE
  8
_0-0_0
  6
CONTINUOUS
 62
    7
 10
883.94473268128786
 20
775.72616049064004
 11
884.07093288041528
 21
775.26156088126515
  0
LINE
  8
_0-0_0
  6
CONTINUOUS
 62
    7
 10
884.07093288041528
 20
775.26156088126515
 11
884.19143249131605
 21
774.79546591056203
  0
LINE
  8
_0-0_0
  6
CONTINUOUS
 62
    7
 10
884.19143249131605
 20
774.79546591056203
 11
884.30603267289575
 21
774.32845541251504
  0
LINE
  8
_0-0_0
  6
CONTINUOUS
 62
    7
 10
884.30603267289575
 20
774.32845541251504
 11
884.41493178941175
 21
773.85955282462442
  0
LINE
  8
_0-0_0
  6
CONTINUOUS
 62
    7
 10
884.41493178941175
 20
773.85955282462442
 11
884.51803161240969
 21
773.38924642814004
  0
LINE
  8
_0-0_0
  6
CONTINUOUS
 62
    7
 10
884.51803161240969
 20
773.38924642814004
 11
884.61523200608656
 21
772.91836019767129
  0
LINE
  8
_0-0_0
  6
CONTINUOUS
 62
    7
 10
884.61523200608656
 20
772.91836019767129
 11
884.70673133469984
 21
772.44576498282765
  0
LINE
  8
_0-0_0
  6
CONTINUOUS
 62
    7
 10
884.70673133469984
 20
772.44576498282765
 11
884.79243136979505
 21
771.9719490648589
  0
LINE
  8
_0-0_0
  6
CONTINUOUS
 62
    7
 10
884.79243136979505
 20
771.9719490648589
 11
884.87213183976576
 21
771.49785848868703
  0
LINE
  8
_0-0_0
  6
CONTINUOUS
 62
    7
 10
884.87213183976576
 20
771.49785848868703
 11
884.94613124467287
 21
771.02215048087442
  0
LINE
  8
_0-0_0
  6
CONTINUOUS
 62
    7
 10
884.94613124467287
 20
771.02215048087442
 11
885.01413203813001
 21
770.5455574632964
  0
LINE
  8
_0-0_0
  6
CONTINUOUS
 62
    7
 10
885.01413203813001
 20
770.5455574632964
 11
885.07633163072023
 21
770.0687508226714
  0
LINE
  8
_0-0_0
  6
CONTINUOUS
 62
    7
 10
885.07633163072023
 20
770.0687508226714
 11
885.13253165818605
 21
769.59057089103067
  0
LINE
  8
_0-0_0
  6
CONTINUOUS
 62
    7
 10
885.13253165818605
 20
769.59057089103067
 11
885.18293143845972
 21
769.11187216056203
  0
LINE
  8
_0-0_0
  6
CONTINUOUS
 62
    7
 10
885.18293143845972
 20
769.11187216056203
 11
885.22743178941164
 21
768.63305135978078
  0
LINE
  8
_0-0_0
  6
CONTINUOUS
 62
    7
 10
885.22743178941164
 20
768.63305135978078
 11
885.26593162156496
 21
768.15316244376515
  0
LINE
  8
_0-0_0
  6
CONTINUOUS
 62
    7
 10
885.26593162156496
 20
768.15316244376515
 11
885.2985320243971
 21
767.67345663321817
  0
LINE
  8
_0-0_0
  6
CONTINUOUS
 62
    7
 10
885.2985320243971
 20
767.67345663321817
 11
885.32533122636232
 21
767.19274374259328
  0
LINE
  8
_0-0_0
  6
CONTINUOUS
 62
    7
 10
885.32533122636232
 20
767.19274374259328
 11
885.34603168107435
 21
766.71175619376515
  0
LINE
  8
_0-0_0
  6
CONTINUOUS
 62
    7
 10
885.34603168107435
 20
766.71175619376515
 11
885.36093188859377
 21
766.23116537345265
  0
LINE
  8
_0-0_0
  6
CONTINUOUS
 62
    7
 10
885.36093188859377
 20
766.23116537345265
 11
885.36983157731459
 21
765.74987264884328
  0
LINE
  8
_0-0_0
  6
CONTINUOUS
 62
    7
 10
885.36983157731459
 20
765.74987264884328
 11
885.37273170091089
 21
765.2684578539214
  0
LINE
  8
_0-0_0
  6
CONTINUOUS
 62
    7
 10
885.37273170091089
 20
765.2684578539214
 11
885.36983157731459
 21
764.78756185782754
  0
LINE
  8
_0-0_0
  6
CONTINUOUS
 62
    7
 10
885.36983157731459
 20
764.78756185782754
 11
885.36093188859377
 21
764.30626913321828
  0
LINE
  8
_0-0_0
  6
CONTINUOUS
 62
    7
 10
885.36093188859377
 20
764.30626913321828
 11
885.34603168107435
 21
763.82506796134317
  0
LINE
  8
_0-0_0
  6
CONTINUOUS
 62
    7
 10
885.34603168107435
 20
763.82506796134317
 11
885.32533122636232
 21
763.34466024649953
  0
LINE
  8
_0-0_0
  6
CONTINUOUS
 62
    7
 10
885.32533122636232
 20
763.34466024649953
 11
885.29863216020033
 21
762.86394735587453
  0
LINE
  8
_0-0_0
  6
CONTINUOUS
 62
    7
 10
885.29863216020033
 20
762.86394735587453
 11
885.26593162156496
 21
762.38366171134328
  0
LINE
  8
_0-0_0
  6
CONTINUOUS
 62
    7
 10
885.26593162156496
 20
762.38366171134328
 11
885.22743178941164
 21
761.90435262931203
  0
LINE
  8
_0-0_0
  6
CONTINUOUS
 62
    7
 10
885.22743178941164
 20
761.90435262931203
 11
885.18293143845972
 21
761.4249519945464
  0
LINE
  8
_0-0_0
  6
CONTINUOUS
 62
    7
 10
885.18293143845972
 20
761.4249519945464
 11
885.13253165818605
 21
760.94625326407765
  0
LINE
  8
_0-0_0
  6
CONTINUOUS
 62
    7
 10
885.13253165818605
 20
760.94625326407765
 11
885.07633163072023
 21
760.4686531664214
  0
LINE
  8
_0-0_0
  6
CONTINUOUS
 62
    7
 10
885.07633163072023
 20
760.4686531664214
 11
885.01413203813001
 21
759.99126669181192
  0
LINE
  8
_0-0_0
  6
CONTINUOUS
 62
    7
 10
885.01413203813001
 20
759.99126669181192
 11
884.94613124467287
 21
759.51464315665578
  0
LINE
  8
_0-0_0
  6
CONTINUOUS
 62
    7
 10
884.94613124467287
 20
759.51464315665578
 11
884.87223197556898
 21
759.03954550040578
  0
LINE
  8
_0-0_0
  6
CONTINUOUS
 62
    7
 10
884.87223197556898
 20
759.03954550040578
 11
884.79243136979505
 21
758.5648445726714
  0
LINE
  8
_0-0_0
  6
CONTINUOUS
 62
    7
 10
884.79243136979505
 20
758.5648445726714
 11
884.70673133469984
 21
758.09105917228078
  0
LINE
  8
_0-0_0
  6
CONTINUOUS
 62
    7
 10
884.70673133469984
 20
758.09105917228078
 11
884.61533214188978
 21
757.6190437914214
  0
LINE
  8
_0-0_0
  6
CONTINUOUS
 62
    7
 10
884.61533214188978
 20
757.6190437914214
 11
884.51803161240969
 21
757.14754720939015
  0
LINE
  8
_0-0_0
  6
CONTINUOUS
 62
    7
 10
884.51803161240969
 20
757.14754720939015
 11
884.41503192521498
 21
756.67785116446817
  0
LINE
  8
_0-0_0
  6
CONTINUOUS
 62
    7
 10
884.41503192521498
 20
756.67785116446817
 11
884.30613280869898
 21
756.20894857657754
  0
LINE
  8
_0-0_0
  6
CONTINUOUS
 62
    7
 10
884.30613280869898
 20
756.20894857657754
 11
884.19143249131605
 21
755.7413582445464
  0
LINE
  8
_0-0_0
  6
CONTINUOUS
 62
    7
 10
884.19143249131605
 20
755.7413582445464
 11
884.07113267518434
 21
755.27584310782754
  0
LINE
  8
_0-0_0
  6
CONTINUOUS
 62
    7
 10
884.07113267518434
 20
755.27584310782754
 11
883.94493247605726
 21
754.81124349845254
  0
LINE
  8
_0-0_0
  6
CONTINUOUS
 62
    7
 10
883.94493247605726
 20
754.81124349845254
 11
883.81293250657473
 21
754.34826132071817
  0
LINE
  8
_0-0_0
  6
CONTINUOUS
 62
    7
 10
883.81293250657473
 20
754.34826132071817
 11
883.67553283311292
 21
753.88744589103067
  0
LINE
  8
_0-0_0
  6
CONTINUOUS
 62
    7
 10
883.67553283311292
 20
753.88744589103067
 11
883.53223277665529
 21
753.42785116446817
  0
LINE
  8
_0-0_0
  6
CONTINUOUS
 62
    7
 10
883.53223277665529
 20
753.42785116446817
 11
883.38323260880873
 21
752.97005697501515
  0
LINE
  8
_0-0_0
  6
CONTINUOUS
 62
    7
 10
883.38323260880873
 20
752.97005697501515
 11
883.22883273698255
 21
752.51476522696817
  0
LINE
  8
_0-0_0
  6
CONTINUOUS
 62
    7
 10
883.22883273698255
 20
752.51476522696817
 11
883.06853248216066
 21
752.06075521720265
  0
LINE
  8
_0-0_0
  6
CONTINUOUS
 62
    7
 10
883.06853248216066
 20
752.06075521720265
 11
882.90273286439344
 21
751.60885092032754
  0
LINE
  8
_0-0_0
  6
CONTINUOUS
 62
    7
 10
882.90273286439344
 20
751.60885092032754
 11
882.73163272477541
 21
751.1594490648589
  0
LINE
  8
_0-0_0
  6
CONTINUOUS
 62
    7
 10
882.73163272477541
 20
751.1594490648589
 11
882.55473281480238
 21
750.71175619376515
  0
LINE
  8
_0-0_0
  6
CONTINUOUS
 62
    7
 10
882.55473281480238
 20
750.71175619376515
 11
882.37223245240614
 21
750.26626058829629
  0
LINE
  8
_0-0_0
  6
CONTINUOUS
 62
    7
 10
882.37223245240614
 20
750.26626058829629
 11
882.37273265458509
 21
750.2684578539214
  0
LINE
  8
_0-0_0
  6
CONTINUOUS
 62
    7
 10
882.37273265458509
 20
810.26846166861856
 11
882.55473281480238
 21
809.82507177604043
  0
LINE
  8
_0-0_0
  6
CONTINUOUS
 62
    7
 10
882.55473281480238
 20
809.82507177604043
 11
882.73143245316896
 21
809.3778671861968
  0
LINE
  8
_0-0_0
  6
CONTINUOUS
 62
    7
 10
882.73143245316896
 20
809.3778671861968
 11
882.90273286439344
 21
808.92794653189992
  0
LINE
  8
_0-0_0
  6
CONTINUOUS
 62
    7
 10
882.90273286439344
 20
808.92794653189992
 11
883.0683326873916
 21
808.47656103385305
  0
LINE
  8
_0-0_0
  6
CONTINUOUS
 62
    7
 10
883.0683326873916
 20
808.47656103385305
 11
883.22863246537611
 21
808.02267309439981
  0
LINE
  8
_0-0_0
  6
CONTINUOUS
 62
    7
 10
883.22863246537611
 20
808.02267309439981
 11
883.38323260880873
 21
807.56677099479043
  0
LINE
  8
_0-0_0
  6
CONTINUOUS
 62
    7
 10
883.38323260880873
 20
807.56677099479043
 11
883.53203250504885
 21
807.10946508658731
  0
LINE
  8
_0-0_0
  6
CONTINUOUS
 62
    7
 10
883.53203250504885
 20
807.10946508658731
 11
883.67533256150648
 21
806.64987036002481
  0
LINE
  8
_0-0_0
  6
CONTINUOUS
 62
    7
 10
883.67533256150648
 20
806.64987036002481
 11
883.81293250657473
 21
806.18856664908731
  0
LINE
  8
_0-0_0
  6
CONTINUOUS
 62
    7
 10
883.81293250657473
 20
806.18856664908731
 11
883.94473268128786
 21
805.72616430533742
  0
LINE
  8
_0-0_0
  6
CONTINUOUS
 62
    7
 10
883.94473268128786
 20
805.72616430533742
 11
884.07093288041528
 21
805.26156469596242
  0
LINE
  8
_0-0_0
  6
CONTINUOUS
 62
    7
 10
884.07093288041528
 20
805.26156469596242
 11
884.19143249131605
 21
804.79546972525918
  0
LINE
  8
_0-0_0
  6
CONTINUOUS
 62
    7
 10
884.19143249131605
 20
804.79546972525918
 11
884.30603267289575
 21
804.32845922721242
  0
LINE
  8
_0-0_0
  6
CONTINUOUS
 62
    7
 10
884.30603267289575
 20
804.32845922721242
 11
884.41493178941175
 21
803.8595566393218
  0
LINE
  8
_0-0_0
  6
CONTINUOUS
 62
    7
 10
884.41493178941175
 20
803.8595566393218
 11
884.51803161240969
 21
803.38925024283742
  0
LINE
  8
_0-0_0
  6
CONTINUOUS
 62
    7
 10
884.51803161240969
 20
803.38925024283742
 11
884.61523200608656
 21
802.91836401236867
  0
LINE
  8
_0-0_0
  6
CONTINUOUS
 62
    7
 10
884.61523200608656
 20
802.91836401236867
 11
884.70673133469984
 21
802.44576879752481
  0
LINE
  8
_0-0_0
  6
CONTINUOUS
 62
    7
 10
884.70673133469984
 20
802.44576879752481
 11
884.79243136979505
 21
801.97195287955606
  0
LINE
  8
_0-0_0
  6
CONTINUOUS
 62
    7
 10
884.79243136979505
 20
801.97195287955606
 11
884.87213183976576
 21
801.49786230338418
  0
LINE
  8
_0-0_0
  6
CONTINUOUS
 62
    7
 10
884.87213183976576
 20
801.49786230338418
 11
884.94613124467287
 21
801.0221542955718
  0
LINE
  8
_0-0_0
  6
CONTINUOUS
 62
    7
 10
884.94613124467287
 20
801.0221542955718
 11
885.01413203813001
 21
800.54556127799356
  0
LINE
  8
_0-0_0
  6
CONTINUOUS
 62
    7
 10
885.01413203813001
 20
800.54556127799356
 11
885.07633163072023
 21
800.06875463736856
  0
LINE
  8
_0-0_0
  6
CONTINUOUS
 62
    7
 10
885.07633163072023
 20
800.06875463736856
 11
885.13253165818605
 21
799.59057470572805
  0
LINE
  8
_0-0_0
  6
CONTINUOUS
 62
    7
 10
885.13253165818605
 20
799.59057470572805
 11
885.18293143845972
 21
799.11187597525918
  0
LINE
  8
_0-0_0
  6
CONTINUOUS
 62
    7
 10
885.18293143845972
 20
799.11187597525918
 11
885.22743178941164
 21
798.63305517447793
  0
LINE
  8
_0-0_0
  6
CONTINUOUS
 62
    7
 10
885.22743178941164
 20
798.63305517447793
 11
885.26593162156496
 21
798.15316625846231
  0
LINE
  8
_0-0_0
  6
CONTINUOUS
 62
    7
 10
885.26593162156496
 20
798.15316625846231
 11
885.2985320243971
 21
797.67346044791555
  0
LINE
  8
_0-0_0
  6
CONTINUOUS
 62
    7
 10
885.2985320243971
 20
797.67346044791555
 11
885.32533122636232
 21
797.19274755729043
  0
LINE
  8
_0-0_0
  6
CONTINUOUS
 62
    7
 10
885.32533122636232
 20
797.19274755729043
 11
885.34603168107435
 21
796.71176000846242
  0
LINE
  8
_0-0_0
  6
CONTINUOUS
 62
    7
 10
885.34603168107435
 20
796.71176000846242
 11
885.36093188859377
 21
796.23116918814981
  0
LINE
  8
_0-0_0
  6
CONTINUOUS
 62
    7
 10
885.36093188859377
 20
796.23116918814981
 11
885.36983157731459
 21
795.74987646354043
  0
LINE
  8
_0-0_0
  6
CONTINUOUS
 62
    7
 10
885.36983157731459
 20
795.74987646354043
 11
885.37273170091089
 21
795.26846166861856
  0
LINE
  8
_0-0_0
  6
CONTINUOUS
 62
    7
 10
885.37273170091089
 20
795.26846166861856
 11
885.36983157731459
 21
794.78756567252492
  0
LINE
  8
_0-0_0
  6
CONTINUOUS
 62
    7
 10
885.36983157731459
 20
794.78756567252492
 11
885.36093188859377
 21
794.30627294791543
  0
LINE
  8
_0-0_0
  6
CONTINUOUS
 62
    7
 10
885.36093188859377
 20
794.30627294791543
 11
885.34603168107435
 21
793.82507177604055
  0
LINE
  8
_0-0_0
  6
CONTINUOUS
 62
    7
 10
885.34603168107435
 20
793.82507177604055
 11
885.32533122636232
 21
793.34466406119668
  0
LINE
  8
_0-0_0
  6
CONTINUOUS
 62
    7
 10
885.32533122636232
 20
793.34466406119668
 11
885.29863216020033
 21
792.8639511705718
  0
LINE
  8
_0-0_0
  6
CONTINUOUS
 62
    7
 10
885.29863216020033
 20
792.8639511705718
 11
885.26593162156496
 21
792.38366552604043
  0
LINE
  8
_0-0_0
  6
CONTINUOUS
 62
    7
 10
885.26593162156496
 20
792.38366552604043
 11
885.22743178941164
 21
791.90435262931203
  0
LINE
  8
_0-0_0
  6
CONTINUOUS
 62
    7
 10
885.22743178941164
 20
791.90435262931203
 11
885.18293143845972
 21
791.4249519945464
  0
LINE
  8
_0-0_0
  6
CONTINUOUS
 62
    7
 10
885.18293143845972
 20
791.4249519945464
 11
885.13253165818605
 21
790.94625326407765
  0
LINE
  8
_0-0_0
  6
CONTINUOUS
 62
    7
 10
885.13253165818605
 20
790.94625326407765
 11
885.07633163072023
 21
790.4686531664214
  0
LINE
  8
_0-0_0
  6
CONTINUOUS
 62
    7
 10
885.07633163072023
 20
790.4686531664214
 11
885.01413203813001
 21
789.99126669181192
  0
LINE
  8
_0-0_0
  6
CONTINUOUS
 62
    7
 10
885.01413203813001
 20
789.99126669181192
 11
884.94613124467287
 21
789.51464315665578
  0
LINE
  8
_0-0_0
  6
CONTINUOUS
 62
    7
 10
884.94613124467287
 20
789.51464315665578
 11
884.87223197556898
 21
789.03954550040578
  0
LINE
  8
_0-0_0
  6
CONTINUOUS
 62
    7
 10
884.87223197556898
 20
789.03954550040578
 11
884.79243136979505
 21
788.5648445726714
  0
LINE
  8
_0-0_0
  6
CONTINUOUS
 62
    7
 10
884.79243136979505
 20
788.5648445726714
 11
884.70673133469984
 21
788.09105917228078
  0
LINE
  8
_0-0_0
  6
CONTINUOUS
 62
    7
 10
884.70673133469984
 20
788.09105917228078
 11
884.61533214188978
 21
787.6190437914214
  0
LINE
  8
_0-0_0
  6
CONTINUOUS
 62
    7
 10
884.61533214188978
 20
787.6190437914214
 11
884.51803161240969
 21
787.14754720939015
  0
LINE
  8
_0-0_0
  6
CONTINUOUS
 62
    7
 10
884.51803161240969
 20
787.14754720939015
 11
884.41503192521498
 21
786.67785116446817
  0
LINE
  8
_0-0_0
  6
CONTINUOUS
 62
    7
 10
884.41503192521498
 20
786.67785116446817
 11
884.30613280869898
 21
786.20894857657754
  0
LINE
  8
_0-0_0
  6
CONTINUOUS
 62
    7
 10
884.30613280869898
 20
786.20894857657754
 11
884.19143249131605
 21
785.7413582445464
  0
LINE
  8
_0-0_0
  6
CONTINUOUS
 62
    7
 10
884.19143249131605
 20
785.7413582445464
 11
884.07113267518434
 21
785.27584310782754
  0
LINE
  8
_0-0_0
  6
CONTINUOUS
 62
    7
 10
884.07113267518434
 20
785.27584310782754
 11
883.94493247605726
 21
784.81124349845254
  0
LINE
  8
_0-0_0
  6
CONTINUOUS
 62
    7
 10
883.94493247605726
 20
784.81124349845254
 11
883.81293250657473
 21
784.34826132071817
  0
LINE
  8
_0-0_0
  6
CONTINUOUS
 62
    7
 10
883.81293250657473
 20
784.34826132071817
 11
883.67553283311292
 21
783.88744589103067
  0
LINE
  8
_0-0_0
  6
CONTINUOUS
 62
    7
 10
883.67553283311292
 20
783.88744589103067
 11
883.53223277665529
 21
783.42785116446817
  0
LINE
  8
_0-0_0
  6
CONTINUOUS
 62
    7
 10
883.53223277665529
 20
783.42785116446817
 11
883.38323260880873
 21
782.97005697501515
  0
LINE
  8
_0-0_0
  6
CONTINUOUS
 62
    7
 10
883.38323260880873
 20
782.97005697501515
 11
883.22883273698255
 21
782.51476522696817
  0
LINE
  8
_0-0_0
  6
CONTINUOUS
 62
    7
 10
883.22883273698255
 20
782.51476522696817
 11
883.06853248216066
 21
782.06075521720265
  0
LINE
  8
_0-0_0
  6
CONTINUOUS
 62
    7
 10
883.06853248216066
 20
782.06075521720265
 11
882.90273286439344
 21
781.60885092032754
  0
LINE
  8
_0-0_0
  6
CONTINUOUS
 62
    7
 10
882.90273286439344
 20
781.60885092032754
 11
882.73163272477541
 21
781.1594490648589
  0
LINE
  8
_0-0_0
  6
CONTINUOUS
 62
    7
 10
882.73163272477541
 20
781.1594490648589
 11
882.55473281480238
 21
780.71175619376515
  0
LINE
  8
_0-0_0
  6
CONTINUOUS
 62
    7
 10
882.55473281480238
 20
780.71175619376515
 11
882.37223245240614
 21
780.26626058829629
  0
LINE
  8
_0-0_0
  6
CONTINUOUS
 62
    7
 10
882.37223245240614
 20
780.26626058829629
 11
882.37273265458509
 21
780.2684578539214
  0
LINE
  8
_0-0_0
  6
CONTINUOUS
 62
    7
 10
882.37273265458509
 20
720.26845833075856
 11
882.55473281480238
 21
719.82505365622853
  0
LINE
  8
_0-0_0
  6
CONTINUOUS
 62
    7
 10
882.55473281480238
 20
719.82505365622853
 11
882.73143245316896
 21
719.37786432517385
  0
LINE
  8
_0-0_0
  6
CONTINUOUS
 62
    7
 10
882.73143245316896
 20
719.37786432517385
 11
882.90273286439344
 21
718.92795892966603
  0
LINE
  8
_0-0_0
  6
CONTINUOUS
 62
    7
 10
882.90273286439344
 20
718.92795892966603
 11
883.0683326873916
 21
718.4765581728301
  0
LINE
  8
_0-0_0
  6
CONTINUOUS
 62
    7
 10
883.0683326873916
 20
718.4765581728301
 11
883.22863246537611
 21
718.02265497458791
  0
LINE
  8
_0-0_0
  6
CONTINUOUS
 62
    7
 10
883.22863246537611
 20
718.02265497458791
 11
883.38323260880873
 21
717.56675287497853
  0
LINE
  8
_0-0_0
  6
CONTINUOUS
 62
    7
 10
883.38323260880873
 20
717.56675287497853
 11
883.53203250504885
 21
717.10946222556447
  0
LINE
  8
_0-0_0
  6
CONTINUOUS
 62
    7
 10
883.53203250504885
 20
717.10946222556447
 11
883.67533256150648
 21
716.64985224021291
  0
LINE
  8
_0-0_0
  6
CONTINUOUS
 62
    7
 10
883.67533256150648
 20
716.64985224021291
 11
883.81293250657473
 21
716.18856378806436
  0
LINE
  8
_0-0_0
  6
CONTINUOUS
 62
    7
 10
883.81293250657473
 20
716.18856378806436
 11
883.94473268128786
 21
715.72616144431447
  0
LINE
  8
_0-0_0
  6
CONTINUOUS
 62
    7
 10
883.94473268128786
 20
715.72616144431447
 11
884.07093288041528
 21
715.26156183493936
  0
LINE
  8
_0-0_0
  6
CONTINUOUS
 62
    7
 10
884.07093288041528
 20
715.26156183493936
 11
884.19143249131605
 21
714.79545160544728
  0
LINE
  8
_0-0_0
  6
CONTINUOUS
 62
    7
 10
884.19143249131605
 20
714.79545160544728
 11
884.30603267289575
 21
714.32845636618947
  0
LINE
  8
_0-0_0
  6
CONTINUOUS
 62
    7
 10
884.30603267289575
 20
714.32845636618947
 11
884.41493178941175
 21
713.85955377829885
  0
LINE
  8
_0-0_0
  6
CONTINUOUS
 62
    7
 10
884.41493178941175
 20
713.85955377829885
 11
884.51803161240969
 21
713.38926264060342
  0
LINE
  8
_0-0_0
  6
CONTINUOUS
 62
    7
 10
884.51803161240969
 20
713.38926264060342
 11
884.61523200608656
 21
712.91836115134572
  0
LINE
  8
_0-0_0
  6
CONTINUOUS
 62
    7
 10
884.61523200608656
 20
712.91836115134572
 11
884.70673133469984
 21
712.44576593650197
  0
LINE
  8
_0-0_0
  6
CONTINUOUS
 62
    7
 10
884.70673133469984
 20
712.44576593650197
 11
884.79243136979505
 21
711.97196527732228
  0
LINE
  8
_0-0_0
  6
CONTINUOUS
 62
    7
 10
884.79243136979505
 20
711.97196527732228
 11
884.87213183976576
 21
711.49785848868703
  0
LINE
  8
_0-0_0
  6
CONTINUOUS
 62
    7
 10
884.87213183976576
 20
711.49785848868703
 11
884.94613124467287
 21
711.02215048087442
  0
LINE
  8
_0-0_0
  6
CONTINUOUS
 62
    7
 10
884.94613124467287
 20
711.02215048087442
 11
885.01413203813001
 21
710.5455574632964
  0
LINE
  8
_0-0_0
  6
CONTINUOUS
 62
    7
 10
885.01413203813001
 20
710.5455574632964
 11
885.07633163072023
 21
710.0687508226714
  0
LINE
  8
_0-0_0
  6
CONTINUOUS
 62
    7
 10
885.07633163072023
 20
710.0687508226714
 11
885.13253165818605
 21
709.59055563224172
  0
LINE
  8
_0-0_0
  6
CONTINUOUS
 62
    7
 10
885.13253165818605
 20
709.59055563224172
 11
885.18293143845972
 21
709.11185690177285
  0
LINE
  8
_0-0_0
  6
CONTINUOUS
 62
    7
 10
885.18293143845972
 20
709.11185690177285
 11
885.22743178941164
 21
708.63305135978078
  0
LINE
  8
_0-0_0
  6
CONTINUOUS
 62
    7
 10
885.22743178941164
 20
708.63305135978078
 11
885.26593162156496
 21
708.15316244376515
  0
LINE
  8
_0-0_0
  6
CONTINUOUS
 62
    7
 10
885.26593162156496
 20
708.15316244376515
 11
885.2985320243971
 21
707.67345663321817
  0
LINE
  8
_0-0_0
  6
CONTINUOUS
 62
    7
 10
885.2985320243971
 20
707.67345663321817
 11
885.32533122636232
 21
707.19275900138223
  0
LINE
  8
_0-0_0
  6
CONTINUOUS
 62
    7
 10
885.32533122636232
 20
707.19275900138223
 11
885.34603168107435
 21
706.71175619376515
  0
LINE
  8
_0-0_0
  6
CONTINUOUS
 62
    7
 10
885.34603168107435
 20
706.71175619376515
 11
885.36093188859377
 21
706.23116537345265
  0
LINE
  8
_0-0_0
  6
CONTINUOUS
 62
    7
 10
885.36093188859377
 20
706.23116537345265
 11
885.36983157731459
 21
705.7498573900541
  0
LINE
  8
_0-0_0
  6
CONTINUOUS
 62
    7
 10
885.36983157731459
 20
705.7498573900541
 11
885.37273170091089
 21
705.2684578539214
  0
LINE
  8
_0-0_0
  6
CONTINUOUS
 62
    7
 10
885.37273170091089
 20
705.2684578539214
 11
885.36983157731459
 21
704.78756185782754
  0
LINE
  8
_0-0_0
  6
CONTINUOUS
 62
    7
 10
885.36983157731459
 20
704.78756185782754
 11
885.36093188859377
 21
704.3062538744291
  0
LINE
  8
_0-0_0
  6
CONTINUOUS
 62
    7
 10
885.36093188859377
 20
704.3062538744291
 11
885.34603168107435
 21
703.82505270255422
  0
LINE
  8
_0-0_0
  6
CONTINUOUS
 62
    7
 10
885.34603168107435
 20
703.82505270255422
 11
885.32533122636232
 21
703.34466024649953
  0
LINE
  8
_0-0_0
  6
CONTINUOUS
 62
    7
 10
885.32533122636232
 20
703.34466024649953
 11
885.29863216020033
 21
702.86396261466348
  0
LINE
  8
_0-0_0
  6
CONTINUOUS
 62
    7
 10
885.29863216020033
 20
702.86396261466348
 11
885.26593162156496
 21
702.38366171134328
  0
LINE
  8
_0-0_0
  6
CONTINUOUS
 62
    7
 10
885.26593162156496
 20
702.38366171134328
 11
885.22743178941164
 21
701.90435262931203
  0
LINE
  8
_0-0_0
  6
CONTINUOUS
 62
    7
 10
885.22743178941164
 20
701.90435262931203
 11
885.18293143845972
 21
701.4249519945464
  0
LINE
  8
_0-0_0
  6
CONTINUOUS
 62
    7
 10
885.18293143845972
 20
701.4249519945464
 11
885.13253165818605
 21
700.94625326407765
  0
LINE
  8
_0-0_0
  6
CONTINUOUS
 62
    7
 10
885.13253165818605
 20
700.94625326407765
 11
885.07633163072023
 21
700.4686531664214
  0
LINE
  8
_0-0_0
  6
CONTINUOUS
 62
    7
 10
885.07633163072023
 20
700.4686531664214
 11
885.01413203813001
 21
699.99125143302297
  0
LINE
  8
_0-0_0
  6
CONTINUOUS
 62
    7
 10
885.01413203813001
 20
699.99125143302297
 11
884.94613124467287
 21
699.51465841544473
  0
LINE
  8
_0-0_0
  6
CONTINUOUS
 62
    7
 10
884.94613124467287
 20
699.51465841544473
 11
884.87223197556898
 21
699.03956075919484
  0
LINE
  8
_0-0_0
  6
CONTINUOUS
 62
    7
 10
884.87223197556898
 20
699.03956075919484
 11
884.79243136979505
 21
698.56485983146047
  0
LINE
  8
_0-0_0
  6
CONTINUOUS
 62
    7
 10
884.79243136979505
 20
698.56485983146047
 11
884.70673133469984
 21
698.09105917228078
  0
LINE
  8
_0-0_0
  6
CONTINUOUS
 62
    7
 10
884.70673133469984
 20
698.09105917228078
 11
884.61533214188978
 21
697.61905905021035
  0
LINE
  8
_0-0_0
  6
CONTINUOUS
 62
    7
 10
884.61533214188978
 20
697.61905905021035
 11
884.51803161240969
 21
697.1475624681791
  0
LINE
  8
_0-0_0
  6
CONTINUOUS
 62
    7
 10
884.51803161240969
 20
697.1475624681791
 11
884.41503192521498
 21
696.67785116446817
  0
LINE
  8
_0-0_0
  6
CONTINUOUS
 62
    7
 10
884.41503192521498
 20
696.67785116446817
 11
884.30613280869898
 21
696.20896383536672
  0
LINE
  8
_0-0_0
  6
CONTINUOUS
 62
    7
 10
884.30613280869898
 20
696.20896383536672
 11
884.19143249131605
 21
695.7413582445464
  0
LINE
  8
_0-0_0
  6
CONTINUOUS
 62
    7
 10
884.19143249131605
 20
695.7413582445464
 11
884.07113267518434
 21
695.27585836661672
  0
LINE
  8
_0-0_0
  6
CONTINUOUS
 62
    7
 10
884.07113267518434
 20
695.27585836661672
 11
883.94493247605726
 21
694.81125875724172
  0
LINE
  8
_0-0_0
  6
CONTINUOUS
 62
    7
 10
883.94493247605726
 20
694.81125875724172
 11
883.81293250657473
 21
694.34826132071817
  0
LINE
  8
_0-0_0
  6
CONTINUOUS
 62
    7
 10
883.81293250657473
 20
694.34826132071817
 11
883.67553283311292
 21
693.88746114981984
  0
LINE
  8
_0-0_0
  6
CONTINUOUS
 62
    7
 10
883.67553283311292
 20
693.88746114981984
 11
883.53223277665529
 21
693.42785116446817
  0
LINE
  8
_0-0_0
  6
CONTINUOUS
 62
    7
 10
883.53223277665529
 20
693.42785116446817
 11
883.38323260880873
 21
692.97005697501504
  0
LINE
  8
_0-0_0
  6
CONTINUOUS
 62
    7
 10
883.38323260880873
 20
692.97005697501504
 11
883.22883273698255
 21
692.51476522696817
  0
LINE
  8
_0-0_0
  6
CONTINUOUS
 62
    7
 10
883.22883273698255
 20
692.51476522696817
 11
883.06853248216066
 21
692.06075521720265
  0
LINE
  8
_0-0_0
  6
CONTINUOUS
 62
    7
 10
883.06853248216066
 20
692.06075521720265
 11
882.90273286439344
 21
691.60885092032754
  0
LINE
  8
_0-0_0
  6
CONTINUOUS
 62
    7
 10
882.90273286439344
 20
691.60885092032754
 11
882.73163272477541
 21
691.15946432364797
  0
LINE
  8
_0-0_0
  6
CONTINUOUS
 62
    7
 10
882.73163272477541
 20
691.15946432364797
 11
882.55473281480238
 21
690.71175619376504
  0
LINE
  8
_0-0_0
  6
CONTINUOUS
 62
    7
 10
882.55473281480238
 20
690.71175619376504
 11
882.37223245240614
 21
690.26626058829629
  0
LINE
  8
_0-0_0
  6
CONTINUOUS
 62
    7
 10
882.37223245240614
 20
690.26626058829629
 11
882.37273265458509
 21
690.2684578539214
  0
LINE
  8
_0-0_0
  6
CONTINUOUS
 62
    7
 10
882.37273265458509
 20
690.2684578539214
 11
882.55473281480238
 21
689.8250527025541
  0
LINE
  8
_0-0_0
  6
CONTINUOUS
 62
    7
 10
882.55473281480238
 20
689.8250527025541
 11
882.73143245316896
 21
689.37786337149942
  0
LINE
  8
_0-0_0
  6
CONTINUOUS
 62
    7
 10
882.73143245316896
 20
689.37786337149942
 11
882.90273286439344
 21
688.9279579759916
  0
LINE
  8
_0-0_0
  6
CONTINUOUS
 62
    7
 10
882.90273286439344
 20
688.9279579759916
 11
883.0683326873916
 21
688.47655721915567
  0
LINE
  8
_0-0_0
  6
CONTINUOUS
 62
    7
 10
883.0683326873916
 20
688.47655721915567
 11
883.22863246537611
 21
688.02265402091348
  0
LINE
  8
_0-0_0
  6
CONTINUOUS
 62
    7
 10
883.22863246537611
 20
688.02265402091348
 11
883.38323260880873
 21
687.5667519213041
  0
LINE
  8
_0-0_0
  6
CONTINUOUS
 62
    7
 10
883.38323260880873
 20
687.5667519213041
 11
883.53203250504885
 21
687.10946127189004
  0
LINE
  8
_0-0_0
  6
CONTINUOUS
 62
    7
 10
883.53203250504885
 20
687.10946127189004
 11
883.67533256150648
 21
686.64985128653848
  0
LINE
  8
_0-0_0
  6
CONTINUOUS
 62
    7
 10
883.67533256150648
 20
686.64985128653848
 11
883.81293250657473
 21
686.18856283439015
  0
LINE
  8
_0-0_0
  6
CONTINUOUS
 62
    7
 10
883.81293250657473
 20
686.18856283439015
 11
883.94473268128786
 21
685.72616049064004
  0
LINE
  8
_0-0_0
  6
CONTINUOUS
 62
    7
 10
883.94473268128786
 20
685.72616049064004
 11
884.07093288041528
 21
685.26156088126515
  0
LINE
  8
_0-0_0
  6
CONTINUOUS
 62
    7
 10
884.07093288041528
 20
685.26156088126515
 11
884.19143249131605
 21
684.79545065177285
  0
LINE
  8
_0-0_0
  6
CONTINUOUS
 62
    7
 10
884.19143249131605
 20
684.79545065177285
 11
884.30603267289575
 21
684.32845541251504
  0
LINE
  8
_0-0_0
  6
CONTINUOUS
 62
    7
 10
884.30603267289575
 20
684.32845541251504
 11
884.41493178941175
 21
683.85955282462442
  0
LINE
  8
_0-0_0
  6
CONTINUOUS
 62
    7
 10
884.41493178941175
 20
683.85955282462442
 11
884.51803161240969
 21
683.38926168692922
  0
LINE
  8
_0-0_0
  6
CONTINUOUS
 62
    7
 10
884.51803161240969
 20
683.38926168692922
 11
884.61523200608656
 21
682.91836019767129
  0
LINE
  8
_0-0_0
  6
CONTINUOUS
 62
    7
 10
884.61523200608656
 20
682.91836019767129
 11
884.70673133469984
 21
682.44576498282754
  0
LINE
  8
_0-0_0
  6
CONTINUOUS
 62
    7
 10
884.70673133469984
 20
682.44576498282754
 11
884.79243136979505
 21
681.97196432364785
  0
LINE
  8
_0-0_0
  6
CONTINUOUS
 62
    7
 10
884.79243136979505
 20
681.97196432364785
 11
884.87213183976576
 21
681.49785848868703
  0
LINE
  8
_0-0_0
  6
CONTINUOUS
 62
    7
 10
884.87213183976576
 20
681.49785848868703
 11
884.94613124467287
 21
681.02215048087442
  0
LINE
  8
_0-0_0
  6
CONTINUOUS
 62
    7
 10
884.94613124467287
 20
681.02215048087442
 11
885.01413203813001
 21
680.5455574632964
  0
LINE
  8
_0-0_0
  6
CONTINUOUS
 62
    7
 10
885.01413203813001
 20
680.5455574632964
 11
885.07633163072023
 21
680.06875082267129
  0
LINE
  8
_0-0_0
  6
CONTINUOUS
 62
    7
 10
885.07633163072023
 20
680.06875082267129
 11
885.13253165818605
 21
679.59055563224172
  0
LINE
  8
_0-0_0
  6
CONTINUOUS
 62
    7
 10
885.13253165818605
 20
679.59055563224172
 11
885.18293143845972
 21
679.11185690177285
  0
LINE
  8
_0-0_0
  6
CONTINUOUS
 62
    7
 10
885.18293143845972
 20
679.11185690177285
 11
885.22743178941164
 21
678.63305135978067
  0
LINE
  8
_0-0_0
  6
CONTINUOUS
 62
    7
 10
885.22743178941164
 20
678.63305135978067
 11
885.26593162156496
 21
678.15316244376515
  0
LINE
  8
_0-0_0
  6
CONTINUOUS
 62
    7
 10
885.26593162156496
 20
678.15316244376515
 11
885.2985320243971
 21
677.67345663321817
  0
LINE
  8
_0-0_0
  6
CONTINUOUS
 62
    7
 10
885.2985320243971
 20
677.67345663321817
 11
885.32533122636232
 21
677.19275900138223
  0
LINE
  8
_0-0_0
  6
CONTINUOUS
 62
    7
 10
885.32533122636232
 20
677.19275900138223
 11
885.34603168107435
 21
676.71175619376515
  0
LINE
  8
_0-0_0
  6
CONTINUOUS
 62
    7
 10
885.34603168107435
 20
676.71175619376515
 11
885.36093188859377
 21
676.23116537345265
  0
LINE
  8
_0-0_0
  6
CONTINUOUS
 62
    7
 10
885.36093188859377
 20
676.23116537345265
 11
885.36983157731459
 21
675.7498573900541
  0
LINE
  8
_0-0_0
  6
CONTINUOUS
 62
    7
 10
885.36983157731459
 20
675.7498573900541
 11
885.37273170091089
 21
675.2684578539214
  0
LINE
  8
_0-0_0
  6
CONTINUOUS
 62
    7
 10
885.37273170091089
 20
675.2684578539214
 11
885.36983157731459
 21
674.78756185782754
  0
LINE
  8
_0-0_0
  6
CONTINUOUS
 62
    7
 10
885.36983157731459
 20
674.78756185782754
 11
885.36093188859377
 21
674.3062538744291
  0
LINE
  8
_0-0_0
  6
CONTINUOUS
 62
    7
 10
885.36093188859377
 20
674.3062538744291
 11
885.34603168107435
 21
673.82505270255422
  0
LINE
  8
_0-0_0
  6
CONTINUOUS
 62
    7
 10
885.34603168107435
 20
673.82505270255422
 11
885.32533122636232
 21
673.34466024649953
  0
LINE
  8
_0-0_0
  6
CONTINUOUS
 62
    7
 10
885.32533122636232
 20
673.34466024649953
 11
885.29863216020033
 21
672.86396261466348
  0
LINE
  8
_0-0_0
  6
CONTINUOUS
 62
    7
 10
885.29863216020033
 20
672.86396261466348
 11
885.26593162156496
 21
672.38366171134328
  0
LINE
  8
_0-0_0
  6
CONTINUOUS
 62
    7
 10
885.26593162156496
 20
672.38366171134328
 11
885.22743178941164
 21
671.90435262931203
  0
LINE
  8
_0-0_0
  6
CONTINUOUS
 62
    7
 10
885.22743178941164
 20
671.90435262931203
 11
885.18293143845972
 21
671.4249519945464
  0
LINE
  8
_0-0_0
  6
CONTINUOUS
 62
    7
 10
885.18293143845972
 20
671.4249519945464
 11
885.13253165818605
 21
670.94625326407765
  0
LINE
  8
_0-0_0
  6
CONTINUOUS
 62
    7
 10
885.13253165818605
 20
670.94625326407765
 11
885.07633163072023
 21
670.4686531664214
  0
LINE
  8
_0-0_0
  6
CONTINUOUS
 62
    7
 10
885.07633163072023
 20
670.4686531664214
 11
885.01413203813001
 21
669.99125143302297
  0
LINE
  8
_0-0_0
  6
CONTINUOUS
 62
    7
 10
885.01413203813001
 20
669.99125143302297
 11
884.94613124467287
 21
669.51465841544473
  0
LINE
  8
_0-0_0
  6
CONTINUOUS
 62
    7
 10
884.94613124467287
 20
669.51465841544473
 11
884.87223197556898
 21
669.03956075919484
  0
LINE
  8
_0-0_0
  6
CONTINUOUS
 62
    7
 10
884.87223197556898
 20
669.03956075919484
 11
884.79243136979505
 21
668.56485983146047
  0
LINE
  8
_0-0_0
  6
CONTINUOUS
 62
    7
 10
884.79243136979505
 20
668.56485983146047
 11
884.70673133469984
 21
668.09105917228078
  0
LINE
  8
_0-0_0
  6
CONTINUOUS
 62
    7
 10
884.70673133469984
 20
668.09105917228078
 11
884.61533214188978
 21
667.61905905021035
  0
LINE
  8
_0-0_0
  6
CONTINUOUS
 62
    7
 10
884.61533214188978
 20
667.61905905021035
 11
884.51803161240969
 21
667.1475624681791
  0
LINE
  8
_0-0_0
  6
CONTINUOUS
 62
    7
 10
884.51803161240969
 20
667.1475624681791
 11
884.41503192521498
 21
666.67785116446817
  0
LINE
  8
_0-0_0
  6
CONTINUOUS
 62
    7
 10
884.41503192521498
 20
666.67785116446817
 11
884.30613280869898
 21
666.20896383536672
  0
LINE
  8
_0-0_0
  6
CONTINUOUS
 62
    7
 10
884.30613280869898
 20
666.20896383536672
 11
884.19143249131605
 21
665.7413582445464
  0
LINE
  8
_0-0_0
  6
CONTINUOUS
 62
    7
 10
884.19143249131605
 20
665.7413582445464
 11
884.07113267518434
 21
665.27585836661672
  0
LINE
  8
_0-0_0
  6
CONTINUOUS
 62
    7
 10
884.07113267518434
 20
665.27585836661672
 11
883.94493247605726
 21
664.81125875724172
  0
LINE
  8
_0-0_0
  6
CONTINUOUS
 62
    7
 10
883.94493247605726
 20
664.81125875724172
 11
883.81293250657473
 21
664.34826132071817
  0
LINE
  8
_0-0_0
  6
CONTINUOUS
 62
    7
 10
883.81293250657473
 20
664.34826132071817
 11
883.67553283311292
 21
663.88746496451699
  0
LINE
  8
_0-0_0
  6
CONTINUOUS
 62
    7
 10
883.67553283311292
 20
663.88746496451699
 11
883.53223277665529
 21
663.42785497916555
  0
LINE
  8
_0-0_0
  6
CONTINUOUS
 62
    7
 10
883.53223277665529
 20
663.42785497916555
 11
883.38323260880873
 21
662.97006078971231
  0
LINE
  8
_0-0_0
  6
CONTINUOUS
 62
    7
 10
883.38323260880873
 20
662.97006078971231
 11
883.22883273698255
 21
662.51476904166555
  0
LINE
  8
_0-0_0
  6
CONTINUOUS
 62
    7
 10
883.22883273698255
 20
662.51476904166555
 11
883.06853248216066
 21
662.06075903189981
  0
LINE
  8
_0-0_0
  6
CONTINUOUS
 62
    7
 10
883.06853248216066
 20
662.06075903189981
 11
882.90273286439344
 21
661.60885473502492
  0
LINE
  8
_0-0_0
  6
CONTINUOUS
 62
    7
 10
882.90273286439344
 20
661.60885473502492
 11
882.73163272477541
 21
661.15946813834523
  0
LINE
  8
_0-0_0
  6
CONTINUOUS
 62
    7
 10
882.73163272477541
 20
661.15946813834523
 11
882.55473281480238
 21
660.71176000846231
  0
LINE
  8
_0-0_0
  6
CONTINUOUS
 62
    7
 10
882.55473281480238
 20
660.71176000846231
 11
882.37223245240614
 21
660.26626440299367
  0
LINE
  8
_0-0_0
  6
CONTINUOUS
 62
    7
 10
882.37223245240614
 20
660.26626440299367
 11
882.37273265458509
 21
660.26846166861856
  0
LINE
  8
_0-0_0
  6
CONTINUOUS
 62
    7
 10
882.37273265458509
 20
660.26846166861856
 11
882.55473281480238
 21
659.82505651725148
  0
LINE
  8
_0-0_0
  6
CONTINUOUS
 62
    7
 10
882.55473281480238
 20
659.82505651725148
 11
882.73143245316896
 21
659.3778671861968
  0
LINE
  8
_0-0_0
  6
CONTINUOUS
 62
    7
 10
882.73143245316896
 20
659.3778671861968
 11
882.90273286439344
 21
658.92796179068898
  0
LINE
  8
_0-0_0
  6
CONTINUOUS
 62
    7
 10
882.90273286439344
 20
658.92796179068898
 11
883.0683326873916
 21
658.47656103385305
  0
LINE
  8
_0-0_0
  6
CONTINUOUS
 62
    7
 10
883.0683326873916
 20
658.47656103385305
 11
883.22863246537611
 21
658.02265783561086
  0
LINE
  8
_0-0_0
  6
CONTINUOUS
 62
    7
 10
883.22863246537611
 20
658.02265783561086
 11
883.38323260880873
 21
657.56675573600148
  0
LINE
  8
_0-0_0
  6
CONTINUOUS
 62
    7
 10
883.38323260880873
 20
657.56675573600148
 11
883.53203250504885
 21
657.10946508658731
  0
LINE
  8
_0-0_0
  6
CONTINUOUS
 62
    7
 10
883.53203250504885
 20
657.10946508658731
 11
883.67533256150648
 21
656.64985510123586
  0
LINE
  8
_0-0_0
  6
CONTINUOUS
 62
    7
 10
883.67533256150648
 20
656.64985510123586
 11
883.81293250657473
 21
656.18856664908731
  0
LINE
  8
_0-0_0
  6
CONTINUOUS
 62
    7
 10
883.81293250657473
 20
656.18856664908731
 11
883.94473268128786
 21
655.72616430533742
  0
LINE
  8
_0-0_0
  6
CONTINUOUS
 62
    7
 10
883.94473268128786
 20
655.72616430533742
 11
884.07093288041528
 21
655.26156469596242
  0
LINE
  8
_0-0_0
  6
CONTINUOUS
 62
    7
 10
884.07093288041528
 20
655.26156469596242
 11
884.19143249131605
 21
654.79545446647023
  0
LINE
  8
_0-0_0
  6
CONTINUOUS
 62
    7
 10
884.19143249131605
 20
654.79545446647023
 11
884.30603267289575
 21
654.32845922721242
  0
LINE
  8
_0-0_0
  6
CONTINUOUS
 62
    7
 10
884.30603267289575
 20
654.32845922721242
 11
884.41493178941175
 21
653.8595566393218
  0
LINE
  8
_0-0_0
  6
CONTINUOUS
 62
    7
 10
884.41493178941175
 20
653.8595566393218
 11
884.51803161240969
 21
653.38926550162637
  0
LINE
  8
_0-0_0
  6
CONTINUOUS
 62
    7
 10
884.51803161240969
 20
653.38926550162637
 11
884.61523200608656
 21
652.91836401236867
  0
LINE
  8
_0-0_0
  6
CONTINUOUS
 62
    7
 10
884.61523200608656
 20
652.91836401236867
 11
884.70673133469984
 21
652.44576879752481
  0
LINE
  8
_0-0_0
  6
CONTINUOUS
 62
    7
 10
884.70673133469984
 20
652.44576879752481
 11
884.79243136979505
 21
651.97196813834523
  0
LINE
  8
_0-0_0
  6
CONTINUOUS
 62
    7
 10
884.79243136979505
 20
651.97196813834523
 11
884.87213183976576
 21
651.49786230338418
  0
LINE
  8
_0-0_0
  6
CONTINUOUS
 62
    7
 10
884.87213183976576
 20
651.49786230338418
 11
884.94613124467287
 21
651.0221542955718
  0
LINE
  8
_0-0_0
  6
CONTINUOUS
 62
    7
 10
884.94613124467287
 20
651.0221542955718
 11
885.01413203813001
 21
650.54556127799356
  0
LINE
  8
_0-0_0
  6
CONTINUOUS
 62
    7
 10
885.01413203813001
 20
650.54556127799356
 11
885.07633163072023
 21
650.06875463736856
  0
LINE
  8
_0-0_0
  6
CONTINUOUS
 62
    7
 10
885.07633163072023
 20
650.06875463736856
 11
885.13253165818605
 21
649.59055944693898
  0
LINE
  8
_0-0_0
  6
CONTINUOUS
 62
    7
 10
885.13253165818605
 20
649.59055944693898
 11
885.18293143845972
 21
649.11186071647023
  0
LINE
  8
_0-0_0
  6
CONTINUOUS
 62
    7
 10
885.18293143845972
 20
649.11186071647023
 11
885.22743178941164
 21
648.63305517447793
  0
LINE
  8
_0-0_0
  6
CONTINUOUS
 62
    7
 10
885.22743178941164
 20
648.63305517447793
 11
885.26593162156496
 21
648.15316625846231
  0
LINE
  8
_0-0_0
  6
CONTINUOUS
 62
    7
 10
885.26593162156496
 20
648.15316625846231
 11
885.2985320243971
 21
647.67346044791555
  0
LINE
  8
_0-0_0
  6
CONTINUOUS
 62
    7
 10
885.2985320243971
 20
647.67346044791555
 11
885.32533122636232
 21
647.19276281607961
  0
LINE
  8
_0-0_0
  6
CONTINUOUS
 62
    7
 10
885.32533122636232
 20
647.19276281607961
 11
885.34603168107435
 21
646.71176000846242
  0
LINE
  8
_0-0_0
  6
CONTINUOUS
 62
    7
 10
885.34603168107435
 20
646.71176000846242
 11
885.36093188859377
 21
646.23116918814981
  0
LINE
  8
_0-0_0
  6
CONTINUOUS
 62
    7
 10
885.36093188859377
 20
646.23116918814981
 11
885.36983157731459
 21
645.74986120475148
  0
LINE
  8
_0-0_0
  6
CONTINUOUS
 62
    7
 10
885.36983157731459
 20
645.74986120475148
 11
885.37273170091089
 21
645.26846166861856
  0
LINE
  8
_0-0_0
  6
CONTINUOUS
 62
    7
 10
885.37273170091089
 20
645.26846166861856
 11
885.36983157731459
 21
644.78756567252492
  0
LINE
  8
_0-0_0
  6
CONTINUOUS
 62
    7
 10
885.36983157731459
 20
644.78756567252492
 11
885.36093188859377
 21
644.30625768912648
  0
LINE
  8
_0-0_0
  6
CONTINUOUS
 62
    7
 10
885.36093188859377
 20
644.30625768912648
 11
885.34603168107435
 21
643.82505651725137
  0
LINE
  8
_0-0_0
  6
CONTINUOUS
 62
    7
 10
885.34603168107435
 20
643.82505651725137
 11
885.32533122636232
 21
643.34466406119668
  0
LINE
  8
_0-0_0
  6
CONTINUOUS
 62
    7
 10
885.32533122636232
 20
643.34466406119668
 11
885.29863216020033
 21
642.86396642936086
  0
LINE
  8
_0-0_0
  6
CONTINUOUS
 62
    7
 10
885.29863216020033
 20
642.86396642936086
 11
885.26593162156496
 21
642.38366552604043
  0
LINE
  8
_0-0_0
  6
CONTINUOUS
 62
    7
 10
885.26593162156496
 20
642.38366552604043
 11
885.22743178941164
 21
641.90435644400918
  0
LINE
  8
_0-0_0
  6
CONTINUOUS
 62
    7
 10
885.22743178941164
 20
641.90435644400918
 11
885.18293143845972
 21
641.42495580924356
  0
LINE
  8
_0-0_0
  6
CONTINUOUS
 62
    7
 10
885.18293143845972
 20
641.42495580924356
 11
885.13253165818605
 21
640.94625707877481
  0
LINE
  8
_0-0_0
  6
CONTINUOUS
 62
    7
 10
885.13253165818605
 20
640.94625707877481
 11
885.07633163072023
 21
640.46865698111856
  0
LINE
  8
_0-0_0
  6
CONTINUOUS
 62
    7
 10
885.07633163072023
 20
640.46865698111856
 11
885.01413203813001
 21
639.99125524772023
  0
LINE
  8
_0-0_0
  6
CONTINUOUS
 62
    7
 10
885.01413203813001
 20
639.99125524772023
 11
884.94613124467287
 21
639.51466223014211
  0
LINE
  8
_0-0_0
  6
CONTINUOUS
 62
    7
 10
884.94613124467287
 20
639.51466223014211
 11
884.87223197556898
 21
639.03956457389211
  0
LINE
  8
_0-0_0
  6
CONTINUOUS
 62
    7
 10
884.87223197556898
 20
639.03956457389211
 11
884.79243136979505
 21
638.56486364615773
  0
LINE
  8
_0-0_0
  6
CONTINUOUS
 62
    7
 10
884.79243136979505
 20
638.56486364615773
 11
884.70673133469984
 21
638.09106298697793
  0
LINE
  8
_0-0_0
  6
CONTINUOUS
 62
    7
 10
884.70673133469984
 20
638.09106298697793
 11
884.61533214188978
 21
637.61906286490773
  0
LINE
  8
_0-0_0
  6
CONTINUOUS
 62
    7
 10
884.61533214188978
 20
637.61906286490773
 11
884.51803161240969
 21
637.14756628287648
  0
LINE
  8
_0-0_0
  6
CONTINUOUS
 62
    7
 10
884.51803161240969
 20
637.14756628287648
 11
884.41503192521498
 21
636.67785497916555
  0
LINE
  8
_0-0_0
  6
CONTINUOUS
 62
    7
 10
884.41503192521498
 20
636.67785497916555
 11
884.30613280869898
 21
636.20896765006387
  0
LINE
  8
_0-0_0
  6
CONTINUOUS
 62
    7
 10
884.30613280869898
 20
636.20896765006387
 11
884.19143249131605
 21
635.74136205924356
  0
LINE
  8
_0-0_0
  6
CONTINUOUS
 62
    7
 10
884.19143249131605
 20
635.74136205924356
 11
884.07113267518434
 21
635.27586218131398
  0
LINE
  8
_0-0_0
  6
CONTINUOUS
 62
    7
 10
884.07113267518434
 20
635.27586218131398
 11
883.94493247605726
 21
634.81126257193887
  0
LINE
  8
_0-0_0
  6
CONTINUOUS
 62
    7
 10
883.94493247605726
 20
634.81126257193887
 11
883.81293250657473
 21
634.34826513541555
  0
LINE
  8
_0-0_0
  6
CONTINUOUS
 62
    7
 10
883.81293250657473
 20
634.34826513541555
 11
883.67553283311292
 21
633.88746496451711
  0
LINE
  8
_0-0_0
  6
CONTINUOUS
 62
    7
 10
883.67553283311292
 20
633.88746496451711
 11
883.53223277665529
 21
633.42785497916555
  0
LINE
  8
_0-0_0
  6
CONTINUOUS
 62
    7
 10
883.53223277665529
 20
633.42785497916555
 11
883.38323260880873
 21
632.97006078971231
  0
LINE
  8
_0-0_0
  6
CONTINUOUS
 62
    7
 10
883.38323260880873
 20
632.97006078971231
 11
883.22883273698255
 21
632.51476904166555
  0
LINE
  8
_0-0_0
  6
CONTINUOUS
 62
    7
 10
883.06853248216066
 20
632.06075903189992
 11
882.90273286439344
 21
631.60885473502492
  0
LINE
  8
_0-0_0
  6
CONTINUOUS
 62
    7
 10
882.90273286439344
 20
631.60885473502492
 11
882.73163272477541
 21
631.15946813834523
  0
LINE
  8
_0-0_0
  6
CONTINUOUS
 62
    7
 10
882.37273265458509
 20
630.26766821158742
 11
870.37273265458509
 21
645.26846166861856
  0
LINE
  8
_0-0_0
  6
CONTINUOUS
 62
    7
 10
882.37273265458509
 20
660.26766821158742
 11
870.37273265458509
 21
675.2684578539214
  0
LINE
  8
_0-0_0
  6
CONTINUOUS
 62
    7
 10
882.37273265458509
 20
690.26766439689015
 11
870.37273265458509
 21
705.2684578539214
  0
LINE
  8
_0-0_0
  6
CONTINUOUS
 62
    7
 10
882.37273265458509
 20
720.2676648737272
 11
870.37273265458509
 21
735.26845833075856
  0
LINE
  8
_0-0_0
  6
CONTINUOUS
 62
    7
 10
882.37273265458509
 20
750.26766439689015
 11
870.37273265458509
 21
765.2684578539214
  0
LINE
  8
_0-0_0
  6
CONTINUOUS
 62
    7
 10
882.37273265458509
 20
780.26766439689015
 11
870.37273265458509
 21
795.26846166861856
  0
LINE
  8
_0-0_0
  6
CONTINUOUS
 62
    7
 10
882.37273265458509
 20
810.26766821158742
 11
870.37273265458509
 21
825.26846166861856
  0
LINE
  8
_0-0_0
  6
CONTINUOUS
 62
    7
 10
870.39205314256128
 20
645.24214025748574
 11
870.2101531181471
 21
645.68543859732949
  0
LINE
  8
_0-0_0
  6
CONTINUOUS
 62
    7
 10
870.2101531181471
 20
645.68543859732949
 11
870.03345300294325
 21
646.13264318717324
  0
LINE
  8
_0-0_0
  6
CONTINUOUS
 62
    7
 10
870.03345300294325
 20
646.13264318717324
 11
869.86215306855593
 21
646.58253332389211
  0
LINE
  8
_0-0_0
  6
CONTINUOUS
 62
    7
 10
869.86215306855593
 20
646.58253332389211
 11
869.69655324555799
 21
647.03393408072793
  0
LINE
  8
_0-0_0
  6
CONTINUOUS
 62
    7
 10
869.69655324555799
 20
647.03393408072793
 11
869.53625299073622
 21
647.48783727897023
  0
LINE
  8
_0-0_0
  6
CONTINUOUS
 62
    7
 10
869.53625299073622
 20
647.48783727897023
 11
869.38165332414076
 21
647.94373937857949
  0
LINE
  8
_0-0_0
  6
CONTINUOUS
 62
    7
 10
869.38165332414076
 20
647.94373937857949
 11
869.23285295106336
 21
648.40104528678262
  0
LINE
  8
_0-0_0
  6
CONTINUOUS
 62
    7
 10
870.03345300294325
 20
616.13264318717336
 11
869.86215306855593
 21
616.58253332389211
  0
LINE
  8
_0-0_0
  6
CONTINUOUS
 62
    7
 10
869.86215306855593
 20
616.58253332389211
 11
869.69655324555799
 21
617.03393408072793
  0
LINE
  8
_0-0_0
  6
CONTINUOUS
 62
    7
 10
869.69655324555799
 20
617.03393408072793
 11
869.53625299073622
 21
617.48783727897023
  0
LINE
  8
_0-0_0
  6
CONTINUOUS
 62
    7
 10
869.53625299073622
 20
617.48783727897023
 11
869.38165332414076
 21
617.94373937857949
  0
LINE
  8
_0-0_0
  6
CONTINUOUS
 62
    7
 10
869.38165332414076
 20
617.94373937857949
 11
869.23285295106336
 21
618.40104528678262
  0
LINE
  8
_0-0_0
  6
CONTINUOUS
 62
    7
 10
869.23285295106336
 20
618.40104528678262
 11
869.08955337144312
 21
618.86064001334512
  0
LINE
  8
_0-0_0
  6
CONTINUOUS
 62
    7
 10
869.08955337144312
 20
618.86064001334512
 11
868.95195294953749
 21
619.32194372428273
  0
LINE
  8
_0-0_0
  6
CONTINUOUS
 62
    7
 10
868.95195294953749
 20
619.32194372428273
 11
868.82015325166151
 21
619.78434606803273
  0
LINE
  8
_0-0_0
  6
CONTINUOUS
 62
    7
 10
868.82015325166151
 20
619.78434606803273
 11
868.69395305253431
 21
620.24894567740773
  0
LINE
  8
_0-0_0
  6
CONTINUOUS
 62
    7
 10
868.69395305253431
 20
620.24894567740773
 11
868.57345296479616
 21
620.71504064811074
  0
LINE
  8
_0-0_0
  6
CONTINUOUS
 62
    7
 10
868.57345296479616
 20
620.71504064811074
 11
868.45885326005384
 21
621.18203588736856
  0
LINE
  8
_0-0_0
  6
CONTINUOUS
 62
    7
 10
868.45885326005384
 20
621.18203588736856
 11
868.34995318986341
 21
621.65093847525918
  0
LINE
  8
_0-0_0
  6
CONTINUOUS
 62
    7
 10
868.34995318986341
 20
621.65093847525918
 11
868.24685289002809
 21
622.12124487174367
  0
LINE
  8
_0-0_0
  6
CONTINUOUS
 62
    7
 10
868.24685289002809
 20
622.12124487174367
 11
868.14965201951418
 21
622.59214636100148
  0
LINE
  8
_0-0_0
  6
CONTINUOUS
 62
    7
 10
868.14965201951418
 20
622.59214636100148
 11
868.05815173722658
 21
623.06474157584512
  0
LINE
  8
_0-0_0
  6
CONTINUOUS
 62
    7
 10
868.05815173722658
 20
623.06474157584512
 11
867.97245265580591
 21
623.53854223502492
  0
LINE
  8
_0-0_0
  6
CONTINUOUS
 62
    7
 10
867.97245265580591
 20
623.53854223502492
 11
867.89275218583509
 21
624.0126328111968
  0
LINE
  8
_0-0_0
  6
CONTINUOUS
 62
    7
 10
867.89275218583509
 20
624.0126328111968
 11
867.81875182725355
 21
624.4883408190093
  0
LINE
  8
_0-0_0
  6
CONTINUOUS
 62
    7
 10
867.81875182725355
 20
624.4883408190093
 11
867.75075198747095
 21
624.96493383658742
  0
LINE
  8
_0-0_0
  6
CONTINUOUS
 62
    7
 10
867.75075198747095
 20
624.96493383658742
 11
867.6885523948805
 21
625.44174047721242
  0
LINE
  8
_0-0_0
  6
CONTINUOUS
 62
    7
 10
867.6885523948805
 20
625.44174047721242
 11
867.63235236741468
 21
625.91993566764211
  0
LINE
  8
_0-0_0
  6
CONTINUOUS
 62
    7
 10
867.63235236741468
 20
625.91993566764211
 11
867.58195258714125
 21
626.39863439811074
  0
LINE
  8
_0-0_0
  6
CONTINUOUS
 62
    7
 10
867.58195258714125
 20
626.39863439811074
 11
867.5374522361891
 21
626.87743994010305
  0
LINE
  8
_0-0_0
  6
CONTINUOUS
 62
    7
 10
867.5374522361891
 20
626.87743994010305
 11
867.49895240403578
 21
627.35734411490762
  0
LINE
  8
_0-0_0
  6
CONTINUOUS
 62
    7
 10
867.49895240403578
 20
627.35734411490762
 11
867.46635200120386
 21
627.83703466666555
  0
LINE
  8
_0-0_0
  6
CONTINUOUS
 62
    7
 10
867.46635200120386
 20
627.83703466666555
 11
867.4395518455641
 21
628.31774755729055
  0
LINE
  8
_0-0_0
  6
CONTINUOUS
 62
    7
 10
867.4395518455641
 20
628.31774755729055
 11
867.4188523445265
 21
628.79873510611867
  0
LINE
  8
_0-0_0
  6
CONTINUOUS
 62
    7
 10
867.4188523445265
 20
628.79873510611867
 11
867.40395213700697
 21
629.27934118522012
  0
LINE
  8
_0-0_0
  6
CONTINUOUS
 62
    7
 10
867.40395213700697
 20
629.27934118522012
 11
867.39505244828615
 21
629.76063390982961
  0
LINE
  8
_0-0_0
  6
CONTINUOUS
 62
    7
 10
867.39505244828615
 20
629.76063390982961
 11
867.39205218888685
 21
630.24214025748586
  0
LINE
  8
_0-0_0
  6
CONTINUOUS
 62
    7
 10
867.39205218888685
 20
630.24214025748586
 11
867.39505244828615
 21
630.72294470084523
  0
LINE
  8
_0-0_0
  6
CONTINUOUS
 62
    7
 10
867.39505244828615
 20
630.72294470084523
 11
867.40395213700697
 21
631.20423742545449
  0
LINE
  8
_0-0_0
  6
CONTINUOUS
 62
    7
 10
867.40395213700697
 20
631.20423742545449
 11
867.4188523445265
 21
631.68543859732961
  0
LINE
  8
_0-0_0
  6
CONTINUOUS
 62
    7
 10
867.4188523445265
 20
631.68543859732961
 11
867.4395518455641
 21
632.16584631217324
  0
LINE
  8
_0-0_0
  6
CONTINUOUS
 62
    7
 10
867.4395518455641
 20
632.16584631217324
 11
867.46625186540064
 21
632.6465439440093
  0
LINE
  8
_0-0_0
  6
CONTINUOUS
 62
    7
 10
867.46625186540064
 20
632.6465439440093
 11
867.49895240403578
 21
633.12684484732949
  0
LINE
  8
_0-0_0
  6
CONTINUOUS
 62
    7
 10
867.49895240403578
 20
633.12684484732949
 11
867.5374522361891
 21
633.6061386705718
  0
LINE
  8
_0-0_0
  6
CONTINUOUS
 62
    7
 10
867.5374522361891
 20
633.6061386705718
 11
867.58195258714125
 21
634.08553930533742
  0
LINE
  8
_0-0_0
  6
CONTINUOUS
 62
    7
 10
867.58195258714125
 20
634.08553930533742
 11
867.63235236741468
 21
634.56423803580617
  0
LINE
  8
_0-0_0
  6
CONTINUOUS
 62
    7
 10
867.63235236741468
 20
634.56423803580617
 11
867.6885523948805
 21
635.04183813346242
  0
LINE
  8
_0-0_0
  6
CONTINUOUS
 62
    7
 10
867.6885523948805
 20
635.04183813346242
 11
867.75075198747095
 21
635.51923986686086
  0
LINE
  8
_0-0_0
  6
CONTINUOUS
 62
    7
 10
867.75075198747095
 20
635.51923986686086
 11
867.81875182725355
 21
635.99583288443898
  0
LINE
  8
_0-0_0
  6
CONTINUOUS
 62
    7
 10
867.81875182725355
 20
635.99583288443898
 11
867.89265205003187
 21
636.47094579947805
  0
LINE
  8
_0-0_0
  6
CONTINUOUS
 62
    7
 10
867.89265205003187
 20
636.47094579947805
 11
867.97245265580591
 21
636.94564672721242
  0
LINE
  8
_0-0_0
  6
CONTINUOUS
 62
    7
 10
867.97245265580591
 20
636.94564672721242
 11
868.05815173722658
 21
637.41944738639199
  0
LINE
  8
_0-0_0
  6
CONTINUOUS
 62
    7
 10
868.05815173722658
 20
637.41944738639199
 11
868.14955188371096
 21
637.89144750846242
  0
LINE
  8
_0-0_0
  6
CONTINUOUS
 62
    7
 10
868.14955188371096
 20
637.89144750846242
 11
868.24685289002809
 21
638.36294409049367
  0
LINE
  8
_0-0_0
  6
CONTINUOUS
 62
    7
 10
868.24685289002809
 20
638.36294409049367
 11
868.34985305406019
 21
638.83264013541543
  0
LINE
  8
_0-0_0
  6
CONTINUOUS
 62
    7
 10
868.34985305406019
 20
638.83264013541543
 11
868.45875312425062
 21
639.30154272330606
  0
LINE
  8
_0-0_0
  6
CONTINUOUS
 62
    7
 10
868.45875312425062
 20
639.30154272330606
 11
868.57345296479616
 21
639.76913305533742
  0
LINE
  8
_0-0_0
  6
CONTINUOUS
 62
    7
 10
868.57345296479616
 20
639.76913305533742
 11
868.69375325776502
 21
640.23463293326699
  0
LINE
  8
_0-0_0
  6
CONTINUOUS
 62
    7
 10
868.69375325776502
 20
640.23463293326699
 11
868.81995298005506
 21
640.69924780143106
  0
LINE
  8
_0-0_0
  6
CONTINUOUS
 62
    7
 10
868.81995298005506
 20
640.69924780143106
 11
868.95195294953749
 21
641.16224523795449
  0
LINE
  8
_0-0_0
  6
CONTINUOUS
 62
    7
 10
868.95195294953749
 20
641.16224523795449
 11
869.08935309983667
 21
641.62304540885305
  0
LINE
  8
_0-0_0
  6
CONTINUOUS
 62
    7
 10
869.08935309983667
 20
641.62304540885305
 11
869.23265315629408
 21
642.08264013541555
  0
LINE
  8
_0-0_0
  6
CONTINUOUS
 62
    7
 10
869.23265315629408
 20
642.08264013541555
 11
869.38165332414076
 21
642.54043432486867
  0
LINE
  8
_0-0_0
  6
CONTINUOUS
 62
    7
 10
869.38165332414076
 20
642.54043432486867
 11
869.53605319596693
 21
642.99574133170449
  0
LINE
  8
_0-0_0
  6
CONTINUOUS
 62
    7
 10
869.53605319596693
 20
642.99574133170449
 11
869.69635297395155
 21
643.44973608268106
  0
LINE
  8
_0-0_0
  6
CONTINUOUS
 62
    7
 10
869.69635297395155
 20
643.44973608268106
 11
869.86215306855593
 21
643.90164037955617
  0
LINE
  8
_0-0_0
  6
CONTINUOUS
 62
    7
 10
869.86215306855593
 20
643.90164037955617
 11
870.03325320817396
 21
644.35104223502492
  0
LINE
  8
_0-0_0
  6
CONTINUOUS
 62
    7
 10
870.03325320817396
 20
644.35104223502492
 11
870.2101531181471
 21
644.79873510611867
  0
LINE
  8
_0-0_0
  6
CONTINUOUS
 62
    7
 10
870.2101531181471
 20
644.79873510611867
 11
870.39265300370619
 21
645.24424597037637
  0
LINE
  8
_0-0_0
  6
CONTINUOUS
 62
    7
 10
870.39265300370619
 20
645.24424597037637
 11
870.39205314256128
 21
645.24214025748574
  0
LINE
  8
_0-0_0
  6
CONTINUOUS
 62
    7
 10
885.24675227738783
 20
648.60673376334512
 11
885.28525210954115
 21
648.12684484732949
  0
LINE
  8
_0-0_0
  6
CONTINUOUS
 62
    7
 10
885.28525210954115
 20
648.12684484732949
 11
885.31785251237329
 21
647.64713903678273
  0
LINE
  8
_0-0_0
  6
CONTINUOUS
 62
    7
 10
885.31785251237329
 20
647.64713903678273
 11
885.34465171433851
 21
647.1664414049468
  0
LINE
  8
_0-0_0
  6
CONTINUOUS
 62
    7
 10
885.34465171433851
 20
647.1664414049468
 11
885.36535216905031
 21
646.68543859732961
  0
LINE
  8
_0-0_0
  6
CONTINUOUS
 62
    7
 10
885.36535216905031
 20
646.68543859732961
 11
885.38025237656996
 21
646.20484777701699
  0
LINE
  8
_0-0_0
  6
CONTINUOUS
 62
    7
 10
885.38025237656996
 20
646.20484777701699
 11
885.38915206529066
 21
645.72353979361867
  0
LINE
  8
_0-0_0
  6
CONTINUOUS
 62
    7
 10
885.38915206529066
 20
645.72353979361867
 11
885.39205218888685
 21
645.24214025748574
  0
LINE
  8
_0-0_0
  6
CONTINUOUS
 62
    7
 10
885.39205218888685
 20
645.24214025748574
 11
885.38915206529066
 21
644.76124426139211
  0
LINE
  8
_0-0_0
  6
CONTINUOUS
 62
    7
 10
885.38915206529066
 20
644.76124426139211
 11
885.38025237656996
 21
644.27993627799367
  0
LINE
  8
_0-0_0
  6
CONTINUOUS
 62
    7
 10
885.38025237656996
 20
644.27993627799367
 11
885.36535216905031
 21
643.79873510611856
  0
LINE
  8
_0-0_0
  6
CONTINUOUS
 62
    7
 10
885.36535216905031
 20
643.79873510611856
 11
885.34465171433851
 21
643.31834265006387
  0
LINE
  8
_0-0_0
  6
CONTINUOUS
 62
    7
 10
885.34465171433851
 20
643.31834265006387
 11
885.31795264817652
 21
642.83764501822805
  0
LINE
  8
_0-0_0
  6
CONTINUOUS
 62
    7
 10
885.31795264817652
 20
642.83764501822805
 11
885.28525210954115
 21
642.35734411490762
  0
LINE
  8
_0-0_0
  6
CONTINUOUS
 62
    7
 10
885.28525210954115
 20
642.35734411490762
 11
885.24675227738783
 21
641.87803503287637
  0
LINE
  8
_0-0_0
  6
CONTINUOUS
 62
    7
 10
885.24675227738783
 20
641.87803503287637
 11
885.20225192643568
 21
641.39863439811074
  0
LINE
  8
_0-0_0
  6
CONTINUOUS
 62
    7
 10
885.20225192643568
 20
641.39863439811074
 11
885.15185214616224
 21
640.91993566764199
  0
LINE
  8
_0-0_0
  6
CONTINUOUS
 62
    7
 10
885.15185214616224
 20
640.91993566764199
 11
885.09565211869642
 21
640.44233556998574
  0
LINE
  8
_0-0_0
  6
CONTINUOUS
 62
    7
 10
885.09565211869642
 20
640.44233556998574
 11
885.0334525261062
 21
639.96493383658742
  0
LINE
  8
_0-0_0
  6
CONTINUOUS
 62
    7
 10
885.0334525261062
 20
639.96493383658742
 11
884.96545173264906
 21
639.4883408190093
  0
LINE
  8
_0-0_0
  6
CONTINUOUS
 62
    7
 10
884.96545173264906
 20
639.4883408190093
 11
884.89155246354494
 21
639.0132431627593
  0
LINE
  8
_0-0_0
  6
CONTINUOUS
 62
    7
 10
884.89155246354494
 20
639.0132431627593
 11
884.81175185777124
 21
638.53854223502492
  0
LINE
  8
_0-0_0
  6
CONTINUOUS
 62
    7
 10
884.81175185777124
 20
638.53854223502492
 11
884.7260518226758
 21
638.06474157584512
  0
LINE
  8
_0-0_0
  6
CONTINUOUS
 62
    7
 10
884.7260518226758
 20
638.06474157584512
 11
884.63465262986585
 21
637.59274145377492
  0
LINE
  8
_0-0_0
  6
CONTINUOUS
 62
    7
 10
884.63465262986585
 20
637.59274145377492
 11
884.53735210038587
 21
637.12124487174367
  0
LINE
  8
_0-0_0
  6
CONTINUOUS
 62
    7
 10
884.53735210038587
 20
637.12124487174367
 11
884.43435241319105
 21
636.65153356803273
  0
LINE
  8
_0-0_0
  6
CONTINUOUS
 62
    7
 10
884.43435241319105
 20
636.65153356803273
 11
884.32545329667494
 21
636.18264623893106
  0
LINE
  8
_0-0_0
  6
CONTINUOUS
 62
    7
 10
884.32545329667494
 20
636.18264623893106
 11
884.21075297929201
 21
635.71504064811074
  0
LINE
  8
_0-0_0
  6
CONTINUOUS
 62
    7
 10
884.21075297929201
 20
635.71504064811074
 11
884.09045316316053
 21
635.24954077018117
  0
LINE
  8
_0-0_0
  6
CONTINUOUS
 62
    7
 10
884.09045316316053
 20
635.24954077018117
 11
883.96425296403334
 21
634.78494116080606
  0
LINE
  8
_0-0_0
  6
CONTINUOUS
 62
    7
 10
883.96425296403334
 20
634.78494116080606
 11
883.83225299455091
 21
634.32194372428273
  0
LINE
  8
_0-0_0
  6
CONTINUOUS
 62
    7
 10
883.83225299455091
 20
634.32194372428273
 11
883.69485332108889
 21
633.8611435533843
  0
LINE
  8
_0-0_0
  6
CONTINUOUS
 62
    7
 10
883.69485332108889
 20
633.8611435533843
 11
883.55155326463148
 21
633.40153356803273
  0
LINE
  8
_0-0_0
  6
CONTINUOUS
 62
    7
 10
883.55155326463148
 20
633.40153356803273
 11
883.4025530967848
 21
632.94373937857949
  0
LINE
  8
_0-0_0
  6
CONTINUOUS
 62
    7
 10
883.4025530967848
 20
632.94373937857949
 11
883.24815322495863
 21
632.48844763053273
  0
LINE
  8
_0-0_0
  6
CONTINUOUS
 62
    7
 10
883.24815322495863
 20
632.48844763053273
 11
883.08785297013685
 21
632.03443762076711
  0
LINE
  8
_0-0_0
  6
CONTINUOUS
 62
    7
 10
883.08785297013685
 20
632.03443762076711
 11
882.92205335236963
 21
631.58253332389211
  0
LINE
  8
_0-0_0
  6
CONTINUOUS
 62
    7
 10
882.92205335236963
 20
631.58253332389211
 11
882.7509532127516
 21
631.13314672721242
  0
LINE
  8
_0-0_0
  6
CONTINUOUS
 62
    7
 10
882.7509532127516
 20
631.13314672721242
 11
882.57405330277845
 21
630.68543859732949
  0
LINE
  8
_0-0_0
  6
CONTINUOUS
 62
    7
 10
882.57405330277845
 20
630.68543859732949
 11
882.39155294038233
 21
630.23994299186086
  0
LINE
  8
_0-0_0
  6
CONTINUOUS
 62
    7
 10
882.39155294038233
 20
630.23994299186086
 11
882.39205314256105
 21
630.24214025748586
  0
LINE
  8
_0-0_0
  6
CONTINUOUS
 62
    7
 10
882.39205314256105
 20
630.24214025748586
 11
882.57405330277845
 21
629.79873510611867
  0
LINE
  8
_0-0_0
  6
CONTINUOUS
 62
    7
 10
882.57405330277845
 20
629.79873510611867
 11
882.75075294114515
 21
629.35154577506398
  0
LINE
  8
_0-0_0
  6
CONTINUOUS
 62
    7
 10
882.75075294114515
 20
629.35154577506398
 11
882.92205335236963
 21
628.90164037955617
  0
LINE
  8
_0-0_0
  6
CONTINUOUS
 62
    7
 10
882.92205335236963
 20
628.90164037955617
 11
883.08765317536756
 21
628.45023962272023
  0
LINE
  8
_0-0_0
  6
CONTINUOUS
 62
    7
 10
883.08765317536756
 20
628.45023962272023
 11
883.24795295335218
 21
627.99633642447805
  0
LINE
  8
_0-0_0
  6
CONTINUOUS
 62
    7
 10
883.24795295335218
 20
627.99633642447805
 11
883.4025530967848
 21
627.54043432486867
  0
LINE
  8
_0-0_0
  6
CONTINUOUS
 62
    7
 10
883.4025530967848
 20
627.54043432486867
 11
883.55135299302503
 21
627.08314367545449
  0
LINE
  8
_0-0_0
  6
CONTINUOUS
 62
    7
 10
883.55135299302503
 20
627.08314367545449
 11
883.69465304948244
 21
626.62353369010305
  0
LINE
  8
_0-0_0
  6
CONTINUOUS
 62
    7
 10
883.69465304948244
 20
626.62353369010305
 11
883.83225299455091
 21
626.16224523795461
  0
LINE
  8
_0-0_0
  6
CONTINUOUS
 62
    7
 10
883.83225299455091
 20
626.16224523795461
 11
883.96405316926405
 21
625.69984289420461
  0
LINE
  8
_0-0_0
  6
CONTINUOUS
 62
    7
 10
883.96405316926405
 20
625.69984289420461
 11
884.09025336839125
 21
625.23524328482961
  0
LINE
  8
_0-0_0
  6
CONTINUOUS
 62
    7
 10
884.09025336839125
 20
625.23524328482961
 11
884.21075297929201
 21
624.76913305533742
  0
LINE
  8
_0-0_0
  6
CONTINUOUS
 62
    7
 10
884.21075297929201
 20
624.76913305533742
 11
884.32535316087171
 21
624.30213781607961
  0
LINE
  8
_0-0_0
  6
CONTINUOUS
 62
    7
 10
884.32535316087171
 20
624.30213781607961
 11
884.43425227738783
 21
623.83323522818898
  0
LINE
  8
_0-0_0
  6
CONTINUOUS
 62
    7
 10
884.43425227738783
 20
623.83323522818898
 11
884.53735210038587
 21
623.36294409049367
  0
LINE
  8
_0-0_0
  6
CONTINUOUS
 62
    7
 10
884.53735210038587
 20
623.36294409049367
 11
884.63455249406263
 21
622.89204260123586
  0
LINE
  8
_0-0_0
  6
CONTINUOUS
 62
    7
 10
884.63455249406263
 20
622.89204260123586
 11
884.7260518226758
 21
622.41944738639199
  0
LINE
  8
_0-0_0
  6
CONTINUOUS
 62
    7
 10
884.7260518226758
 20
622.41944738639199
 11
884.81175185777124
 21
621.94564672721242
  0
LINE
  8
_0-0_0
  6
CONTINUOUS
 62
    7
 10
884.81175185777124
 20
621.94564672721242
 11
884.89145232774172
 21
621.47154089225148
  0
LINE
  8
_0-0_0
  6
CONTINUOUS
 62
    7
 10
884.89145232774172
 20
621.47154089225148
 11
884.96545173264906
 21
620.99583288443898
  0
LINE
  8
_0-0_0
  6
CONTINUOUS
 62
    7
 10
884.96545173264906
 20
620.99583288443898
 11
885.0334525261062
 21
620.51923986686086
  0
LINE
  8
_0-0_0
  6
CONTINUOUS
 62
    7
 10
885.0334525261062
 20
620.51923986686086
 11
885.09565211869642
 21
620.04243322623574
  0
LINE
  8
_0-0_0
  6
CONTINUOUS
 62
    7
 10
885.09565211869642
 20
620.04243322623574
 11
885.15185214616224
 21
619.56423803580617
  0
LINE
  8
_0-0_0
  6
CONTINUOUS
 62
    7
 10
885.15185214616224
 20
619.56423803580617
 11
885.20225192643568
 21
619.08553930533742
  0
LINE
  8
_0-0_0
  6
CONTINUOUS
 62
    7
 10
885.20225192643568
 20
619.08553930533742
 11
885.24675227738783
 21
618.60673376334512
  0
LINE
  8
_0-0_0
  6
CONTINUOUS
 62
    7
 10
885.24675227738783
 20
618.60673376334512
 11
885.28525210954115
 21
618.12684484732949
  0
LINE
  8
_0-0_0
  6
CONTINUOUS
 62
    7
 10
885.28525210954115
 20
618.12684484732949
 11
885.31785251237329
 21
617.64713903678273
  0
LINE
  8
_0-0_0
  6
CONTINUOUS
 62
    7
 10
885.31785251237329
 20
617.64713903678273
 11
885.34465171433851
 21
617.1664414049468
  0
LINE
  8
_0-0_0
  6
CONTINUOUS
 62
    7
 10
885.34465171433851
 20
617.1664414049468
 11
885.36535216905031
 21
616.68543859732961
  0
LINE
  8
_0-0_0
  6
CONTINUOUS
 62
    7
 10
885.36535216905031
 20
616.68543859732961
 11
885.38025237656996
 21
616.20484777701699
  0
LINE
  8
_0-0_0
  6
CONTINUOUS
 62
    7
 10
885.38025237656996
 20
616.20484777701699
 11
885.38915206529066
 21
615.72353979361867
  0
LINE
  8
_0-0_0
  6
CONTINUOUS
 62
    7
 10
885.38915206529066
 20
615.72353979361867
 11
885.39205218888685
 21
615.24214025748586
  0
LINE
  8
_0-0_0
  6
CONTINUOUS
 62
    7
 10
885.39205218888685
 20
615.24214025748586
 11
885.38915206529066
 21
614.76124426139211
  0
LINE
  8
_0-0_0
  6
CONTINUOUS
 62
    7
 10
885.38915206529066
 20
614.76124426139211
 11
885.38025237656996
 21
614.27993627799367
  0
LINE
  8
_0-0_0
  6
CONTINUOUS
 62
    7
 10
885.38025237656996
 20
614.27993627799367
 11
885.36535216905031
 21
613.79873510611867
  0
LINE
  8
_0-0_0
  6
CONTINUOUS
 62
    7
 10
885.36535216905031
 20
613.79873510611867
 11
885.34465171433851
 21
613.31834265006387
  0
LINE
  8
_0-0_0
  6
CONTINUOUS
 62
    7
 10
885.34465171433851
 20
613.31834265006387
 11
885.31795264817652
 21
612.83764501822805
  0
LINE
  8
_0-0_0
  6
CONTINUOUS
 62
    7
 10
885.31795264817652
 20
612.83764501822805
 11
885.28525210954115
 21
612.35734411490762
  0
LINE
  8
_0-0_0
  6
CONTINUOUS
 62
    7
 10
885.28525210954115
 20
612.35734411490762
 11
885.24675227738783
 21
611.87803503287648
  0
LINE
  8
_0-0_0
  6
CONTINUOUS
 62
    7
 10
885.24675227738783
 20
611.87803503287648
 11
885.20225192643568
 21
611.39863439811074
  0
LINE
  8
_0-0_0
  6
CONTINUOUS
 62
    7
 10
885.20225192643568
 20
611.39863439811074
 11
885.15185214616224
 21
610.91993566764211
  0
LINE
  8
_0-0_0
  6
CONTINUOUS
 62
    7
 10
885.15185214616224
 20
610.91993566764211
 11
885.09565211869642
 21
610.44233556998586
  0
LINE
  8
_0-0_0
  6
CONTINUOUS
 62
    7
 10
885.09565211869642
 20
610.44233556998586
 11
885.0334525261062
 21
609.96493383658742
  0
LINE
  8
_0-0_0
  6
CONTINUOUS
 62
    7
 10
885.0334525261062
 20
609.96493383658742
 11
884.96545173264906
 21
609.4883408190093
  0
LINE
  8
_0-0_0
  6
CONTINUOUS
 62
    7
 10
884.96545173264906
 20
609.4883408190093
 11
884.89155246354494
 21
609.0132431627593
  0
LINE
  8
_0-0_0
  6
CONTINUOUS
 62
    7
 10
884.89155246354494
 20
609.0132431627593
 11
884.81175185777124
 21
608.53854223502492
  0
LINE
  8
_0-0_0
  6
CONTINUOUS
 62
    7
 10
884.7260518226758
 20
608.06474157584512
 11
884.63465262986585
 21
607.59274145377492
  0
LINE
  8
_0-0_0
  6
CONTINUOUS
 62
    7
 10
884.63465262986585
 20
607.59274145377492
 11
884.53735210038587
 21
607.12124487174367
  0
LINE
  8
_0-0_0
  6
CONTINUOUS
 62
    7
 10
884.53735210038587
 20
607.12124487174367
 11
884.43435241319105
 21
606.65153356803273
  0
LINE
  8
_0-0_0
  6
CONTINUOUS
 62
    7
 10
884.43435241319105
 20
606.65153356803273
 11
884.32545329667494
 21
606.18264623893106
  0
LINE
  8
_0-0_0
  6
CONTINUOUS
 62
    7
 10
884.32545329667494
 20
606.18264623893106
 11
884.21075297929201
 21
605.71504064811074
  0
LINE
  8
_0-0_0
  6
CONTINUOUS
 62
    7
 10
884.21075297929201
 20
605.71504064811074
 11
884.09045316316053
 21
605.24954077018117
  0
LINE
  8
_0-0_0
  6
CONTINUOUS
 62
    7
 10
884.09045316316053
 20
605.24954077018117
 11
883.96425296403334
 21
604.78494116080606
  0
LINE
  8
_0-0_0
  6
CONTINUOUS
 62
    7
 10
883.96425296403334
 20
604.78494116080606
 11
883.83225299455091
 21
604.32194372428273
  0
LINE
  8
_0-0_0
  6
CONTINUOUS
 62
    7
 10
883.83225299455091
 20
604.32194372428273
 11
883.69485332108889
 21
603.8611435533843
  0
LINE
  8
_0-0_0
  6
CONTINUOUS
 62
    7
 10
883.69485332108889
 20
603.8611435533843
 11
883.55155326463148
 21
603.40153356803273
  0
LINE
  8
_0-0_0
  6
CONTINUOUS
 62
    7
 10
883.55155326463148
 20
603.40153356803273
 11
883.4025530967848
 21
602.94373937857949
  0
LINE
  8
_0-0_0
  6
CONTINUOUS
 62
    7
 10
883.4025530967848
 20
602.94373937857949
 11
883.24815322495863
 21
602.48844763053273
  0
LINE
  8
_0-0_0
  6
CONTINUOUS
 62
    7
 10
883.24815322495863
 20
602.48844763053273
 11
883.08785297013685
 21
602.03443762076711
  0
LINE
  8
_0-0_0
  6
CONTINUOUS
 62
    7
 10
883.08785297013685
 20
602.03443762076711
 11
882.92205335236963
 21
601.58253332389211
  0
LINE
  8
_0-0_0
  6
CONTINUOUS
 62
    7
 10
882.7509532127516
 20
601.13314672721242
 11
882.57405330277845
 21
600.68543859732949
  0
LINE
  8
_0-0_0
  6
CONTINUOUS
 62
    7
 10
882.39205314256105
 20
600.24134680045461
 11
870.39205314256128
 21
615.24214025748586
  0
LINE
  8
_0-0_0
  6
CONTINUOUS
 62
    7
 10
882.39205314256105
 20
630.24134680045461
 11
870.39205314256128
 21
645.24214025748574
  0
LINE
  8
_0-0_0
  6
CONTINUOUS
 62
    7
 10
870.21396972276136
 20
615.68543859732949
 11
870.21396972276136
 21
561.56765600455617
  0
LINE
  8
_0-0_0
  6
CONTINUOUS
 62
    7
 10
882.92205335236963
 20
601.58253332389211
 11
882.46043826676771
 21
600.37012335074758
  0
LINE
  8
_0-0_0
  6
CONTINUOUS
 62
    7
 10
882.21396972276136
 20
600.46396490348195
 11
882.21396972276136
 21
561.56765600455617
  0
LINE
  8
_0-0_0
  6
CONTINUOUS
 62
    7
 10
884.66612960435316
 20
818.75812383902883
 11
884.58042956925794
 21
818.28432317984903
  0
LINE
  8
_0-0_0
  6
CONTINUOUS
 62
    7
 10
870.0452098999159
 20
855.04463049186086
 11
870.22770978547499
 21
855.49014135611867
  0
LINE
  8
_0-0_0
  6
CONTINUOUS
 62
    7
 10
882.22710992432997
 20
840.4872421861968
 11
870.22710992432985
 21
855.48803564322816
  0
LINE
  8
_0-0_0
  6
CONTINUOUS
 62
    7
 10
870.2464308891432
 20
855.46172186148976
 11
870.06453086472914
 21
855.90502020133363
  0
LINE
  8
_0-0_0
  6
CONTINUOUS
 62
    7
 10
869.88783074952516
 20
826.35222479117726
 11
869.71653081513807
 21
826.8021149278959
  0
LINE
  8
_0-0_0
  6
CONTINUOUS
 62
    7
 10
869.71653081513807
 20
826.8021149278959
 11
869.55093099213991
 21
827.25351568473184
  0
LINE
  8
_0-0_0
  6
CONTINUOUS
 62
    7
 10
869.55093099213991
 20
827.25351568473184
 11
869.39063073731836
 21
827.70741888297403
  0
LINE
  8
_0-0_0
  6
CONTINUOUS
 62
    7
 10
869.39063073731836
 20
827.70741888297403
 11
869.23603107072279
 21
828.1633209825834
  0
LINE
  8
_0-0_0
  6
CONTINUOUS
 62
    7
 10
869.23603107072279
 20
828.1633209825834
 11
869.08723069764528
 21
828.62062689078653
  0
LINE
  8
_0-0_0
  6
CONTINUOUS
 62
    7
 10
869.08723069764528
 20
828.62062689078653
 11
868.94393111802503
 21
829.08022161734903
  0
LINE
  8
_0-0_0
  6
CONTINUOUS
 62
    7
 10
868.94393111802503
 20
829.08022161734903
 11
868.8063306961194
 21
829.54152532828653
  0
LINE
  8
_0-0_0
  6
CONTINUOUS
 62
    7
 10
868.8063306961194
 20
829.54152532828653
 11
868.67453099824365
 21
830.00392767203664
  0
LINE
  8
_0-0_0
  6
CONTINUOUS
 62
    7
 10
868.67453099824365
 20
830.00392767203664
 11
868.54833079911623
 21
830.46852728141164
  0
LINE
  8
_0-0_0
  6
CONTINUOUS
 62
    7
 10
868.54833079911623
 20
830.46852728141164
 11
868.42783071137831
 21
830.93462225211465
  0
LINE
  8
_0-0_0
  6
CONTINUOUS
 62
    7
 10
868.42783071137831
 20
830.93462225211465
 11
868.31323052979872
 21
831.40161749137246
  0
LINE
  8
_0-0_0
  6
CONTINUOUS
 62
    7
 10
868.31323052979872
 20
831.40161749137246
 11
868.20432998277113
 21
831.87052007926309
  0
LINE
  8
_0-0_0
  6
CONTINUOUS
 62
    7
 10
868.20432998277113
 20
831.87052007926309
 11
868.10123015977308
 21
832.34082647574746
  0
LINE
  8
_0-0_0
  6
CONTINUOUS
 62
    7
 10
868.10123015977308
 20
832.34082647574746
 11
868.00402976609632
 21
832.81172796500539
  0
LINE
  8
_0-0_0
  6
CONTINUOUS
 62
    7
 10
868.00402976609632
 20
832.81172796500539
 11
867.91252948380873
 21
833.28432317984903
  0
LINE
  8
_0-0_0
  6
CONTINUOUS
 62
    7
 10
867.91252948380873
 20
833.28432317984903
 11
867.82683040238783
 21
833.75812383902883
  0
LINE
  8
_0-0_0
  6
CONTINUOUS
 62
    7
 10
867.82683040238783
 20
833.75812383902883
 11
867.74712993241701
 21
834.2322144152007
  0
LINE
  8
_0-0_0
  6
CONTINUOUS
 62
    7
 10
867.74712993241701
 20
834.2322144152007
 11
867.67312957383547
 21
834.70792242301309
  0
LINE
  8
_0-0_0
  6
CONTINUOUS
 62
    7
 10
867.67312957383547
 20
834.70792242301309
 11
867.60512973405287
 21
835.18451544059133
  0
LINE
  8
_0-0_0
  6
CONTINUOUS
 62
    7
 10
867.60512973405287
 20
835.18451544059133
 11
867.54293014146253
 21
835.66132208121633
  0
LINE
  8
_0-0_0
  6
CONTINUOUS
 62
    7
 10
867.54293014146253
 20
835.66132208121633
 11
867.48673011399671
 21
836.13951727164601
  0
LINE
  8
_0-0_0
  6
CONTINUOUS
 62
    7
 10
867.48673011399671
 20
836.13951727164601
 11
867.43633033372339
 21
836.61821600211465
  0
LINE
  8
_0-0_0
  6
CONTINUOUS
 62
    7
 10
867.43633033372339
 20
836.61821600211465
 11
867.39182998277113
 21
837.09702154410695
  0
LINE
  8
_0-0_0
  6
CONTINUOUS
 62
    7
 10
867.39182998277113
 20
837.09702154410695
 11
867.35333015061781
 21
837.57692571891153
  0
LINE
  8
_0-0_0
  6
CONTINUOUS
 62
    7
 10
867.35333015061781
 20
837.57692571891153
 11
867.32072974778578
 21
838.05661627066934
  0
LINE
  8
_0-0_0
  6
CONTINUOUS
 62
    7
 10
867.32072974778578
 20
838.05661627066934
 11
867.29392959214601
 21
838.53732916129445
  0
LINE
  8
_0-0_0
  6
CONTINUOUS
 62
    7
 10
867.29392959214601
 20
838.53732916129445
 11
867.27323009110842
 21
839.01831671012258
  0
LINE
  8
_0-0_0
  6
CONTINUOUS
 62
    7
 10
867.27323009110842
 20
839.01831671012258
 11
867.258329883589
 21
839.49892278922425
  0
LINE
  8
_0-0_0
  6
CONTINUOUS
 62
    7
 10
867.258329883589
 20
839.49892278922425
 11
867.2494301948683
 21
839.9802155138334
  0
LINE
  8
_0-0_0
  6
CONTINUOUS
 62
    7
 10
867.2494301948683
 20
839.9802155138334
 11
867.246429935469
 21
840.46172186148976
  0
LINE
  8
_0-0_0
  6
CONTINUOUS
 62
    7
 10
867.246429935469
 20
840.46172186148976
 11
867.2494301948683
 21
840.94252630484914
  0
LINE
  8
_0-0_0
  6
CONTINUOUS
 62
    7
 10
867.2494301948683
 20
840.94252630484914
 11
867.258329883589
 21
841.42381902945863
  0
LINE
  8
_0-0_0
  6
CONTINUOUS
 62
    7
 10
867.258329883589
 20
841.42381902945863
 11
867.27323009110842
 21
841.90502020133351
  0
LINE
  8
_0-0_0
  6
CONTINUOUS
 62
    7
 10
867.27323009110842
 20
841.90502020133351
 11
867.29392959214601
 21
842.38542791617738
  0
LINE
  8
_0-0_0
  6
CONTINUOUS
 62
    7
 10
867.29392959214601
 20
842.38542791617738
 11
867.32062961198255
 21
842.8661255480132
  0
LINE
  8
_0-0_0
  6
CONTINUOUS
 62
    7
 10
867.32062961198255
 20
842.8661255480132
 11
867.35333015061781
 21
843.34642645133363
  0
LINE
  8
_0-0_0
  6
CONTINUOUS
 62
    7
 10
867.35333015061781
 20
843.34642645133363
 11
867.39182998277113
 21
843.8257202745757
  0
LINE
  8
_0-0_0
  6
CONTINUOUS
 62
    7
 10
867.39182998277113
 20
843.8257202745757
 11
867.43633033372339
 21
844.30512090934133
  0
LINE
  8
_0-0_0
  6
CONTINUOUS
 62
    7
 10
867.43633033372339
 20
844.30512090934133
 11
867.48673011399671
 21
844.78381963981008
  0
LINE
  8
_0-0_0
  6
CONTINUOUS
 62
    7
 10
867.48673011399671
 20
844.78381963981008
 11
867.54293014146253
 21
845.26141973746633
  0
LINE
  8
_0-0_0
  6
CONTINUOUS
 62
    7
 10
867.54293014146253
 20
845.26141973746633
 11
867.60512973405287
 21
845.73882147086476
  0
LINE
  8
_0-0_0
  6
CONTINUOUS
 62
    7
 10
867.60512973405287
 20
845.73882147086476
 11
867.67312957383547
 21
846.21541448844278
  0
LINE
  8
_0-0_0
  6
CONTINUOUS
 62
    7
 10
867.67312957383547
 20
846.21541448844278
 11
867.74702979661379
 21
846.69052740348195
  0
LINE
  8
_0-0_0
  6
CONTINUOUS
 62
    7
 10
867.74702979661379
 20
846.69052740348195
 11
867.82683040238783
 21
847.16522833121633
  0
LINE
  8
_0-0_0
  6
CONTINUOUS
 62
    7
 10
867.82683040238783
 20
847.16522833121633
 11
867.91252948380873
 21
847.63902899039613
  0
LINE
  8
_0-0_0
  6
CONTINUOUS
 62
    7
 10
867.91252948380873
 20
847.63902899039613
 11
868.0039296302931
 21
848.11102911246633
  0
LINE
  8
_0-0_0
  6
CONTINUOUS
 62
    7
 10
868.0039296302931
 20
848.11102911246633
 11
868.10123015977308
 21
848.58252569449758
  0
LINE
  8
_0-0_0
  6
CONTINUOUS
 62
    7
 10
868.10123015977308
 20
848.58252569449758
 11
868.20422984696791
 21
849.05222173941956
  0
LINE
  8
_0-0_0
  6
CONTINUOUS
 62
    7
 10
868.20422984696791
 20
849.05222173941956
 11
868.31313039399549
 21
849.52112432731019
  0
LINE
  8
_0-0_0
  6
CONTINUOUS
 62
    7
 10
868.31313039399549
 20
849.52112432731019
 11
868.42783071137831
 21
849.98871465934133
  0
LINE
  8
_0-0_0
  6
CONTINUOUS
 62
    7
 10
868.42783071137831
 20
849.98871465934133
 11
868.54813100434717
 21
850.45421453727101
  0
LINE
  8
_0-0_0
  6
CONTINUOUS
 62
    7
 10
868.54813100434717
 20
850.45421453727101
 11
868.67433072663721
 21
850.91882940543519
  0
LINE
  8
_0-0_0
  6
CONTINUOUS
 62
    7
 10
868.67433072663721
 20
850.91882940543519
 11
868.8063306961194
 21
851.38182684195851
  0
LINE
  8
_0-0_0
  6
CONTINUOUS
 62
    7
 10
868.8063306961194
 20
851.38182684195851
 11
868.94373084641859
 21
851.84262701285684
  0
LINE
  8
_0-0_0
  6
CONTINUOUS
 62
    7
 10
868.94373084641859
 20
851.84262701285684
 11
869.08703090287622
 21
852.30222173941934
  0
LINE
  8
_0-0_0
  6
CONTINUOUS
 62
    7
 10
869.08703090287622
 20
852.30222173941934
 11
869.23603107072279
 21
852.76001592887258
  0
LINE
  8
_0-0_0
  6
CONTINUOUS
 62
    7
 10
869.23603107072279
 20
852.76001592887258
 11
869.39043094254896
 21
853.21532293570851
  0
LINE
  8
_0-0_0
  6
CONTINUOUS
 62
    7
 10
869.39043094254896
 20
853.21532293570851
 11
869.55073072053347
 21
853.66931768668508
  0
LINE
  8
_0-0_0
  6
CONTINUOUS
 62
    7
 10
869.55073072053347
 20
853.66931768668508
 11
869.71653081513807
 21
854.12122198355996
  0
LINE
  8
_0-0_0
  6
CONTINUOUS
 62
    7
 10
869.71653081513807
 20
854.12122198355996
 11
869.8876309547561
 21
854.57062383902883
  0
LINE
  8
_0-0_0
  6
CONTINUOUS
 62
    7
 10
869.8876309547561
 20
854.57062383902883
 11
870.06453086472914
 21
855.01831671012258
  0
LINE
  8
_0-0_0
  6
CONTINUOUS
 62
    7
 10
870.06453086472914
 20
855.01831671012258
 11
870.24703075028822
 21
855.46382757438039
  0
LINE
  8
_0-0_0
  6
CONTINUOUS
 62
    7
 10
870.24703075028822
 20
855.46382757438039
 11
870.2464308891432
 21
855.46172186148976
  0
LINE
  8
_0-0_0
  6
CONTINUOUS
 62
    7
 10
882.24593068696424
 20
840.45952459586476
 11
882.2464308891432
 21
840.46172186148976
  0
LINE
  8
_0-0_0
  6
CONTINUOUS
 62
    7
 10
882.2464308891432
 20
840.46172186148976
 11
882.42843104936037
 21
840.01831671012258
  0
LINE
  8
_0-0_0
  6
CONTINUOUS
 62
    7
 10
882.42843104936037
 20
840.01831671012258
 11
882.6051306877273
 21
839.57112737906778
  0
LINE
  8
_0-0_0
  6
CONTINUOUS
 62
    7
 10
882.6051306877273
 20
839.57112737906778
 11
882.77643109895155
 21
839.12122198355996
  0
LINE
  8
_0-0_0
  6
CONTINUOUS
 62
    7
 10
882.77643109895155
 20
839.12122198355996
 11
882.94203092194959
 21
838.66982122672414
  0
LINE
  8
_0-0_0
  6
CONTINUOUS
 62
    7
 10
882.94203092194959
 20
838.66982122672414
 11
883.1023306999341
 21
838.21591802848184
  0
LINE
  8
_0-0_0
  6
CONTINUOUS
 62
    7
 10
883.1023306999341
 20
838.21591802848184
 11
883.25693084336672
 21
837.76001592887258
  0
LINE
  8
_0-0_0
  6
CONTINUOUS
 62
    7
 10
883.25693084336672
 20
837.76001592887258
 11
883.40573073960718
 21
837.3027252794584
  0
LINE
  8
_0-0_0
  6
CONTINUOUS
 62
    7
 10
883.40573073960718
 20
837.3027252794584
 11
883.54903079606459
 21
836.84311529410695
  0
LINE
  8
_0-0_0
  6
CONTINUOUS
 62
    7
 10
883.54903079606459
 20
836.84311529410695
 11
883.68663074113306
 21
836.38182684195851
  0
LINE
  8
_0-0_0
  6
CONTINUOUS
 62
    7
 10
883.68663074113306
 20
836.38182684195851
 11
883.81843091584619
 21
835.91942449820851
  0
LINE
  8
_0-0_0
  6
CONTINUOUS
 62
    7
 10
883.81843091584619
 20
835.91942449820851
 11
883.94463111497328
 21
835.45482488883351
  0
LINE
  8
_0-0_0
  6
CONTINUOUS
 62
    7
 10
883.94463111497328
 20
835.45482488883351
 11
884.06513072587416
 21
834.98871465934133
  0
LINE
  8
_0-0_0
  6
CONTINUOUS
 62
    7
 10
884.06513072587416
 20
834.98871465934133
 11
884.17973090745375
 21
834.52171942008351
  0
LINE
  8
_0-0_0
  6
CONTINUOUS
 62
    7
 10
884.17973090745375
 20
834.52171942008351
 11
884.28863097764417
 21
834.05281683219289
  0
LINE
  8
_0-0_0
  6
CONTINUOUS
 62
    7
 10
884.28863097764417
 20
834.05281683219289
 11
884.39172984696802
 21
833.58252569449758
  0
LINE
  8
_0-0_0
  6
CONTINUOUS
 62
    7
 10
884.39172984696802
 20
833.58252569449758
 11
884.48893024064455
 21
833.11162420523965
  0
LINE
  8
_0-0_0
  6
CONTINUOUS
 62
    7
 10
884.48893024064455
 20
833.11162420523965
 11
884.58042956925794
 21
832.6390289903959
  0
LINE
  8
_0-0_0
  6
CONTINUOUS
 62
    7
 10
884.58042956925794
 20
832.6390289903959
 11
884.66612960435316
 21
832.16522833121633
  0
LINE
  8
_0-0_0
  6
CONTINUOUS
 62
    7
 10
884.66612960435316
 20
832.16522833121633
 11
884.74583007432386
 21
831.69112249625539
  0
LINE
  8
_0-0_0
  6
CONTINUOUS
 62
    7
 10
884.74583007432386
 20
831.69112249625539
 11
884.8198294792312
 21
831.21541448844278
  0
LINE
  8
_0-0_0
  6
CONTINUOUS
 62
    7
 10
884.8198294792312
 20
831.21541448844278
 11
884.88783027268812
 21
830.73882147086476
  0
LINE
  8
_0-0_0
  6
CONTINUOUS
 62
    7
 10
884.88783027268812
 20
830.73882147086476
 11
884.95002986527857
 21
830.26201483023965
  0
LINE
  8
_0-0_0
  6
CONTINUOUS
 62
    7
 10
884.95002986527857
 20
830.26201483023965
 11
885.00622989274439
 21
829.78381963981008
  0
LINE
  8
_0-0_0
  6
CONTINUOUS
 62
    7
 10
885.00622989274439
 20
829.78381963981008
 11
885.05662967301771
 21
829.30512090934133
  0
LINE
  8
_0-0_0
  6
CONTINUOUS
 62
    7
 10
885.05662967301771
 20
829.30512090934133
 11
885.10113002396997
 21
828.82631536734903
  0
LINE
  8
_0-0_0
  6
CONTINUOUS
 62
    7
 10
885.10113002396997
 20
828.82631536734903
 11
885.13962985612329
 21
828.3464264513334
  0
LINE
  8
_0-0_0
  6
CONTINUOUS
 62
    7
 10
885.13962985612329
 20
828.3464264513334
 11
885.17223025895521
 21
827.86672064078653
  0
LINE
  8
_0-0_0
  6
CONTINUOUS
 62
    7
 10
885.17223025895521
 20
827.86672064078653
 11
885.19902946092066
 21
827.3860230089507
  0
LINE
  8
_0-0_0
  6
CONTINUOUS
 62
    7
 10
885.19902946092066
 20
827.3860230089507
 11
885.21972991563246
 21
826.90502020133351
  0
LINE
  8
_0-0_0
  6
CONTINUOUS
 62
    7
 10
885.21972991563246
 20
826.90502020133351
 11
885.2346301231521
 21
826.4244293810209
  0
LINE
  8
_0-0_0
  6
CONTINUOUS
 62
    7
 10
885.2346301231521
 20
826.4244293810209
 11
885.24352981187258
 21
825.94312139762246
  0
LINE
  8
_0-0_0
  6
CONTINUOUS
 62
    7
 10
885.24352981187258
 20
825.94312139762246
 11
885.24642993546888
 21
825.46172186148976
  0
LINE
  8
_0-0_0
  6
CONTINUOUS
 62
    7
 10
885.24642993546888
 20
825.46172186148976
 11
885.24352981187258
 21
824.9808258653959
  0
LINE
  8
_0-0_0
  6
CONTINUOUS
 62
    7
 10
885.24352981187258
 20
824.9808258653959
 11
885.2346301231521
 21
824.49951788199758
  0
LINE
  8
_0-0_0
  6
CONTINUOUS
 62
    7
 10
885.2346301231521
 20
824.49951788199758
 11
885.21972991563246
 21
824.01831671012258
  0
LINE
  8
_0-0_0
  6
CONTINUOUS
 62
    7
 10
885.21972991563246
 20
824.01831671012258
 11
885.19902946092066
 21
823.53792425406778
  0
LINE
  8
_0-0_0
  6
CONTINUOUS
 62
    7
 10
885.19902946092066
 20
823.53792425406778
 11
885.17233039475843
 21
823.05722662223184
  0
LINE
  8
_0-0_0
  6
CONTINUOUS
 62
    7
 10
885.17233039475843
 20
823.05722662223184
 11
885.13962985612329
 21
822.57692571891153
  0
LINE
  8
_0-0_0
  6
CONTINUOUS
 62
    7
 10
885.13962985612329
 20
822.57692571891153
 11
885.10113002396997
 21
822.09761663688039
  0
LINE
  8
_0-0_0
  6
CONTINUOUS
 62
    7
 10
885.10113002396997
 20
822.09761663688039
 11
885.05662967301771
 21
821.61821600211465
  0
LINE
  8
_0-0_0
  6
CONTINUOUS
 62
    7
 10
885.05662967301771
 20
821.61821600211465
 11
885.00622989274439
 21
821.13951727164601
  0
LINE
  8
_0-0_0
  6
CONTINUOUS
 62
    7
 10
885.00622989274439
 20
821.13951727164601
 11
884.95002986527857
 21
820.66191717398976
  0
LINE
  8
_0-0_0
  6
CONTINUOUS
 62
    7
 10
884.95002986527857
 20
820.66191717398976
 11
884.88783027268812
 21
820.18451544059133
  0
LINE
  8
_0-0_0
  6
CONTINUOUS
 62
    7
 10
884.88783027268812
 20
820.18451544059133
 11
884.8198294792312
 21
819.70792242301309
  0
LINE
  8
_0-0_0
  6
CONTINUOUS
 62
    7
 10
884.8198294792312
 20
819.70792242301309
 11
884.74593021012709
 21
819.2328247667632
  0
LINE
  8
_0-0_0
  6
CONTINUOUS
 62
    7
 10
884.74593021012709
 20
819.2328247667632
 11
884.66612960435316
 21
818.75812383902883
  0
LINE
  8
_0-0_0
  6
CONTINUOUS
 62
    7
 10
884.58042956925794
 20
818.28432317984903
 11
884.48903037644777
 21
817.81232305777871
  0
LINE
  8
_0-0_0
  6
CONTINUOUS
 62
    7
 10
884.48903037644777
 20
817.81232305777871
 11
884.39172984696802
 21
817.34082647574746
  0
LINE
  8
_0-0_0
  6
CONTINUOUS
 62
    7
 10
884.39172984696802
 20
817.34082647574746
 11
884.2887311134474
 21
816.87111517203664
  0
LINE
  8
_0-0_0
  6
CONTINUOUS
 62
    7
 10
884.2887311134474
 20
816.87111517203664
 11
884.17983104325697
 21
816.40222784293496
  0
LINE
  8
_0-0_0
  6
CONTINUOUS
 62
    7
 10
884.17983104325697
 20
816.40222784293496
 11
884.06513072587416
 21
815.93462225211465
  0
LINE
  8
_0-0_0
  6
CONTINUOUS
 62
    7
 10
884.06513072587416
 20
815.93462225211465
 11
883.94483090974268
 21
815.46912237418508
  0
LINE
  8
_0-0_0
  6
CONTINUOUS
 62
    7
 10
883.94483090974268
 20
815.46912237418508
 11
883.81863071061525
 21
815.00452276480996
  0
LINE
  8
_0-0_0
  6
CONTINUOUS
 62
    7
 10
883.81863071061525
 20
815.00452276480996
 11
883.68663074113306
 21
814.54152532828653
  0
LINE
  8
_0-0_0
  6
CONTINUOUS
 62
    7
 10
883.68663074113306
 20
814.54152532828653
 11
883.54923106767103
 21
814.0807251573882
  0
LINE
  8
_0-0_0
  6
CONTINUOUS
 62
    7
 10
883.54923106767103
 20
814.0807251573882
 11
883.40593101121362
 21
813.62111517203653
  0
LINE
  8
_0-0_0
  6
CONTINUOUS
 62
    7
 10
883.40593101121362
 20
813.62111517203653
 11
883.25693084336672
 21
813.1633209825834
  0
LINE
  8
_0-0_0
  6
CONTINUOUS
 62
    7
 10
883.25693084336672
 20
813.1633209825834
 11
883.10253097154055
 21
812.70802923453653
  0
LINE
  8
_0-0_0
  6
CONTINUOUS
 62
    7
 10
883.10253097154055
 20
812.70802923453653
 11
882.942230716719
 21
812.25401922477101
  0
LINE
  8
_0-0_0
  6
CONTINUOUS
 62
    7
 10
882.942230716719
 20
812.25401922477101
 11
882.77643109895155
 21
811.8021149278959
  0
LINE
  8
_0-0_0
  6
CONTINUOUS
 62
    7
 10
882.60533095933374
 20
811.35272833121633
 11
882.42843104936037
 21
810.9050202013334
  0
LINE
  8
_0-0_0
  6
CONTINUOUS
 62
    7
 10
882.2464308891432
 20
810.46092840445851
 11
870.2464308891432
 21
825.46172186148976
  0
LINE
  8
_0-0_0
  6
CONTINUOUS
 62
    7
 10
882.2464308891432
 20
840.46092840445851
 11
870.2464308891432
 21
855.46172186148976
  0
LINE
  8
_0-0_0
  6
CONTINUOUS
 62
    7
 10
882.77643109895155
 20
811.8021149278959
 11
882.3148155365127
 21
810.58970495475148
  0
LINE
  8
_0-0_0
  6
CONTINUOUS
 62
    7
 10
870.21396972276136
 20
896.07993932975148
 11
870.21396972276136
 21
855.45660253775941
  0
LINE
  8
_0-0_0
  6
CONTINUOUS
 62
    7
 10
882.21396972276136
 20
896.07993932975148
 11
882.21396972276136
 21
840.4872421861968
  0
LINE
  8
_0-0_0
  6
CONTINUOUS
 62
    7
 10
870.33294965363905
 20
1177.9270462633451
 11
882.33294965363916
 21
1177.9270462633451
  0
ARC
  8
_0-0_0
  6
CONTINUOUS
 62
    7
 10
867.31743098832544
 20
554.56765600455606
 40
3.0000000000000004
 50
90
 51
270
  0
ARC
  8
_0-0_0
  6
CONTINUOUS
 62
    7
 10
868.31743146516249
 20
560.56765600455617
 40
1
 50
90
 51
180
  0
ARC
  8
_0-0_0
  6
CONTINUOUS
 62
    7
 10
884.31743098832521
 20
560.56765600455617
 40
1
 50
0
 51
90
  0
ARC
  8
_0-0_0
  6
CONTINUOUS
 62
    7
 10
884.31743098832521
 20
548.56765600455617
 40
1
 50
270
 51
0
  0
ARC
  8
_0-0_0
  6
CONTINUOUS
 62
    7
 10
868.31743146516249
 20
548.56765600455617
 40
1
 50
180
 51
270
  0
ARC
  8
_0-0_0
  6
CONTINUOUS
 62
    7
 10
867.31743098832544
 20
417.33924719107955
 40
3.0000000000000004
 50
90
 51
270
  0
ARC
  8
_0-0_0
  6
CONTINUOUS
 62
    7
 10
885.31743098832533
 20
417.33924719107955
 40
3.0000000000000004
 50
270
 51
90
  0
ARC
  8
_0-0_0
  6
CONTINUOUS
 62
    7
 10
868.31743146516249
 20
423.33924719107955
 40
1
 50
90
 51
180
  0
ARC
  8
_0-0_0
  6
CONTINUOUS
 62
    7
 10
884.31743098832521
 20
423.33924719107955
 40
1
 50
0
 51
90
  0
ARC
  8
_0-0_0
  6
CONTINUOUS
 62
    7
 10
884.31743098832521
 20
411.33924719107949
 40
1
 50
270
 51
0
  0
ARC
  8
_0-0_0
  6
CONTINUOUS
 62
    7
 10
868.31743146516249
 20
411.33924719107949
 40
1
 50
180
 51
270
  0
ARC
  8
_0-0_0
  6
CONTINUOUS
 62
    7
 10
866.8565850410597
 20
903.07993932975148
 40
3.0000000000000004
 50
90
 51
270
  0
ARC
  8
_0-0_0
  6
CONTINUOUS
 62
    7
 10
884.8565850410597
 20
903.07993932975148
 40
3.0000000000000004
 50
270
 51
90
  0
ARC
  8
_0-0_0
  6
CONTINUOUS
 62
    7
 10
867.8565850410597
 20
909.07993932975148
 40
1
 50
90
 51
180
  0
ARC
  8
_0-0_0
  6
CONTINUOUS
 62
    7
 10
883.85658551789686
 20
909.07993932975148
 40
1
 50
0
 51
90
  0
ARC
  8
_0-0_0
  6
CONTINUOUS
 62
    7
 10
883.85658551789686
 20
897.07993932975137
 40
1
 50
270
 51
0
  0
ARC
  8
_0-0_0
  6
CONTINUOUS
 62
    7
 10
867.8565850410597
 20
897.07993932975137
 40
1
 50
180
 51
270
  0
ARC
  8
_0-0_0
  6
CONTINUOUS
 62
    7
 10
868.33294965363905
 20
1044.514845335611
 40
1
 50
90
 51
180
  0
ARC
  8
_0-0_0
  6
CONTINUOUS
 62
    7
 10
884.33294917680189
 20
1044.514845335611
 40
1
 50
0
 51
90
  0
ARC
  8
_0-0_0
  6
CONTINUOUS
 62
    7
 10
884.33294917680189
 20
1032.5148453356107
 40
1
 50
270
 51
0
  0
ARC
  8
_0-0_0
  6
CONTINUOUS
 62
    7
 10
868.33294965363905
 20
1032.5148453356107
 40
1
 50
180
 51
270
  0
ARC
  8
_0-0_0
  6
CONTINUOUS
 62
    7
 10
885.332949176802
 20
1038.5148453356107
 40
3.0000000000000004
 50
270
 51
90
  0
ARC
  8
_0-0_0
  6
CONTINUOUS
 62
    7
 10
885.332949176802
 20
1038.5148453356107
 40
3.0000000000000004
 50
270
 51
90
  0
ARC
  8
_0-0_0
  6
CONTINUOUS
 62
    7
 10
885.332949176802
 20
1038.5148453356107
 40
3.0000000000000004
 50
270
 51
90
  0
ARC
  8
_0-0_0
  6
CONTINUOUS
 62
    7
 10
885.332949176802
 20
1038.5148453356107
 40
3.0000000000000004
 50
270
 51
90
  0
ARC
  8
_0-0_0
  6
CONTINUOUS
 62
    7
 10
885.332949176802
 20
1038.5148453356107
 40
3.0000000000000004
 50
270
 51
90
  0
ARC
  8
_0-0_0
  6
CONTINUOUS
 62
    7
 10
885.332949176802
 20
1038.5148453356107
 40
3.0000000000000004
 50
270
 51
90
  0
ARC
  8
_0-0_0
  6
CONTINUOUS
 62
    7
 10
885.332949176802
 20
1038.5148453356107
 40
3.0000000000000004
 50
270
 51
90
  0
ARC
  8
_0-0_0
  6
CONTINUOUS
 62
    7
 10
885.332949176802
 20
1038.5148453356107
 40
3.0000000000000004
 50
270
 51
90
  0
ARC
  8
_0-0_0
  6
CONTINUOUS
 62
    7
 10
885.332949176802
 20
1038.5148453356107
 40
3.0000000000000004
 50
270
 51
90
  0
ARC
  8
_0-0_0
  6
CONTINUOUS
 62
    7
 10
885.332949176802
 20
1038.5148453356107
 40
3.0000000000000004
 50
270
 51
90
  0
ARC
  8
_0-0_0
  6
CONTINUOUS
 62
    7
 10
885.332949176802
 20
1038.5148453356107
 40
3.0000000000000004
 50
270
 51
90
  0
ARC
  8
_0-0_0
  6
CONTINUOUS
 62
    7
 10
885.332949176802
 20
1038.5148453356107
 40
3.0000000000000004
 50
270
 51
90
  0
ARC
  8
_0-0_0
  6
CONTINUOUS
 62
    7
 10
885.332949176802
 20
1038.5148453356107
 40
3.0000000000000004
 50
270
 51
90
  0
ARC
  8
_0-0_0
  6
CONTINUOUS
 62
    7
 10
885.332949176802
 20
1038.5148453356107
 40
3.0000000000000004
 50
270
 51
90
  0
ARC
  8
_0-0_0
  6
CONTINUOUS
 62
    7
 10
885.332949176802
 20
1038.5148453356107
 40
3.0000000000000004
 50
270
 51
90
  0
ARC
  8
_0-0_0
  6
CONTINUOUS
 62
    7
 10
885.332949176802
 20
1038.5148453356107
 40
3.0000000000000004
 50
270
 51
90
  0
ARC
  8
_0-0_0
  6
CONTINUOUS
 62
    7
 10
885.332949176802
 20
1038.5148453356107
 40
3.0000000000000004
 50
270
 51
90
  0
ARC
  8
_0-0_0
  6
CONTINUOUS
 62
    7
 10
885.332949176802
 20
1038.5148453356107
 40
3.0000000000000004
 50
270
 51
90
  0
ARC
  8
_0-0_0
  6
CONTINUOUS
 62
    7
 10
885.332949176802
 20
1038.5148453356107
 40
3.0000000000000004
 50
270
 51
90
  0
ARC
  8
_0-0_0
  6
CONTINUOUS
 62
    7
 10
885.332949176802
 20
1038.5148453356107
 40
3.0000000000000004
 50
270
 51
90
  0
ARC
  8
_0-0_0
  6
CONTINUOUS
 62
    7
 10
885.332949176802
 20
1038.5148453356107
 40
3.0000000000000004
 50
270
 51
90
  0
ARC
  8
_0-0_0
  6
CONTINUOUS
 62
    7
 10
885.332949176802
 20
1038.5148453356107
 40
3.0000000000000004
 50
270
 51
90
  0
ARC
  8
_0-0_0
  6
CONTINUOUS
 62
    7
 10
885.332949176802
 20
1038.5148453356107
 40
3.0000000000000004
 50
270
 51
90
  0
ARC
  8
_0-0_0
  6
CONTINUOUS
 62
    7
 10
885.332949176802
 20
1038.5148453356107
 40
3.0000000000000004
 50
270
 51
90
  0
ARC
  8
_0-0_0
  6
CONTINUOUS
 62
    7
 10
885.332949176802
 20
1038.5148453356107
 40
3.0000000000000004
 50
270
 51
90
  0
ARC
  8
_0-0_0
  6
CONTINUOUS
 62
    7
 10
885.332949176802
 20
1038.5148453356107
 40
3.0000000000000004
 50
270
 51
90
  0
ARC
  8
_0-0_0
  6
CONTINUOUS
 62
    7
 10
885.332949176802
 20
1038.5148453356107
 40
3.0000000000000004
 50
270
 51
90
  0
ARC
  8
_0-0_0
  6
CONTINUOUS
 62
    7
 10
885.332949176802
 20
1038.5148453356107
 40
3.0000000000000004
 50
270
 51
90
  0
ARC
  8
_0-0_0
  6
CONTINUOUS
 62
    7
 10
885.332949176802
 20
1038.5148453356107
 40
3.0000000000000004
 50
270
 51
90
  0
ARC
  8
_0-0_0
  6
CONTINUOUS
 62
    7
 10
885.332949176802
 20
1038.5148453356107
 40
3.0000000000000004
 50
270
 51
90
  0
ARC
  8
_0-0_0
  6
CONTINUOUS
 62
    7
 10
885.332949176802
 20
1038.5148453356107
 40
3.0000000000000004
 50
270
 51
90
  0
ARC
  8
_0-0_0
  6
CONTINUOUS
 62
    7
 10
885.332949176802
 20
1038.5148453356107
 40
3.0000000000000004
 50
270
 51
90
  0
ARC
  8
_0-0_0
  6
CONTINUOUS
 62
    7
 10
885.332949176802
 20
1038.5148453356107
 40
3.0000000000000004
 50
270
 51
90
  0
ARC
  8
_0-0_0
  6
CONTINUOUS
 62
    7
 10
885.332949176802
 20
1038.5148453356107
 40
3.0000000000000004
 50
270
 51
90
  0
ARC
  8
_0-0_0
  6
CONTINUOUS
 62
    7
 10
885.332949176802
 20
1038.5148453356107
 40
3.0000000000000004
 50
270
 51
90
  0
ARC
  8
_0-0_0
  6
CONTINUOUS
 62
    7
 10
885.332949176802
 20
1038.5148453356107
 40
3.0000000000000004
 50
270
 51
90
  0
ARC
  8
_0-0_0
  6
CONTINUOUS
 62
    7
 10
885.332949176802
 20
1038.5148453356107
 40
3.0000000000000004
 50
270
 51
90
  0
ARC
  8
_0-0_0
  6
CONTINUOUS
 62
    7
 10
885.332949176802
 20
1038.5148453356107
 40
3.0000000000000004
 50
270
 51
90
  0
ARC
  8
_0-0_0
  6
CONTINUOUS
 62
    7
 10
885.332949176802
 20
1038.5148453356107
 40
3.0000000000000004
 50
270
 51
90
  0
ARC
  8
_0-0_0
  6
CONTINUOUS
 62
    7
 10
885.332949176802
 20
1038.5148453356107
 40
3.0000000000000004
 50
270
 51
90
  0
ARC
  8
_0-0_0
  6
CONTINUOUS
 62
    7
 10
885.332949176802
 20
1038.5148453356107
 40
3.0000000000000004
 50
270
 51
90
  0
ARC
  8
_0-0_0
  6
CONTINUOUS
 62
    7
 10
885.332949176802
 20
1038.5148453356107
 40
3.0000000000000004
 50
270
 51
90
  0
ARC
  8
_0-0_0
  6
CONTINUOUS
 62
    7
 10
885.332949176802
 20
1038.5148453356107
 40
3.0000000000000004
 50
270
 51
90
  0
ARC
  8
_0-0_0
  6
CONTINUOUS
 62
    7
 10
885.332949176802
 20
1038.5148453356107
 40
3.0000000000000004
 50
270
 51
90
  0
ARC
  8
_0-0_0
  6
CONTINUOUS
 62
    7
 10
885.332949176802
 20
1038.5148453356107
 40
3.0000000000000004
 50
270
 51
90
  0
ARC
  8
_0-0_0
  6
CONTINUOUS
 62
    7
 10
885.332949176802
 20
1038.5148453356107
 40
3.0000000000000004
 50
270
 51
90
  0
ARC
  8
_0-0_0
  6
CONTINUOUS
 62
    7
 10
885.332949176802
 20
1038.5148453356107
 40
3.0000000000000004
 50
270
 51
90
  0
ARC
  8
_0-0_0
  6
CONTINUOUS
 62
    7
 10
885.332949176802
 20
1038.5148453356107
 40
3.0000000000000004
 50
270
 51
90
  0
ARC
  8
_0-0_0
  6
CONTINUOUS
 62
    7
 10
885.332949176802
 20
1038.5148453356107
 40
3.0000000000000004
 50
270
 51
90
  0
ARC
  8
_0-0_0
  6
CONTINUOUS
 62
    7
 10
885.332949176802
 20
1038.5148453356107
 40
3.0000000000000004
 50
270
 51
90
  0
ARC
  8
_0-0_0
  6
CONTINUOUS
 62
    7
 10
885.332949176802
 20
1038.5148453356107
 40
3.0000000000000004
 50
270
 51
90
  0
ARC
  8
_0-0_0
  6
CONTINUOUS
 62
    7
 10
885.332949176802
 20
1038.5148453356107
 40
3.0000000000000004
 50
270
 51
90
  0
ARC
  8
_0-0_0
  6
CONTINUOUS
 62
    7
 10
885.332949176802
 20
1038.5148453356107
 40
3.0000000000000004
 50
270
 51
90
  0
ARC
  8
_0-0_0
  6
CONTINUOUS
 62
    7
 10
885.332949176802
 20
1038.5148453356107
 40
3.0000000000000004
 50
270
 51
90
  0
ARC
  8
_0-0_0
  6
CONTINUOUS
 62
    7
 10
885.332949176802
 20
1038.5148453356107
 40
3.0000000000000004
 50
270
 51
90
  0
ARC
  8
_0-0_0
  6
CONTINUOUS
 62
    7
 10
885.332949176802
 20
1038.5148453356107
 40
3.0000000000000004
 50
270
 51
90
  0
ARC
  8
_0-0_0
  6
CONTINUOUS
 62
    7
 10
885.332949176802
 20
1038.5148453356107
 40
3.0000000000000004
 50
270
 51
90
  0
ARC
  8
_0-0_0
  6
CONTINUOUS
 62
    7
 10
885.332949176802
 20
1038.5148453356107
 40
3.0000000000000004
 50
270
 51
90
  0
ARC
  8
_0-0_0
  6
CONTINUOUS
 62
    7
 10
885.332949176802
 20
1038.5148453356107
 40
3.0000000000000004
 50
270
 51
90
  0
ARC
  8
_0-0_0
  6
CONTINUOUS
 62
    7
 10
885.332949176802
 20
1038.5148453356107
 40
3.0000000000000004
 50
270
 51
90
  0
ARC
  8
_0-0_0
  6
CONTINUOUS
 62
    7
 10
885.332949176802
 20
1038.5148453356107
 40
3.0000000000000004
 50
270
 51
90
  0
ARC
  8
_0-0_0
  6
CONTINUOUS
 62
    7
 10
885.332949176802
 20
1038.5148453356107
 40
3.0000000000000004
 50
270
 51
90
  0
ARC
  8
_0-0_0
  6
CONTINUOUS
 62
    7
 10
885.332949176802
 20
1038.5148453356107
 40
3.0000000000000004
 50
270
 51
90
  0
ARC
  8
_0-0_0
  6
CONTINUOUS
 62
    7
 10
885.332949176802
 20
1038.5148453356107
 40
3.0000000000000004
 50
270
 51
90
  0
ARC
  8
_0-0_0
  6
CONTINUOUS
 62
    7
 10
885.332949176802
 20
1038.5148453356107
 40
3.0000000000000004
 50
270
 51
90
  0
ARC
  8
_0-0_0
  6
CONTINUOUS
 62
    7
 10
885.332949176802
 20
1038.5148453356107
 40
3.0000000000000004
 50
270
 51
90
  0
ARC
  8
_0-0_0
  6
CONTINUOUS
 62
    7
 10
885.332949176802
 20
1038.5148453356107
 40
3.0000000000000004
 50
270
 51
90
  0
ARC
  8
_0-0_0
  6
CONTINUOUS
 62
    7
 10
885.332949176802
 20
1038.5148453356107
 40
3.0000000000000004
 50
270
 51
90
  0
ARC
  8
_0-0_0
  6
CONTINUOUS
 62
    7
 10
885.332949176802
 20
1038.5148453356107
 40
3.0000000000000004
 50
270
 51
90
  0
ARC
  8
_0-0_0
  6
CONTINUOUS
 62
    7
 10
885.332949176802
 20
1038.5148453356107
 40
3.0000000000000004
 50
270
 51
90
  0
ARC
  8
_0-0_0
  6
CONTINUOUS
 62
    7
 10
885.332949176802
 20
1038.5148453356107
 40
3.0000000000000004
 50
270
 51
90
  0
ARC
  8
_0-0_0
  6
CONTINUOUS
 62
    7
 10
885.332949176802
 20
1038.5148453356107
 40
3.0000000000000004
 50
270
 51
90
  0
ARC
  8
_0-0_0
  6
CONTINUOUS
 62
    7
 10
885.332949176802
 20
1038.5148453356107
 40
3.0000000000000004
 50
270
 51
90
  0
ARC
  8
_0-0_0
  6
CONTINUOUS
 62
    7
 10
885.332949176802
 20
1038.5148453356107
 40
3.0000000000000004
 50
270
 51
90
  0
ARC
  8
_0-0_0
  6
CONTINUOUS
 62
    7
 10
885.332949176802
 20
1038.5148453356107
 40
3.0000000000000004
 50
270
 51
90
  0
ARC
  8
_0-0_0
  6
CONTINUOUS
 62
    7
 10
885.332949176802
 20
1038.5148453356107
 40
3.0000000000000004
 50
270
 51
90
  0
ARC
  8
_0-0_0
  6
CONTINUOUS
 62
    7
 10
885.332949176802
 20
1038.5148453356107
 40
3.0000000000000004
 50
270
 51
90
  0
ARC
  8
_0-0_0
  6
CONTINUOUS
 62
    7
 10
885.332949176802
 20
1038.5148453356107
 40
3.0000000000000004
 50
270
 51
90
  0
ARC
  8
_0-0_0
  6
CONTINUOUS
 62
    7
 10
885.332949176802
 20
1038.5148453356107
 40
3.0000000000000004
 50
270
 51
90
  0
ARC
  8
_0-0_0
  6
CONTINUOUS
 62
    7
 10
885.332949176802
 20
1038.5148453356107
 40
3.0000000000000004
 50
270
 51
90
  0
ARC
  8
_0-0_0
  6
CONTINUOUS
 62
    7
 10
885.332949176802
 20
1038.5148453356107
 40
3.0000000000000004
 50
270
 51
90
  0
ARC
  8
_0-0_0
  6
CONTINUOUS
 62
    7
 10
885.332949176802
 20
1038.5148453356107
 40
3.0000000000000004
 50
270
 51
90
  0
ARC
  8
_0-0_0
  6
CONTINUOUS
 62
    7
 10
885.332949176802
 20
1038.5148453356107
 40
3.0000000000000004
 50
270
 51
90
  0
ARC
  8
_0-0_0
  6
CONTINUOUS
 62
    7
 10
885.332949176802
 20
1038.5148453356107
 40
3.0000000000000004
 50
270
 51
90
  0
ARC
  8
_0-0_0
  6
CONTINUOUS
 62
    7
 10
885.332949176802
 20
1038.5148453356107
 40
3.0000000000000004
 50
270
 51
90
  0
ARC
  8
_0-0_0
  6
CONTINUOUS
 62
    7
 10
885.332949176802
 20
1038.5148453356107
 40
3.0000000000000004
 50
270
 51
90
  0
ARC
  8
_0-0_0
  6
CONTINUOUS
 62
    7
 10
885.332949176802
 20
1038.5148453356107
 40
3.0000000000000004
 50
270
 51
90
  0
ARC
  8
_0-0_0
  6
CONTINUOUS
 62
    7
 10
885.332949176802
 20
1038.5148453356107
 40
3.0000000000000004
 50
270
 51
90
  0
ARC
  8
_0-0_0
  6
CONTINUOUS
 62
    7
 10
885.332949176802
 20
1038.5148453356107
 40
3.0000000000000004
 50
270
 51
90
  0
ARC
  8
_0-0_0
  6
CONTINUOUS
 62
    7
 10
885.332949176802
 20
1038.5148453356107
 40
3.0000000000000004
 50
270
 51
90
  0
ARC
  8
_0-0_0
  6
CONTINUOUS
 62
    7
 10
885.332949176802
 20
1038.5148453356107
 40
3.0000000000000004
 50
270
 51
90
  0
ARC
  8
_0-0_0
  6
CONTINUOUS
 62
    7
 10
885.332949176802
 20
1038.5148453356107
 40
3.0000000000000004
 50
270
 51
90
  0
ARC
  8
_0-0_0
  6
CONTINUOUS
 62
    7
 10
885.332949176802
 20
1038.5148453356107
 40
3.0000000000000004
 50
270
 51
90
  0
ARC
  8
_0-0_0
  6
CONTINUOUS
 62
    7
 10
885.332949176802
 20
1038.5148453356107
 40
3.0000000000000004
 50
270
 51
90
  0
ARC
  8
_0-0_0
  6
CONTINUOUS
 62
    7
 10
885.332949176802
 20
1038.5148453356107
 40
3.0000000000000004
 50
270
 51
90
  0
ARC
  8
_0-0_0
  6
CONTINUOUS
 62
    7
 10
885.332949176802
 20
1038.5148453356107
 40
3.0000000000000004
 50
270
 51
90
  0
ARC
  8
_0-0_0
  6
CONTINUOUS
 62
    7
 10
885.332949176802
 20
1038.5148453356107
 40
3.0000000000000004
 50
270
 51
90
  0
ARC
  8
_0-0_0
  6
CONTINUOUS
 62
    7
 10
885.332949176802
 20
1038.5148453356107
 40
3.0000000000000004
 50
270
 51
90
  0
ARC
  8
_0-0_0
  6
CONTINUOUS
 62
    7
 10
885.332949176802
 20
1038.5148453356107
 40
3.0000000000000004
 50
270
 51
90
  0
ARC
  8
_0-0_0
  6
CONTINUOUS
 62
    7
 10
885.332949176802
 20
1038.5148453356107
 40
3.0000000000000004
 50
270
 51
90
  0
ARC
  8
_0-0_0
  6
CONTINUOUS
 62
    7
 10
885.332949176802
 20
1038.5148453356107
 40
3.0000000000000004
 50
270
 51
90
  0
ARC
  8
_0-0_0
  6
CONTINUOUS
 62
    7
 10
885.332949176802
 20
1038.5148453356107
 40
3.0000000000000004
 50
270
 51
90
  0
ARC
  8
_0-0_0
  6
CONTINUOUS
 62
    7
 10
885.332949176802
 20
1038.5148453356107
 40
3.0000000000000004
 50
270
 51
90
  0
ARC
  8
_0-0_0
  6
CONTINUOUS
 62
    7
 10
885.332949176802
 20
1038.5148453356107
 40
3.0000000000000004
 50
270
 51
90
  0
ARC
  8
_0-0_0
  6
CONTINUOUS
 62
    7
 10
885.332949176802
 20
1038.5148453356107
 40
3.0000000000000004
 50
270
 51
90
  0
ARC
  8
_0-0_0
  6
CONTINUOUS
 62
    7
 10
885.332949176802
 20
1038.5148453356107
 40
3.0000000000000004
 50
270
 51
90
  0
ARC
  8
_0-0_0
  6
CONTINUOUS
 62
    7
 10
885.332949176802
 20
1038.5148453356107
 40
3.0000000000000004
 50
270
 51
90
  0
ARC
  8
_0-0_0
  6
CONTINUOUS
 62
    7
 10
885.332949176802
 20
1038.5148453356107
 40
3.0000000000000004
 50
270
 51
90
  0
ARC
  8
_0-0_0
  6
CONTINUOUS
 62
    7
 10
885.332949176802
 20
1038.5148453356107
 40
3.0000000000000004
 50
270
 51
90
  0
ARC
  8
_0-0_0
  6
CONTINUOUS
 62
    7
 10
885.332949176802
 20
1038.5148453356107
 40
3.0000000000000004
 50
270
 51
90
  0
ARC
  8
_0-0_0
  6
CONTINUOUS
 62
    7
 10
885.332949176802
 20
1038.5148453356107
 40
3.0000000000000004
 50
270
 51
90
  0
ARC
  8
_0-0_0
  6
CONTINUOUS
 62
    7
 10
885.332949176802
 20
1038.5148453356107
 40
3.0000000000000004
 50
270
 51
90
  0
ARC
  8
_0-0_0
  6
CONTINUOUS
 62
    7
 10
885.332949176802
 20
1038.5148453356107
 40
3.0000000000000004
 50
270
 51
90
  0
ARC
  8
_0-0_0
  6
CONTINUOUS
 62
    7
 10
885.332949176802
 20
1038.5148453356107
 40
3.0000000000000004
 50
270
 51
90
  0
ARC
  8
_0-0_0
  6
CONTINUOUS
 62
    7
 10
885.332949176802
 20
1038.5148453356107
 40
3.0000000000000004
 50
270
 51
90
  0
ARC
  8
_0-0_0
  6
CONTINUOUS
 62
    7
 10
885.332949176802
 20
1038.5148453356107
 40
3.0000000000000004
 50
270
 51
90
  0
ARC
  8
_0-0_0
  6
CONTINUOUS
 62
    7
 10
885.332949176802
 20
1038.5148453356107
 40
3.0000000000000004
 50
270
 51
90
  0
ARC
  8
_0-0_0
  6
CONTINUOUS
 62
    7
 10
885.332949176802
 20
1038.5148453356107
 40
3.0000000000000004
 50
270
 51
90
  0
ARC
  8
_0-0_0
  6
CONTINUOUS
 62
    7
 10
885.332949176802
 20
1038.5148453356107
 40
3.0000000000000004
 50
270
 51
90
  0
ARC
  8
_0-0_0
  6
CONTINUOUS
 62
    7
 10
885.332949176802
 20
1038.5148453356107
 40
3.0000000000000004
 50
270
 51
90
  0
ARC
  8
_0-0_0
  6
CONTINUOUS
 62
    7
 10
885.332949176802
 20
1038.5148453356107
 40
3.0000000000000004
 50
270
 51
90
  0
ARC
  8
_0-0_0
  6
CONTINUOUS
 62
    7
 10
885.332949176802
 20
1038.5148453356107
 40
3.0000000000000004
 50
270
 51
90
  0
ARC
  8
_0-0_0
  6
CONTINUOUS
 62
    7
 10
885.332949176802
 20
1038.5148453356107
 40
3.0000000000000004
 50
270
 51
90
  0
ARC
  8
_0-0_0
  6
CONTINUOUS
 62
    7
 10
885.332949176802
 20
1038.5148453356107
 40
3.0000000000000004
 50
270
 51
90
  0
ARC
  8
_0-0_0
  6
CONTINUOUS
 62
    7
 10
885.332949176802
 20
1038.5148453356107
 40
3.0000000000000004
 50
270
 51
90
  0
ARC
  8
_0-0_0
  6
CONTINUOUS
 62
    7
 10
885.332949176802
 20
1038.5148453356107
 40
3.0000000000000004
 50
270
 51
90
  0
ARC
  8
_0-0_0
  6
CONTINUOUS
 62
    7
 10
885.332949176802
 20
1038.5148453356107
 40
3.0000000000000004
 50
270
 51
90
  0
ARC
  8
_0-0_0
  6
CONTINUOUS
 62
    7
 10
885.332949176802
 20
1038.5148453356107
 40
3.0000000000000004
 50
270
 51
90
  0
ARC
  8
_0-0_0
  6
CONTINUOUS
 62
    7
 10
885.332949176802
 20
1038.5148453356107
 40
3.0000000000000004
 50
270
 51
90
  0
ARC
  8
_0-0_0
  6
CONTINUOUS
 62
    7
 10
885.332949176802
 20
1038.5148453356107
 40
3.0000000000000004
 50
270
 51
90
  0
ARC
  8
_0-0_0
  6
CONTINUOUS
 62
    7
 10
885.332949176802
 20
1038.5148453356107
 40
3.0000000000000004
 50
270
 51
90
  0
ARC
  8
_0-0_0
  6
CONTINUOUS
 62
    7
 10
885.332949176802
 20
1038.5148453356107
 40
3.0000000000000004
 50
270
 51
90
  0
ARC
  8
_0-0_0
  6
CONTINUOUS
 62
    7
 10
885.332949176802
 20
1038.5148453356107
 40
3.0000000000000004
 50
270
 51
90
  0
ARC
  8
_0-0_0
  6
CONTINUOUS
 62
    7
 10
885.332949176802
 20
1038.5148453356107
 40
3.0000000000000004
 50
270
 51
90
  0
ARC
  8
_0-0_0
  6
CONTINUOUS
 62
    7
 10
885.332949176802
 20
1038.5148453356107
 40
3.0000000000000004
 50
270
 51
90
  0
ARC
  8
_0-0_0
  6
CONTINUOUS
 62
    7
 10
885.332949176802
 20
1038.5148453356107
 40
3.0000000000000004
 50
270
 51
90
  0
ARC
  8
_0-0_0
  6
CONTINUOUS
 62
    7
 10
885.332949176802
 20
1038.5148453356107
 40
3.0000000000000004
 50
270
 51
90
  0
ARC
  8
_0-0_0
  6
CONTINUOUS
 62
    7
 10
885.332949176802
 20
1038.5148453356107
 40
3.0000000000000004
 50
270
 51
90
  0
ARC
  8
_0-0_0
  6
CONTINUOUS
 62
    7
 10
885.332949176802
 20
1038.5148453356107
 40
3.0000000000000004
 50
270
 51
90
  0
ARC
  8
_0-0_0
  6
CONTINUOUS
 62
    7
 10
885.332949176802
 20
1038.5148453356107
 40
3.0000000000000004
 50
270
 51
90
  0
ARC
  8
_0-0_0
  6
CONTINUOUS
 62
    7
 10
885.332949176802
 20
1038.5148453356107
 40
3.0000000000000004
 50
270
 51
90
  0
ARC
  8
_0-0_0
  6
CONTINUOUS
 62
    7
 10
885.332949176802
 20
1038.5148453356107
 40
3.0000000000000004
 50
270
 51
90
  0
ARC
  8
_0-0_0
  6
CONTINUOUS
 62
    7
 10
885.332949176802
 20
1038.5148453356107
 40
3.0000000000000004
 50
270
 51
90
  0
ARC
  8
_0-0_0
  6
CONTINUOUS
 62
    7
 10
885.332949176802
 20
1038.5148453356107
 40
3.0000000000000004
 50
270
 51
90
  0
ARC
  8
_0-0_0
  6
CONTINUOUS
 62
    7
 10
885.332949176802
 20
1038.5148453356107
 40
3.0000000000000004
 50
270
 51
90
  0
ARC
  8
_0-0_0
  6
CONTINUOUS
 62
    7
 10
885.332949176802
 20
1038.5148453356107
 40
3.0000000000000004
 50
270
 51
90
  0
ARC
  8
_0-0_0
  6
CONTINUOUS
 62
    7
 10
885.332949176802
 20
1038.5148453356107
 40
3.0000000000000004
 50
270
 51
90
  0
ARC
  8
_0-0_0
  6
CONTINUOUS
 62
    7
 10
885.332949176802
 20
1038.5148453356107
 40
3.0000000000000004
 50
270
 51
90
  0
ARC
  8
_0-0_0
  6
CONTINUOUS
 62
    7
 10
885.332949176802
 20
1038.5148453356107
 40
3.0000000000000004
 50
270
 51
90
  0
ARC
  8
_0-0_0
  6
CONTINUOUS
 62
    7
 10
885.332949176802
 20
1038.5148453356107
 40
3.0000000000000004
 50
270
 51
90
  0
ARC
  8
_0-0_0
  6
CONTINUOUS
 62
    7
 10
885.332949176802
 20
1038.5148453356107
 40
3.0000000000000004
 50
270
 51
90
  0
ARC
  8
_0-0_0
  6
CONTINUOUS
 62
    7
 10
885.332949176802
 20
1038.5148453356107
 40
3.0000000000000004
 50
270
 51
90
  0
ARC
  8
_0-0_0
  6
CONTINUOUS
 62
    7
 10
885.332949176802
 20
1038.5148453356107
 40
3.0000000000000004
 50
270
 51
90
  0
ARC
  8
_0-0_0
  6
CONTINUOUS
 62
    7
 10
885.332949176802
 20
1038.5148453356107
 40
3.0000000000000004
 50
270
 51
90
  0
ARC
  8
_0-0_0
  6
CONTINUOUS
 62
    7
 10
885.332949176802
 20
1038.5148453356107
 40
3.0000000000000004
 50
270
 51
90
  0
ARC
  8
_0-0_0
  6
CONTINUOUS
 62
    7
 10
885.332949176802
 20
1038.5148453356107
 40
3.0000000000000004
 50
270
 51
90
  0
ARC
  8
_0-0_0
  6
CONTINUOUS
 62
    7
 10
885.332949176802
 20
1038.5148453356107
 40
3.0000000000000004
 50
270
 51
90
  0
ARC
  8
_0-0_0
  6
CONTINUOUS
 62
    7
 10
885.332949176802
 20
1038.5148453356107
 40
3.0000000000000004
 50
270
 51
90
  0
ARC
  8
_0-0_0
  6
CONTINUOUS
 62
    7
 10
885.332949176802
 20
1038.5148453356107
 40
3.0000000000000004
 50
270
 51
90
  0
ARC
  8
_0-0_0
  6
CONTINUOUS
 62
    7
 10
885.332949176802
 20
1038.5148453356107
 40
3.0000000000000004
 50
270
 51
90
  0
ARC
  8
_0-0_0
  6
CONTINUOUS
 62
    7
 10
885.332949176802
 20
1038.5148453356107
 40
3.0000000000000004
 50
270
 51
90
  0
ARC
  8
_0-0_0
  6
CONTINUOUS
 62
    7
 10
885.332949176802
 20
1038.5148453356107
 40
3.0000000000000004
 50
270
 51
90
  0
ARC
  8
_0-0_0
  6
CONTINUOUS
 62
    7
 10
885.332949176802
 20
1038.5148453356107
 40
3.0000000000000004
 50
270
 51
90
  0
ARC
  8
_0-0_0
  6
CONTINUOUS
 62
    7
 10
885.332949176802
 20
1038.5148453356107
 40
3.0000000000000004
 50
270
 51
90
  0
ARC
  8
_0-0_0
  6
CONTINUOUS
 62
    7
 10
885.332949176802
 20
1038.5148453356107
 40
3.0000000000000004
 50
270
 51
90
  0
ARC
  8
_0-0_0
  6
CONTINUOUS
 62
    7
 10
885.332949176802
 20
1038.5148453356107
 40
3.0000000000000004
 50
270
 51
90
  0
ARC
  8
_0-0_0
  6
CONTINUOUS
 62
    7
 10
885.332949176802
 20
1038.5148453356107
 40
3.0000000000000004
 50
270
 51
90
  0
ARC
  8
_0-0_0
  6
CONTINUOUS
 62
    7
 10
885.332949176802
 20
1038.5148453356107
 40
3.0000000000000004
 50
270
 51
90
  0
ARC
  8
_0-0_0
  6
CONTINUOUS
 62
    7
 10
885.332949176802
 20
1038.5148453356107
 40
3.0000000000000004
 50
270
 51
90
  0
ARC
  8
_0-0_0
  6
CONTINUOUS
 62
    7
 10
885.332949176802
 20
1038.5148453356107
 40
3.0000000000000004
 50
270
 51
90
  0
ARC
  8
_0-0_0
  6
CONTINUOUS
 62
    7
 10
885.332949176802
 20
1038.5148453356107
 40
3.0000000000000004
 50
270
 51
90
  0
ARC
  8
_0-0_0
  6
CONTINUOUS
 62
    7
 10
885.332949176802
 20
1038.5148453356107
 40
3.0000000000000004
 50
270
 51
90
  0
ARC
  8
_0-0_0
  6
CONTINUOUS
 62
    7
 10
885.332949176802
 20
1038.5148453356107
 40
3.0000000000000004
 50
270
 51
90
  0
ARC
  8
_0-0_0
  6
CONTINUOUS
 62
    7
 10
885.332949176802
 20
1038.5148453356107
 40
3.0000000000000004
 50
270
 51
90
  0
ARC
  8
_0-0_0
  6
CONTINUOUS
 62
    7
 10
885.332949176802
 20
1038.5148453356107
 40
3.0000000000000004
 50
270
 51
90
  0
ARC
  8
_0-0_0
  6
CONTINUOUS
 62
    7
 10
885.332949176802
 20
1038.5148453356107
 40
3.0000000000000004
 50
270
 51
90
  0
ARC
  8
_0-0_0
  6
CONTINUOUS
 62
    7
 10
885.332949176802
 20
1038.5148453356107
 40
3.0000000000000004
 50
270
 51
90
  0
ARC
  8
_0-0_0
  6
CONTINUOUS
 62
    7
 10
885.332949176802
 20
1038.5148453356107
 40
3.0000000000000004
 50
270
 51
90
  0
ARC
  8
_0-0_0
  6
CONTINUOUS
 62
    7
 10
885.332949176802
 20
1038.5148453356107
 40
3.0000000000000004
 50
270
 51
90
  0
ARC
  8
_0-0_0
  6
CONTINUOUS
 62
    7
 10
885.332949176802
 20
1038.5148453356107
 40
3.0000000000000004
 50
270
 51
90
  0
ARC
  8
_0-0_0
  6
CONTINUOUS
 62
    7
 10
885.332949176802
 20
1038.5148453356107
 40
3.0000000000000004
 50
270
 51
90
  0
ARC
  8
_0-0_0
  6
CONTINUOUS
 62
    7
 10
885.332949176802
 20
1038.5148453356107
 40
3.0000000000000004
 50
270
 51
90
  0
ARC
  8
_0-0_0
  6
CONTINUOUS
 62
    7
 10
885.332949176802
 20
1038.5148453356107
 40
3.0000000000000004
 50
270
 51
90
  0
ARC
  8
_0-0_0
  6
CONTINUOUS
 62
    7
 10
885.332949176802
 20
1038.5148453356107
 40
3.0000000000000004
 50
270
 51
90
  0
ARC
  8
_0-0_0
  6
CONTINUOUS
 62
    7
 10
885.332949176802
 20
1038.5148453356107
 40
3.0000000000000004
 50
270
 51
90
  0
ARC
  8
_0-0_0
  6
CONTINUOUS
 62
    7
 10
885.332949176802
 20
1038.5148453356107
 40
3.0000000000000004
 50
270
 51
90
  0
ARC
  8
_0-0_0
  6
CONTINUOUS
 62
    7
 10
885.332949176802
 20
1038.5148453356107
 40
3.0000000000000004
 50
270
 51
90
  0
ARC
  8
_0-0_0
  6
CONTINUOUS
 62
    7
 10
885.332949176802
 20
1038.5148453356107
 40
3.0000000000000004
 50
270
 51
90
  0
ARC
  8
_0-0_0
  6
CONTINUOUS
 62
    7
 10
885.332949176802
 20
1038.5148453356107
 40
3.0000000000000004
 50
270
 51
90
  0
ARC
  8
_0-0_0
  6
CONTINUOUS
 62
    7
 10
885.332949176802
 20
1038.5148453356107
 40
3.0000000000000004
 50
270
 51
90
  0
ARC
  8
_0-0_0
  6
CONTINUOUS
 62
    7
 10
885.332949176802
 20
1038.5148453356107
 40
3.0000000000000004
 50
270
 51
90
  0
ARC
  8
_0-0_0
  6
CONTINUOUS
 62
    7
 10
885.332949176802
 20
1038.5148453356107
 40
3.0000000000000004
 50
270
 51
90
  0
ARC
  8
_0-0_0
  6
CONTINUOUS
 62
    7
 10
885.332949176802
 20
1038.5148453356107
 40
3.0000000000000004
 50
270
 51
90
  0
ARC
  8
_0-0_0
  6
CONTINUOUS
 62
    7
 10
885.332949176802
 20
1038.5148453356107
 40
3.0000000000000004
 50
270
 51
90
  0
ARC
  8
_0-0_0
  6
CONTINUOUS
 62
    7
 10
885.332949176802
 20
1038.5148453356107
 40
3.0000000000000004
 50
270
 51
90
  0
ARC
  8
_0-0_0
  6
CONTINUOUS
 62
    7
 10
885.332949176802
 20
1038.5148453356107
 40
3.0000000000000004
 50
270
 51
90
  0
ARC
  8
_0-0_0
  6
CONTINUOUS
 62
    7
 10
867.33294917680178
 20
1038.5148453356107
 40
3.0000000000000004
 50
90
 51
270
  0
ARC
  8
_0-0_0
  6
CONTINUOUS
 62
    7
 10
867.33294917680178
 20
1038.5148453356107
 40
3.0000000000000004
 50
90
 51
270
  0
ARC
  8
_0-0_0
  6
CONTINUOUS
 62
    7
 10
867.33294917680178
 20
1038.5148453356107
 40
3.0000000000000004
 50
90
 51
270
  0
ARC
  8
_0-0_0
  6
CONTINUOUS
 62
    7
 10
867.33294917680178
 20
1038.5148453356107
 40
3.0000000000000004
 50
90
 51
270
  0
ARC
  8
_0-0_0
  6
CONTINUOUS
 62
    7
 10
867.33294917680178
 20
1038.5148453356107
 40
3.0000000000000004
 50
90
 51
270
  0
ARC
  8
_0-0_0
  6
CONTINUOUS
 62
    7
 10
867.33294917680178
 20
1038.5148453356107
 40
3.0000000000000004
 50
90
 51
270
  0
ARC
  8
_0-0_0
  6
CONTINUOUS
 62
    7
 10
867.33294917680178
 20
1038.5148453356107
 40
3.0000000000000004
 50
90
 51
270
  0
ARC
  8
_0-0_0
  6
CONTINUOUS
 62
    7
 10
867.33294917680178
 20
1038.5148453356107
 40
3.0000000000000004
 50
90
 51
270
  0
ARC
  8
_0-0_0
  6
CONTINUOUS
 62
    7
 10
867.33294917680178
 20
1038.5148453356107
 40
3.0000000000000004
 50
90
 51
270
  0
ARC
  8
_0-0_0
  6
CONTINUOUS
 62
    7
 10
867.33294917680178
 20
1038.5148453356107
 40
3.0000000000000004
 50
90
 51
270
  0
ARC
  8
_0-0_0
  6
CONTINUOUS
 62
    7
 10
867.33294917680178
 20
1038.5148453356107
 40
3.0000000000000004
 50
90
 51
270
  0
ARC
  8
_0-0_0
  6
CONTINUOUS
 62
    7
 10
867.33294917680178
 20
1038.5148453356107
 40
3.0000000000000004
 50
90
 51
270
  0
ARC
  8
_0-0_0
  6
CONTINUOUS
 62
    7
 10
867.33294917680178
 20
1038.5148453356107
 40
3.0000000000000004
 50
90
 51
270
  0
ARC
  8
_0-0_0
  6
CONTINUOUS
 62
    7
 10
867.33294917680178
 20
1038.5148453356107
 40
3.0000000000000004
 50
90
 51
270
  0
ARC
  8
_0-0_0
  6
CONTINUOUS
 62
    7
 10
867.33294917680178
 20
1038.5148453356107
 40
3.0000000000000004
 50
90
 51
270
  0
ARC
  8
_0-0_0
  6
CONTINUOUS
 62
    7
 10
867.33294917680178
 20
1038.5148453356107
 40
3.0000000000000004
 50
90
 51
270
  0
ARC
  8
_0-0_0
  6
CONTINUOUS
 62
    7
 10
867.33294917680178
 20
1038.5148453356107
 40
3.0000000000000004
 50
90
 51
270
  0
ARC
  8
_0-0_0
  6
CONTINUOUS
 62
    7
 10
867.33294917680178
 20
1038.5148453356107
 40
3.0000000000000004
 50
90
 51
270
  0
ARC
  8
_0-0_0
  6
CONTINUOUS
 62
    7
 10
867.33294917680178
 20
1038.5148453356107
 40
3.0000000000000004
 50
90
 51
270
  0
ARC
  8
_0-0_0
  6
CONTINUOUS
 62
    7
 10
867.33294917680178
 20
1038.5148453356107
 40
3.0000000000000004
 50
90
 51
270
  0
ARC
  8
_0-0_0
  6
CONTINUOUS
 62
    7
 10
867.33294917680178
 20
1038.5148453356107
 40
3.0000000000000004
 50
90
 51
270
  0
ARC
  8
_0-0_0
  6
CONTINUOUS
 62
    7
 10
867.33294917680178
 20
1038.5148453356107
 40
3.0000000000000004
 50
90
 51
270
  0
ARC
  8
_0-0_0
  6
CONTINUOUS
 62
    7
 10
867.33294917680178
 20
1038.5148453356107
 40
3.0000000000000004
 50
90
 51
270
  0
ARC
  8
_0-0_0
  6
CONTINUOUS
 62
    7
 10
867.33294917680178
 20
1038.5148453356107
 40
3.0000000000000004
 50
90
 51
270
  0
ARC
  8
_0-0_0
  6
CONTINUOUS
 62
    7
 10
867.33294917680178
 20
1038.5148453356107
 40
3.0000000000000004
 50
90
 51
270
  0
ARC
  8
_0-0_0
  6
CONTINUOUS
 62
    7
 10
867.33294917680178
 20
1038.5148453356107
 40
3.0000000000000004
 50
90
 51
270
  0
ARC
  8
_0-0_0
  6
CONTINUOUS
 62
    7
 10
867.33294917680178
 20
1038.5148453356107
 40
3.0000000000000004
 50
90
 51
270
  0
ARC
  8
_0-0_0
  6
CONTINUOUS
 62
    7
 10
867.33294917680178
 20
1038.5148453356107
 40
3.0000000000000004
 50
90
 51
270
  0
ARC
  8
_0-0_0
  6
CONTINUOUS
 62
    7
 10
867.33294917680178
 20
1038.5148453356107
 40
3.0000000000000004
 50
90
 51
270
  0
ARC
  8
_0-0_0
  6
CONTINUOUS
 62
    7
 10
867.33294917680178
 20
1038.5148453356107
 40
3.0000000000000004
 50
90
 51
270
  0
ARC
  8
_0-0_0
  6
CONTINUOUS
 62
    7
 10
867.33294917680178
 20
1038.5148453356107
 40
3.0000000000000004
 50
90
 51
270
  0
ARC
  8
_0-0_0
  6
CONTINUOUS
 62
    7
 10
867.33294917680178
 20
1038.5148453356107
 40
3.0000000000000004
 50
90
 51
270
  0
ARC
  8
_0-0_0
  6
CONTINUOUS
 62
    7
 10
867.33294917680178
 20
1038.5148453356107
 40
3.0000000000000004
 50
90
 51
270
  0
ARC
  8
_0-0_0
  6
CONTINUOUS
 62
    7
 10
867.33294917680178
 20
1038.5148453356107
 40
3.0000000000000004
 50
90
 51
270
  0
ARC
  8
_0-0_0
  6
CONTINUOUS
 62
    7
 10
867.33294917680178
 20
1038.5148453356107
 40
3.0000000000000004
 50
90
 51
270
  0
ARC
  8
_0-0_0
  6
CONTINUOUS
 62
    7
 10
867.33294917680178
 20
1038.5148453356107
 40
3.0000000000000004
 50
90
 51
270
  0
ARC
  8
_0-0_0
  6
CONTINUOUS
 62
    7
 10
867.33294917680178
 20
1038.5148453356107
 40
3.0000000000000004
 50
90
 51
270
  0
ARC
  8
_0-0_0
  6
CONTINUOUS
 62
    7
 10
867.33294917680178
 20
1038.5148453356107
 40
3.0000000000000004
 50
90
 51
270
  0
ARC
  8
_0-0_0
  6
CONTINUOUS
 62
    7
 10
867.33294917680178
 20
1038.5148453356107
 40
3.0000000000000004
 50
90
 51
270
  0
ARC
  8
_0-0_0
  6
CONTINUOUS
 62
    7
 10
867.33294917680178
 20
1038.5148453356107
 40
3.0000000000000004
 50
90
 51
270
  0
ARC
  8
_0-0_0
  6
CONTINUOUS
 62
    7
 10
867.33294917680178
 20
1038.5148453356107
 40
3.0000000000000004
 50
90
 51
270
  0
ARC
  8
_0-0_0
  6
CONTINUOUS
 62
    7
 10
867.33294917680178
 20
1038.5148453356107
 40
3.0000000000000004
 50
90
 51
270
  0
ARC
  8
_0-0_0
  6
CONTINUOUS
 62
    7
 10
867.33294917680178
 20
1038.5148453356107
 40
3.0000000000000004
 50
90
 51
270
  0
ARC
  8
_0-0_0
  6
CONTINUOUS
 62
    7
 10
867.33294917680178
 20
1038.5148453356107
 40
3.0000000000000004
 50
90
 51
270
  0
ARC
  8
_0-0_0
  6
CONTINUOUS
 62
    7
 10
867.33294917680178
 20
1038.5148453356107
 40
3.0000000000000004
 50
90
 51
270
  0
ARC
  8
_0-0_0
  6
CONTINUOUS
 62
    7
 10
867.33294917680178
 20
1038.5148453356107
 40
3.0000000000000004
 50
90
 51
270
  0
ARC
  8
_0-0_0
  6
CONTINUOUS
 62
    7
 10
867.33294917680178
 20
1038.5148453356107
 40
3.0000000000000004
 50
90
 51
270
  0
ARC
  8
_0-0_0
  6
CONTINUOUS
 62
    7
 10
867.33294917680178
 20
1038.5148453356107
 40
3.0000000000000004
 50
90
 51
270
  0
ARC
  8
_0-0_0
  6
CONTINUOUS
 62
    7
 10
867.33294917680178
 20
1038.5148453356107
 40
3.0000000000000004
 50
90
 51
270
  0
ARC
  8
_0-0_0
  6
CONTINUOUS
 62
    7
 10
867.33294917680178
 20
1038.5148453356107
 40
3.0000000000000004
 50
90
 51
270
  0
ARC
  8
_0-0_0
  6
CONTINUOUS
 62
    7
 10
867.33294917680178
 20
1038.5148453356107
 40
3.0000000000000004
 50
90
 51
270
  0
ARC
  8
_0-0_0
  6
CONTINUOUS
 62
    7
 10
867.33294917680178
 20
1038.5148453356107
 40
3.0000000000000004
 50
90
 51
270
  0
ARC
  8
_0-0_0
  6
CONTINUOUS
 62
    7
 10
867.33294917680178
 20
1038.5148453356107
 40
3.0000000000000004
 50
90
 51
270
  0
ARC
  8
_0-0_0
  6
CONTINUOUS
 62
    7
 10
867.33294917680178
 20
1038.5148453356107
 40
3.0000000000000004
 50
90
 51
270
  0
ARC
  8
_0-0_0
  6
CONTINUOUS
 62
    7
 10
867.33294917680178
 20
1038.5148453356107
 40
3.0000000000000004
 50
90
 51
270
  0
ARC
  8
_0-0_0
  6
CONTINUOUS
 62
    7
 10
867.33294917680178
 20
1038.5148453356107
 40
3.0000000000000004
 50
90
 51
270
  0
ARC
  8
_0-0_0
  6
CONTINUOUS
 62
    7
 10
867.33294917680178
 20
1038.5148453356107
 40
3.0000000000000004
 50
90
 51
270
  0
ARC
  8
_0-0_0
  6
CONTINUOUS
 62
    7
 10
867.33294917680178
 20
1038.5148453356107
 40
3.0000000000000004
 50
90
 51
270
  0
ARC
  8
_0-0_0
  6
CONTINUOUS
 62
    7
 10
867.33294917680178
 20
1038.5148453356107
 40
3.0000000000000004
 50
90
 51
270
  0
ARC
  8
_0-0_0
  6
CONTINUOUS
 62
    7
 10
867.33294917680178
 20
1038.5148453356107
 40
3.0000000000000004
 50
90
 51
270
  0
ARC
  8
_0-0_0
  6
CONTINUOUS
 62
    7
 10
867.33294917680178
 20
1038.5148453356107
 40
3.0000000000000004
 50
90
 51
270
  0
ARC
  8
_0-0_0
  6
CONTINUOUS
 62
    7
 10
867.33294917680178
 20
1038.5148453356107
 40
3.0000000000000004
 50
90
 51
270
  0
ARC
  8
_0-0_0
  6
CONTINUOUS
 62
    7
 10
867.33294917680178
 20
1038.5148453356107
 40
3.0000000000000004
 50
90
 51
270
  0
ARC
  8
_0-0_0
  6
CONTINUOUS
 62
    7
 10
867.33294917680178
 20
1038.5148453356107
 40
3.0000000000000004
 50
90
 51
270
  0
ARC
  8
_0-0_0
  6
CONTINUOUS
 62
    7
 10
867.33294917680178
 20
1038.5148453356107
 40
3.0000000000000004
 50
90
 51
270
  0
ARC
  8
_0-0_0
  6
CONTINUOUS
 62
    7
 10
867.33294917680178
 20
1038.5148453356107
 40
3.0000000000000004
 50
90
 51
270
  0
ARC
  8
_0-0_0
  6
CONTINUOUS
 62
    7
 10
867.33294917680178
 20
1038.5148453356107
 40
3.0000000000000004
 50
90
 51
270
  0
ARC
  8
_0-0_0
  6
CONTINUOUS
 62
    7
 10
867.33294917680178
 20
1038.5148453356107
 40
3.0000000000000004
 50
90
 51
270
  0
ARC
  8
_0-0_0
  6
CONTINUOUS
 62
    7
 10
867.33294917680178
 20
1038.5148453356107
 40
3.0000000000000004
 50
90
 51
270
  0
ARC
  8
_0-0_0
  6
CONTINUOUS
 62
    7
 10
867.33294917680178
 20
1038.5148453356107
 40
3.0000000000000004
 50
90
 51
270
  0
ARC
  8
_0-0_0
  6
CONTINUOUS
 62
    7
 10
867.33294917680178
 20
1038.5148453356107
 40
3.0000000000000004
 50
90
 51
270
  0
ARC
  8
_0-0_0
  6
CONTINUOUS
 62
    7
 10
867.33294917680178
 20
1038.5148453356107
 40
3.0000000000000004
 50
90
 51
270
  0
ARC
  8
_0-0_0
  6
CONTINUOUS
 62
    7
 10
867.33294917680178
 20
1038.5148453356107
 40
3.0000000000000004
 50
90
 51
270
  0
ARC
  8
_0-0_0
  6
CONTINUOUS
 62
    7
 10
867.33294917680178
 20
1038.5148453356107
 40
3.0000000000000004
 50
90
 51
270
  0
ARC
  8
_0-0_0
  6
CONTINUOUS
 62
    7
 10
867.33294917680178
 20
1038.5148453356107
 40
3.0000000000000004
 50
90
 51
270
  0
ARC
  8
_0-0_0
  6
CONTINUOUS
 62
    7
 10
885.31743098832533
 20
554.56765600455606
 40
3.0000000000000004
 50
270
 51
90
  0
ARC
  8
_0-0_0
  6
CONTINUOUS
 62
    7
 10
885.31743098832533
 20
554.56765600455606
 40
3.0000000000000004
 50
270
 51
90
  0
ARC
  8
_0-0_0
  6
CONTINUOUS
 62
    7
 10
883.81948758698866
 20
988.91612097037648
 40
31.302976608276367
 50
133.07456970214847
 51
150.32148742675784
  0
ARC
  8
_0-0_0
  6
CONTINUOUS
 62
    7
 10
883.81948758698866
 20
988.91612097037648
 40
31.302976608276367
 50
133.07456970214847
 51
150.32148742675784
  0
ARC
  8
_0-0_0
  6
CONTINUOUS
 62
    7
 10
884.85837413407717
 20
991.09049841178273
 40
31.221622467041019
 50
154.73666381835937
 51
178.03031921386719
  0
ARC
  8
_0-0_0
  6
CONTINUOUS
 62
    7
 10
884.85837413407717
 20
991.09049841178273
 40
31.221622467041019
 50
154.73666381835937
 51
178.03031921386719
  0
ARC
  8
_0-0_0
  6
CONTINUOUS
 62
    7
 10
875.72782059050962
 20
996.10386511100148
 40
20.834493637084961
 50
156.48908996582034
 51
187.19744873046878
  0
ARC
  8
_0-0_0
  6
CONTINUOUS
 62
    7
 10
877.49235071278974
 20
996.85813757193898
 40
15.666496276855471
 50
149.36177062988281
 51
163.73574829101562
  0
ARC
  8
_0-0_0
  6
CONTINUOUS
 62
    7
 10
176.95746566392344
 20
1558.6011795641264
 40
882.33477783203125
 50
321.22349548339844
 51
321.5101318359375
  0
ARC
  8
_0-0_0
  6
CONTINUOUS
 62
    7
 10
813.48957015611086
 20
1031.0608658434235
 40
69.010635375976563
 50
341.81423950195318
 51
358.92053222656256
  0
ARC
  8
_0-0_0
  6
CONTINUOUS
 62
    7
 10
176.95746566392344
 20
1558.6011795641264
 40
882.33477783203125
 50
321.22349548339844
 51
321.5101318359375
  0
ARC
  8
_0-0_0
  6
CONTINUOUS
 62
    7
 10
809.55944015122805
 20
1044.0226883531889
 40
68.026260375976562
 50
312.70909118652344
 51
323.67642211914062
  0
ARC
  8
_0-0_0
  6
CONTINUOUS
 62
    7
 10
871.00753785706934
 20
975.27125402701711
 40
24.216836929321293
 50
129.205322265625
 51
179.36845397949216
  0
ARC
  8
_0-0_0
  6
CONTINUOUS
 62
    7
 10
859.83203078843519
 20
976.12919470084523
 40
13.053248405456543
 50
182.59507751464844
 51
233.40019226074222
  0
ARC
  8
_0-0_0
  6
CONTINUOUS
 62
    7
 10
863.38458110429212
 20
975.76171728385305
 40
13.912073135375977
 50
151.43582153320312
 51
218.74951171875
  0
ARC
  8
_0-0_0
  6
CONTINUOUS
 62
    7
 10
875.00220765210554
 20
968.52403112662637
 40
27.587940216064453
 50
127.97381591796876
 51
149.77027893066409
  0
ARC
  8
_0-0_0
  6
CONTINUOUS
 62
    7
 10
438.31903792954847
 20
1398.4989456774076
 40
585.495361328125
 50
315.79444885253906
 51
317.77290344238281
  0
ARC
  8
_0-0_0
  6
CONTINUOUS
 62
    7
 10
866.9022746238843
 20
977.62296911490785
 40
10.982366561889648
 50
139.84176635742187
 51
199.76731872558591
  0
ARC
  8
_0-0_0
  6
CONTINUOUS
 62
    7
 10
871.96393872834608
 20
990.81962438834523
 40
17.278249740600586
 50
209.66632080078128
 51
227.56355285644534
  0
ARC
  8
_0-0_0
  6
CONTINUOUS
 62
    7
 10
887.99866344071791
 20
1014.455305540689
 40
41.740993499755859
 50
229.21586608886719
 51
233.66329956054687
  0
ARC
  8
_0-0_0
  6
CONTINUOUS
 62
    7
 10
1244.5194468650952
 20
641.99691625846242
 40
516.19134521484375
 50
136.47129821777344
 51
138.400634765625
  0
ARC
  8
_0-0_0
  6
CONTINUOUS
 62
    7
 10
877.49235071278974
 20
996.85813757193898
 40
15.666496276855471
 50
205.57809448242187
 51
232.37185668945312
  0
ARC
  8
_0-0_0
  6
CONTINUOUS
 62
    7
 10
887.99866344071791
 20
1014.455305540689
 40
41.740993499755859
 50
229.21586608886719
 51
233.66329956054687
  0
ARC
  8
_0-0_0
  6
CONTINUOUS
 62
    7
 10
899.88009025193617
 20
1015.8449234606109
 40
31.370639801025391
 50
210.61053466796875
 51
231.23175048828125
  0
ARC
  8
_0-0_0
  6
CONTINUOUS
 62
    7
 10
903.40983916856214
 20
1014.3988785387359
 40
32.185512542724609
 50
204.2740173339844
 51
225.02070617675784
  0
ARC
  8
_0-0_0
  6
CONTINUOUS
 62
    7
 10
903.60547591782972
 20
1015.0047134996732
 40
25.807916641235352
 50
194.62838745117187
 51
229.07182312011719
  0
ARC
  8
_0-0_0
  6
CONTINUOUS
 62
    7
 10
852.68661452866945
 20
1019.5842423082671
 40
28.220991134643558
 50
308.52854919433594
 51
339.11306762695312
  0
ARC
  8
_0-0_0
  6
CONTINUOUS
 62
    7
 10
913.11024428941187
 20
1032.301527464517
 40
40.170581817626953
 50
212.86138916015625
 51
230.35350036621094
  0
ARC
  8
_0-0_0
  6
CONTINUOUS
 62
    7
 10
903.40983916856214
 20
1014.3988785387359
 40
32.185512542724609
 50
204.2740173339844
 51
225.02070617675784
  0
ARC
  8
_0-0_0
  6
CONTINUOUS
 62
    7
 10
913.11024428941187
 20
1032.301527464517
 40
40.170581817626953
 50
212.86138916015625
 51
230.35350036621094
  0
ARC
  8
_0-0_0
  6
CONTINUOUS
 62
    7
 10
913.11024428941187
 20
1032.301527464517
 40
40.170581817626953
 50
212.86138916015625
 51
230.35350036621094
  0
ARC
  8
_0-0_0
  6
CONTINUOUS
 62
    7
 10
903.60547591782972
 20
1015.0047134996732
 40
25.807916641235352
 50
194.62838745117187
 51
229.07182312011719
  0
ARC
  8
_0-0_0
  6
CONTINUOUS
 62
    7
 10
903.60547591782972
 20
1015.0047134996732
 40
25.807916641235352
 50
194.62838745117187
 51
229.07182312011719
  0
ARC
  8
_0-0_0
  6
CONTINUOUS
 62
    7
 10
809.55944015122805
 20
1044.0226883531889
 40
68.026260375976562
 50
312.70909118652344
 51
323.67642211914062
  0
ARC
  8
_0-0_0
  6
CONTINUOUS
 62
    7
 10
438.31903792954847
 20
1398.4989456774076
 40
585.495361328125
 50
315.79444885253906
 51
317.77290344238281
  0
ARC
  8
_0-0_0
  6
CONTINUOUS
 62
    7
 10
884.28214122392103
 20
997.22675939811086
 40
10.961838722229004
 50
309.2052001953125
 51
39.493545532226548
  0
ARC
  8
_0-0_0
  6
CONTINUOUS
 62
    7
 10
884.28214122392103
 20
997.22675939811086
 40
10.961838722229004
 50
309.2052001953125
 51
39.493545532226548
  0
ARC
  8
_0-0_0
  6
CONTINUOUS
 62
    7
 10
885.77222682572767
 20
1000.5613846422514
 40
7.8610548973083505
 50
298.85540771484375
 51
43.313812255859368
  0
ARC
  8
_0-0_0
  6
CONTINUOUS
 62
    7
 10
884.78396083451673
 20
999.87074133170449
 40
4.743873119354248
 50
295.11337280273437
 51
46.522674560546868
  0
ARC
  8
_0-0_0
  6
CONTINUOUS
 62
    7
 10
913.11024428941187
 20
1032.301527464517
 40
40.170581817626953
 50
212.86138916015625
 51
230.35350036621094
  0
ARC
  8
_0-0_0
  6
CONTINUOUS
 62
    7
 10
939.79075576402113
 20
1044.9429764391264
 40
62.071784973144531
 50
207.616943359375
 51
218.91201782226562
  0
ARC
  8
_0-0_0
  6
CONTINUOUS
 62
    7
 10
927.05679275132582
 20
1036.7521195055326
 40
51.445587158203132
 50
205.30548095703125
 51
219.17808532714847
  0
ARC
  8
_0-0_0
  6
CONTINUOUS
 62
    7
 10
835.37235213853273
 20
1068.8716568590482
 40
89.537010192871094
 50
295.38482666015625
 51
305.05361938476568
  0
ARC
  8
_0-0_0
  6
CONTINUOUS
 62
    7
 10
835.37235213853273
 20
1068.8716568590482
 40
89.537010192871094
 50
295.38482666015625
 51
305.05361938476568
  0
ARC
  8
_0-0_0
  6
CONTINUOUS
 62
    7
 10
899.23176337815687
 20
939.3229355455718
 40
54.922252655029304
 50
117.63529968261719
 51
143.40162658691406
  0
ARC
  8
_0-0_0
  6
CONTINUOUS
 62
    7
 10
900.42260886765894
 20
928.11025854361878
 40
63.00506591796875
 50
113.95643615722658
 51
131.79893493652344
  0
ARC
  8
_0-0_0
  6
CONTINUOUS
 62
    7
 10
858.35601760484133
 20
1033.6406998277982
 40
50.707099914550788
 50
288.97042846679687
 51
307.98786926269531
  0
ARC
  8
_0-0_0
  6
CONTINUOUS
 62
    7
 10
868.07559157945082
 20
1014.9771866442046
 40
34.986194610595703
 50
287.59565734863281
 51
311.39724731445312
  0
ARC
  8
_0-0_0
  6
CONTINUOUS
 62
    7
 10
911.34240676499769
 20
1026.8433365465485
 40
58.975048065185547
 50
232.60946655273443
 51
246.79859924316409
  0
ARC
  8
_0-0_0
  6
CONTINUOUS
 62
    7
 10
938.23765517808374
 20
1081.7141861559232
 40
125.30206298828126
 50
236.99057006835943
 51
243.46369934082034
  0
ARC
  8
_0-0_0
  6
CONTINUOUS
 62
    7
 10
937.18889571763441
 20
1096.7668289781889
 40
141.55174255371094
 50
240.00325012207031
 51
245.77740478515625
  0
ARC
  8
_0-0_0
  6
CONTINUOUS
 62
    7
 10
916.88371993638441
 20
905.11327978385316
 40
85.534599304199219
 50
116.54980468749999
 51
129.04499816894528
  0
ARC
  8
_0-0_0
  6
CONTINUOUS
 62
    7
 10
887.93438006974623
 20
997.27464147818887
 40
39.681041717529297
 50
225.858642578125
 51
244.71832275390625
  0
ARC
  8
_0-0_0
  6
CONTINUOUS
 62
    7
 10
872.48306967355177
 20
962.18252416861878
 40
14.088919639587402
 50
157.50204467773437
 51
230.21925354003906
  0
ARC
  8
_0-0_0
  6
CONTINUOUS
 62
    7
 10
872.10449172593508
 20
959.87634130729043
 40
14.797623634338379
 50
127.95718383789062
 51
227.4749450683594
  0
ARC
  8
_0-0_0
  6
CONTINUOUS
 62
    7
 10
870.44662477113184
 20
960.0772080065093
 40
19.222690582275391
 50
128.69699096679687
 51
238.37063598632815
  0
ARC
  8
_0-0_0
  6
CONTINUOUS
 62
    7
 10
907.11219550706323
 20
1039.4904007555326
 40
91.880096435546875
 50
237.98806762695315
 51
244.25785827636719
  0
ARC
  8
_0-0_0
  6
CONTINUOUS
 62
    7
 10
907.11219550706323
 20
1039.4904007555326
 40
91.880096435546875
 50
237.98806762695315
 51
244.25785827636719
  0
ARC
  8
_0-0_0
  6
CONTINUOUS
 62
    7
 10
907.11219550706323
 20
1039.4904007555326
 40
91.880096435546875
 50
237.98806762695315
 51
244.25785827636719
  0
ARC
  8
_0-0_0
  6
CONTINUOUS
 62
    7
 10
907.88786079026625
 20
924.43899389518128
 40
51.938274383544929
 50
114.39483642578126
 51
151.13822937011719
  0
ARC
  8
_0-0_0
  6
CONTINUOUS
 62
    7
 10
922.79811812974367
 20
895.59725805533742
 40
76.210517883300781
 50
118.29203796386719
 51
130.96603393554687
  0
ARC
  8
_0-0_0
  6
CONTINUOUS
 62
    7
 10
830.00597335435316
 20
1068.8180069567045
 40
116.72747802734376
 50
297.54637145996099
 51
307.98368835449224
  0
ARC
  8
_0-0_0
  6
CONTINUOUS
 62
    7
 10
830.00597335435316
 20
1068.8180069567045
 40
116.72747802734376
 50
297.54637145996099
 51
307.98368835449224
  0
ARC
  8
_0-0_0
  6
CONTINUOUS
 62
    7
 10
735.29907943345484
 20
724.07314964545571
 40
302.82089233398437
 50
57.701141357421875
 51
59.829406738281257
  0
ARC
  8
_0-0_0
  6
CONTINUOUS
 62
    7
 10
735.29907943345484
 20
724.07314964545571
 40
302.82089233398437
 50
57.701141357421875
 51
59.829406738281257
  0
ARC
  8
_0-0_0
  6
CONTINUOUS
 62
    7
 10
830.00597335435316
 20
1068.8180069567045
 40
116.72747802734376
 50
297.54637145996099
 51
307.98368835449224
  0
ARC
  8
_0-0_0
  6
CONTINUOUS
 62
    7
 10
861.81638194657717
 20
1019.6114639879545
 40
53.831111907958984
 50
297.21638488769531
 51
305.76362609863281
  0
ARC
  8
_0-0_0
  6
CONTINUOUS
 62
    7
 10
920.20909453965589
 20
1034.525892698892
 40
57.917675018310547
 50
238.33686828613284
 51
245.57524108886722
  0
ARC
  8
_0-0_0
  6
CONTINUOUS
 62
    7
 10
894.28059150315687
 20
976.02918859732972
 40
11.648541450500488
 50
38.401580810546875
 51
72.870529174804688
  0
ARC
  8
_0-0_0
  6
CONTINUOUS
 62
    7
 10
899.23714591599855
 20
980.86239477408742
 40
4.8144311904907227
 50
302.78900146484375
 51
29.935363769531254
  0
ARC
  8
_0-0_0
  6
CONTINUOUS
 62
    7
 10
896.32697249986097
 20
975.60697790397035
 40
10.07009220123291
 50
14.639999389648439
 51
19.5450439453125
  0
ARC
  8
_0-0_0
  6
CONTINUOUS
 62
    7
 10
896.48106719590589
 20
980.31478735221242
 40
10.22463321685791
 50
295.49058532714844
 51
318.70634460449219
  0
ARC
  8
_0-0_0
  6
CONTINUOUS
 62
    7
 10
841.462844387068
 20
1055.5564713121732
 40
103.27591705322266
 50
295.96353149414062
 51
305.123291015625
  0
ARC
  8
_0-0_0
  6
CONTINUOUS
 62
    7
 10
841.462844387068
 20
1055.5564713121732
 40
103.27591705322266
 50
295.96353149414062
 51
305.123291015625
  0
ARC
  8
_0-0_0
  6
CONTINUOUS
 62
    7
 10
922.79811812974367
 20
895.59725805533742
 40
76.210517883300781
 50
118.29203796386719
 51
130.96603393554687
  0
ARC
  8
_0-0_0
  6
CONTINUOUS
 62
    7
 10
837.99398757554457
 20
875.31616064322805
 40
90.949851989746108
 50
57.60076904296875
 51
64.051956176757813
  0
ARC
  8
_0-0_0
  6
CONTINUOUS
 62
    7
 10
857.81949569322035
 20
917.89483495963418
 40
38.502658843994141
 50
49.73902893066407
 51
66.790939331054688
  0
ARC
  8
_0-0_0
  6
CONTINUOUS
 62
    7
 10
857.81949569322035
 20
917.89483495963418
 40
38.502658843994141
 50
49.73902893066407
 51
66.790939331054688
  0
ARC
  8
_0-0_0
  6
CONTINUOUS
 62
    7
 10
911.71462585069105
 20
927.1423172594391
 40
35.311500549316406
 50
124.73155212402345
 51
173.28215026855472
  0
ARC
  8
_0-0_0
  6
CONTINUOUS
 62
    7
 10
861.7751231346266
 20
927.85738989127492
 40
27.196699142456055
 50
42.170242309570312
 51
66.787155151367187
  0
ARC
  8
_0-0_0
  6
CONTINUOUS
 62
    7
 10
850.50277663804445
 20
921.29073950064992
 40
31.214588165283207
 50
29.393341064453129
 51
55.088409423828125
  0
ARC
  8
_0-0_0
  6
CONTINUOUS
 62
    7
 10
882.56614972688124
 20
941.47280737174367
 40
15.196436882019045
 50
129.82518005371094
 51
201.44970703125
  0
ARC
  8
_0-0_0
  6
CONTINUOUS
 62
    7
 10
910.64984084702905
 20
915.90786596549367
 40
56.148876190185547
 50
118.34844970703124
 51
145.29972839355469
  0
ARC
  8
_0-0_0
  6
CONTINUOUS
 62
    7
 10
875.42495258189604
 20
938.83120580924367
 40
14.190550804138184
 50
140.42167663574219
 51
220.89064025878906
  0
ARC
  8
_0-0_0
  6
CONTINUOUS
 62
    7
 10
875.42495258189604
 20
938.83120580924367
 40
14.190550804138184
 50
140.42167663574219
 51
220.89064025878906
  0
ARC
  8
_0-0_0
  6
CONTINUOUS
 62
    7
 10
834.85114242173597
 20
910.19018408072816
 40
35.703670501708984
 50
6.61053466796875
 51
29.880752563476559
  0
ARC
  8
_0-0_0
  6
CONTINUOUS
 62
    7
 10
834.85114242173597
 20
910.19018408072816
 40
35.703670501708984
 50
6.61053466796875
 51
29.880752563476559
  0
ARC
  8
_0-0_0
  6
CONTINUOUS
 62
    7
 10
834.85114242173597
 20
910.19018408072816
 40
35.703670501708984
 50
6.61053466796875
 51
29.880752563476559
  0
ARC
  8
_0-0_0
  6
CONTINUOUS
 62
    7
 10
834.85114242173597
 20
910.19018408072816
 40
35.703670501708984
 50
6.61053466796875
 51
29.880752563476559
  0
ARC
  8
_0-0_0
  6
CONTINUOUS
 62
    7
 10
834.85114242173597
 20
910.19018408072816
 40
35.703670501708984
 50
6.61053466796875
 51
29.880752563476559
  0
ARC
  8
_0-0_0
  6
CONTINUOUS
 62
    7
 10
834.85114242173597
 20
910.19018408072816
 40
35.703670501708984
 50
6.61053466796875
 51
29.880752563476559
  0
ARC
  8
_0-0_0
  6
CONTINUOUS
 62
    7
 10
834.85114242173597
 20
910.19018408072816
 40
35.703670501708984
 50
6.61053466796875
 51
29.880752563476559
  0
ARC
  8
_0-0_0
  6
CONTINUOUS
 62
    7
 10
834.85114242173597
 20
910.19018408072816
 40
35.703670501708984
 50
6.61053466796875
 51
29.880752563476559
  0
ARC
  8
_0-0_0
  6
CONTINUOUS
 62
    7
 10
834.85114242173597
 20
910.19018408072816
 40
35.703670501708984
 50
6.61053466796875
 51
29.880752563476559
  0
ARC
  8
_0-0_0
  6
CONTINUOUS
 62
    7
 10
834.85114242173597
 20
910.19018408072816
 40
35.703670501708984
 50
6.61053466796875
 51
29.880752563476559
  0
ARC
  8
_0-0_0
  6
CONTINUOUS
 62
    7
 10
834.85114242173597
 20
910.19018408072816
 40
35.703670501708984
 50
6.61053466796875
 51
29.880752563476559
  0
ARC
  8
_0-0_0
  6
CONTINUOUS
 62
    7
 10
890.29550792313989
 20
959.49899145377481
 40
10.246707916259766
 50
309.32164001464849
 51
25.328033447265678
  0
ARC
  8
_0-0_0
  6
CONTINUOUS
 62
    7
 10
891.51883555985842
 20
960.13955541861856
 40
3.5106959342956543
 50
322.68467712402344
 51
41.694335937500014
  0
ARC
  8
_0-0_0
  6
CONTINUOUS
 62
    7
 10
874.03788258172438
 20
984.85645910514211
 40
33.640106201171875
 50
301.4635009765625
 51
307.05958557128906
  0
ARC
  8
_0-0_0
  6
CONTINUOUS
 62
    7
 10
892.31019355393812
 20
958.90743871939992
 40
2.1922409534454346
 50
335.87347412109381
 51
65.554473876953196
  0
ARC
  8
_0-0_0
  6
CONTINUOUS
 62
    7
 10
883.62902785874769
 20
989.34211584342336
 40
16.521247863769531
 50
305.7330322265625
 51
322.91453552246094
  0
ARC
  8
_0-0_0
  6
CONTINUOUS
 62
    7
 10
895.52725364304945
 20
980.35664221061086
 40
1.6113159656524658
 50
322.67790222167969
 51
62.941146850585959
  0
ARC
  8
_0-0_0
  6
CONTINUOUS
 62
    7
 10
918.84816695786878
 20
1026.2064346910797
 40
44.399368286132812
 50
234.01631164550781
 51
241.57168579101562
  0
ARC
  8
_0-0_0
  6
CONTINUOUS
 62
    7
 10
920.20909453965589
 20
1034.525892698892
 40
57.917675018310547
 50
238.33686828613284
 51
245.57524108886722
  0
ARC
  8
_0-0_0
  6
CONTINUOUS
 62
    7
 10
903.40983916856214
 20
1014.3988785387359
 40
32.185512542724609
 50
241.26863098144531
 51
244.9981689453125
  0
ARC
  8
_0-0_0
  6
CONTINUOUS
 62
    7
 10
903.60547591782972
 20
1015.0047134996732
 40
25.807916641235352
 50
194.62838745117187
 51
229.07182312011719
  0
ARC
  8
_0-0_0
  6
CONTINUOUS
 62
    7
 10
885.88799525834486
 20
998.02772375357961
 40
3.7021670341491704
 50
15.678558349609379
 51
64.540603637695312
  0
ARC
  8
_0-0_0
  6
CONTINUOUS
 62
    7
 10
913.11024428941187
 20
1032.301527464517
 40
40.170581817626953
 50
212.86138916015625
 51
230.35350036621094
  0
ARC
  8
_0-0_0
  6
CONTINUOUS
 62
    7
 10
939.79075576402113
 20
1044.9429764391264
 40
62.071784973144531
 50
207.616943359375
 51
218.91201782226562
  0
ARC
  8
_0-0_0
  6
CONTINUOUS
 62
    7
 10
884.28214122392103
 20
997.22675939811086
 40
10.961838722229004
 50
309.2052001953125
 51
39.493545532226548
  0
ARC
  8
_0-0_0
  6
CONTINUOUS
 62
    7
 10
892.74605704881105
 20
974.42594763053285
 40
13.840044021606445
 50
19.193115234375004
 51
38.908554077148445
  0
ARC
  8
_0-0_0
  6
CONTINUOUS
 62
    7
 10
894.49540473557875
 20
981.95101782096242
 40
12.796571731567383
 50
319.06907653808594
 51
332.27850341796875
  0
ARC
  8
_0-0_0
  6
CONTINUOUS
 62
    7
 10
896.32697249986097
 20
975.60697790397035
 40
10.07009220123291
 50
14.639999389648439
 51
19.5450439453125
  0
ARC
  8
_0-0_0
  6
CONTINUOUS
 62
    7
 10
876.97420860864088
 20
946.23623510611867
 40
28.659826278686523
 50
38.00396728515625
 51
48.733428955078125
  0
ARC
  8
_0-0_0
  6
CONTINUOUS
 62
    7
 10
894.92874862290796
 20
1010.569593870767
 40
10
 50
219.17808532714847
 51
226.52261352539065
  0
ARC
  8
_0-0_0
  6
CONTINUOUS
 62
    7
 10
872.61688162423536
 20
999.74586340201711
 40
10
 50
141.22344970703125
 51
149.3617248535156
  0
ARC
  8
_0-0_0
  6
CONTINUOUS
 62
    7
 10
870.3524017486709
 20
994.64341589225137
 40
15.218968391418457
 50
219.86578369140625
 51
230.79724121093753
  0
ARC
  8
_0-0_0
  6
CONTINUOUS
 62
    7
 10
903.16751815415785
 20
977.39390417350148
 40
3.0000000000000004
 50
332.27853393554687
 51
14.640090942382836
  0
ARC
  8
_0-0_0
  6
CONTINUOUS
 62
    7
 10
897.76605369187769
 20
1020.9739517809232
 40
70.681266784667969
 50
236.14930725097656
 51
244.64933776855469
  0
ARC
  8
_0-0_0
  6
CONTINUOUS
 62
    7
 10
870.72887374497805
 20
961.00210424674378
 40
19.118410110473633
 50
144.63436889648437
 51
158.27793884277344
  0
ARC
  8
_0-0_0
  6
CONTINUOUS
 62
    7
 10
917.37285186387464
 20
916.49532934439992
 40
40.670570373535156
 50
120.40585327148436
 51
161.99641418457031
  0
ARC
  8
_0-0_0
  6
CONTINUOUS
 62
    7
 10
929.23120833970472
 20
938.66702123893117
 40
34.104747772216797
 50
154.77513122558597
 51
167.94879150390625
  0
ARC
  8
_0-0_0
  6
CONTINUOUS
 62
    7
 10
919.1534075889723
 20
914.56582494986856
 40
38.254444122314453
 50
128.90858459472656
 51
153.97665405273437
  0
ARC
  8
_0-0_0
  6
CONTINUOUS
 62
    7
 10
892.79097892381117
 20
946.46176000846242
 40
3.1598520278930664
 50
317.65887451171875
 51
347.68110656738281
  0
ARC
  8
_0-0_0
  6
CONTINUOUS
 62
    7
 10
950.52960921861097
 20
921.3735947252593
 40
74.544303894042969
 50
172.36859130859375
 51
187.24095153808594
  0
ARC
  8
_0-0_0
  6
CONTINUOUS
 62
    7
 10
877.72962464429293
 20
939.57253881705606
 40
10
 50
201.44970703125003
 51
211.10632324218753
  0
ARC
  8
_0-0_0
  6
CONTINUOUS
 62
    7
 10
857.13785697556898
 20
922.99566503775941
 40
10
 50
29.8807373046875
 51
40.890625000000007
  0
ARC
  8
_0-0_0
  6
CONTINUOUS
 62
    7
 10
917.29088164903089
 20
912.18783422721242
 40
34.790569305419922
 50
140.07823181152344
 51
168.27577209472656
  0
ARC
  8
_0-0_0
  6
CONTINUOUS
 62
    7
 10
947.36344100572046
 20
908.21435400260293
 40
65.081024169921875
 50
170.23075866699219
 51
178.12057495117187
  0
ARC
  8
_0-0_0
  6
CONTINUOUS
 62
    7
 10
882.23572875596449
 20
941.83267065299356
 40
11.120863914489746
 50
318.84707641601562
 51
4.8695068359375178
  0
ARC
  8
_0-0_0
  6
CONTINUOUS
 62
    7
 10
893.76353789903089
 20
926.9620957018218
 40
10
 50
153.97665405273437
 51
170.14556884765625
  0
ARC
  8
_0-0_0
  6
CONTINUOUS
 62
    7
 10
888.2040028724806
 20
925.97488256705617
 40
10
 50
161.99644470214844
 51
170.77713012695312
  0
ARC
  8
_0-0_0
  6
CONTINUOUS
 62
    7
 10
842.68226577378664
 20
919.98419042838441
 40
34.392318725585937
 50
12.655181884765625
 51
43.712890625
  0
ARC
  8
_0-0_0
  6
CONTINUOUS
 62
    7
 10
876.71220658756647
 20
941.23055883658731
 40
16.533340454101563
 50
149.95086669921878
 51
213.64706420898437
  0
ARC
  8
_0-0_0
  6
CONTINUOUS
 62
    7
 10
885.54159404374536
 20
954.76281591666543
 40
11.550354957580566
 50
41.887939453125007
 51
61.410934448242202
  0
ARC
  8
_0-0_0
  6
CONTINUOUS
 62
    7
 10
873.91829253770288
 20
935.78402563346242
 40
31.676914215087891
 50
52.464813232421875
 51
61.814102172851563
  0
ARC
  8
_0-0_0
  6
CONTINUOUS
 62
    7
 10
837.28224135972425
 20
1033.926039183267
 40
45.086666107177741
 50
320.09890747070312
 51
356.93440246582031
  0
ARC
  8
_0-0_0
  6
CONTINUOUS
 62
    7
 10
953.75396682359133
 20
1034.8456864000639
 40
71.44720458984375
 50
182.67205810546878
 51
195.15339660644534
  0
ARC
  8
_0-0_0
  6
CONTINUOUS
 62
    7
 10
829.70861007310316
 20
1036.6356033922514
 40
46.612133026123047
 50
324.33291625976562
 51
353.69281005859375
  0
ARC
  8
_0-0_0
  6
CONTINUOUS
 62
    7
 10
827.32985641099378
 20
1035.791761839517
 40
48.988430023193359
 50
319.116455078125
 51
354.99142456054687
  0
ARC
  8
_0-0_0
  6
CONTINUOUS
 62
    7
 10
833.77786971665785
 20
1034.4987320543607
 40
36.573757171630859
 50
321.60163879394531
 51
355.32028198242187
  0
ARC
  8
_0-0_0
  6
CONTINUOUS
 62
    7
 10
1036.390433803572
 20
901.91317602408742
 40
160.12724304199222
 50
170.77711486816409
 51
177.07653808593753
  0
ARC
  8
_0-0_0
  6
CONTINUOUS
 62
    7
 10
826.24308730698988
 20
908.50610204947793
 40
50.133087158203125
 50
1.7989807128906252
 51
31.106353759765629
  0
ARC
  8
_0-0_0
  6
CONTINUOUS
 62
    7
 10
826.24308730698988
 20
908.50610204947793
 40
50.133087158203125
 50
1.7989807128906252
 51
31.106353759765629
  0
ARC
  8
_0-0_0
  6
CONTINUOUS
 62
    7
 10
826.24308730698988
 20
908.50610204947793
 40
50.133087158203125
 50
1.7989807128906252
 51
31.106353759765629
  0
ARC
  8
_0-0_0
  6
CONTINUOUS
 62
    7
 10
826.24308730698988
 20
908.50610204947793
 40
50.133087158203125
 50
1.7989807128906252
 51
31.106353759765629
  0
ARC
  8
_0-0_0
  6
CONTINUOUS
 62
    7
 10
826.24308730698988
 20
908.50610204947793
 40
50.133087158203125
 50
1.7989807128906252
 51
31.106353759765629
  0
ARC
  8
_0-0_0
  6
CONTINUOUS
 62
    7
 10
826.24308730698988
 20
908.50610204947793
 40
50.133087158203125
 50
1.7989807128906252
 51
31.106353759765629
  0
ARC
  8
_0-0_0
  6
CONTINUOUS
 62
    7
 10
826.24308730698988
 20
908.50610204947793
 40
50.133087158203125
 50
1.7989807128906252
 51
31.106353759765629
  0
ARC
  8
_0-0_0
  6
CONTINUOUS
 62
    7
 10
826.24308730698988
 20
908.50610204947793
 40
50.133087158203125
 50
1.7989807128906252
 51
31.106353759765629
  0
ARC
  8
_0-0_0
  6
CONTINUOUS
 62
    7
 10
826.24308730698988
 20
908.50610204947793
 40
50.133087158203125
 50
1.7989807128906252
 51
31.106353759765629
  0
ARC
  8
_0-0_0
  6
CONTINUOUS
 62
    7
 10
826.24308730698988
 20
908.50610204947793
 40
50.133087158203125
 50
1.7989807128906252
 51
31.106353759765629
  0
ARC
  8
_0-0_0
  6
CONTINUOUS
 62
    7
 10
826.24308730698988
 20
908.50610204947793
 40
50.133087158203125
 50
1.7989807128906252
 51
31.106353759765629
  0
ARC
  8
_0-0_0
  6
CONTINUOUS
 62
    7
 10
826.24308730698988
 20
908.50610204947793
 40
50.133087158203125
 50
1.7989807128906252
 51
31.106353759765629
  0
ARC
  8
_0-0_0
  6
CONTINUOUS
 62
    7
 10
826.24308730698988
 20
908.50610204947793
 40
50.133087158203125
 50
1.7989807128906252
 51
31.106353759765629
  0
ARC
  8
_0-0_0
  6
CONTINUOUS
 62
    7
 10
826.24308730698988
 20
908.50610204947793
 40
50.133087158203125
 50
1.7989807128906252
 51
31.106353759765629
  0
ARC
  8
_0-0_0
  6
CONTINUOUS
 62
    7
 10
826.24308730698988
 20
908.50610204947793
 40
50.133087158203125
 50
1.7989807128906252
 51
31.106353759765629
  0
ARC
  8
_0-0_0
  6
CONTINUOUS
 62
    7
 10
826.24308730698988
 20
908.50610204947793
 40
50.133087158203125
 50
1.7989807128906252
 51
31.106353759765629
  0
ARC
  8
_0-0_0
  6
CONTINUOUS
 62
    7
 10
826.24308730698988
 20
908.50610204947793
 40
50.133087158203125
 50
1.7989807128906252
 51
31.106353759765629
  0
ARC
  8
_0-0_0
  6
CONTINUOUS
 62
    7
 10
826.24308730698988
 20
908.50610204947793
 40
50.133087158203125
 50
1.7989807128906252
 51
31.106353759765629
  0
ARC
  8
_0-0_0
  6
CONTINUOUS
 62
    7
 10
826.24308730698988
 20
908.50610204947793
 40
50.133087158203125
 50
1.7989807128906252
 51
31.106353759765629
  0
ARC
  8
_0-0_0
  6
CONTINUOUS
 62
    7
 10
826.24308730698988
 20
908.50610204947793
 40
50.133087158203125
 50
1.7989807128906252
 51
31.106353759765629
  0
ARC
  8
_0-0_0
  6
CONTINUOUS
 62
    7
 10
826.24308730698988
 20
908.50610204947793
 40
50.133087158203125
 50
1.7989807128906252
 51
31.106353759765629
  0
ARC
  8
_0-0_0
  6
CONTINUOUS
 62
    7
 10
993.94991256333753
 20
909.5588974596343
 40
111.68669891357423
 50
170.14558410644531
 51
179.73269653320312
  0
ARC
  8
_0-0_0
  6
CONTINUOUS
 62
    7
 10
883.82943870164331
 20
507.58866735709518
 40
31.302976608276367
 50
133.07456970214847
 51
150.32148742675784
  0
ARC
  8
_0-0_0
  6
CONTINUOUS
 62
    7
 10
883.82943870164331
 20
507.58866735709518
 40
31.302976608276367
 50
133.07456970214847
 51
150.32148742675784
  0
ARC
  8
_0-0_0
  6
CONTINUOUS
 62
    7
 10
884.86832477189466
 20
509.76306005729049
 40
31.221622467041019
 50
154.73666381835937
 51
178.03031921386719
  0
ARC
  8
_0-0_0
  6
CONTINUOUS
 62
    7
 10
884.86832477189466
 20
509.76306005729049
 40
31.221622467041019
 50
154.73666381835937
 51
178.03031921386719
  0
ARC
  8
_0-0_0
  6
CONTINUOUS
 62
    7
 10
875.73777158595487
 20
514.7764267565093
 40
20.834493637084961
 50
156.48908996582034
 51
187.19744873046878
  0
ARC
  8
_0-0_0
  6
CONTINUOUS
 62
    7
 10
877.502301708235
 20
515.5306992174468
 40
15.666496276855471
 50
149.36177062988281
 51
163.73574829101562
  0
ARC
  8
_0-0_0
  6
CONTINUOUS
 62
    7
 10
176.96741439439222
 20
1077.2736649156889
 40
882.33477783203125
 50
321.22349548339844
 51
321.5101318359375
  0
ARC
  8
_0-0_0
  6
CONTINUOUS
 62
    7
 10
176.96741439439222
 20
1077.2736649156889
 40
882.33477783203125
 50
321.22349548339844
 51
321.5101318359375
  0
ARC
  8
_0-0_0
  6
CONTINUOUS
 62
    7
 10
809.56938888169691
 20
562.69524999869668
 40
68.026260375976562
 50
312.70909118652344
 51
323.67642211914062
  0
ARC
  8
_0-0_0
  6
CONTINUOUS
 62
    7
 10
871.01748563386366
 20
493.9438004137358
 40
24.216836929321293
 50
129.205322265625
 51
179.36845397949216
  0
ARC
  8
_0-0_0
  6
CONTINUOUS
 62
    7
 10
859.84197951890394
 20
494.80174108756393
 40
13.053248405456543
 50
182.59507751464844
 51
233.40019226074222
  0
ARC
  8
_0-0_0
  6
CONTINUOUS
 62
    7
 10
863.39452983476099
 20
494.43426367057168
 40
13.912073135375977
 50
151.43582153320312
 51
218.74951171875
  0
ARC
  8
_0-0_0
  6
CONTINUOUS
 62
    7
 10
875.01215864755079
 20
487.19657751334523
 40
27.587940216064453
 50
127.97381591796876
 51
149.77027893066409
  0
ARC
  8
_0-0_0
  6
CONTINUOUS
 62
    7
 10
438.32898666001716
 20
917.17147680533742
 40
585.495361328125
 50
315.79444885253906
 51
317.77290344238281
  0
ARC
  8
_0-0_0
  6
CONTINUOUS
 62
    7
 10
866.91222335435316
 20
496.29551550162648
 40
10.982366561889648
 50
139.84176635742187
 51
199.76731872558591
  0
ARC
  8
_0-0_0
  6
CONTINUOUS
 62
    7
 10
871.97388984300062
 20
509.49217077506387
 40
17.278249740600586
 50
209.66632080078128
 51
227.56355285644534
  0
ARC
  8
_0-0_0
  6
CONTINUOUS
 62
    7
 10
888.00861407853529
 20
533.1278671861968
 40
41.740993499755859
 50
229.21586608886719
 51
233.66329956054687
  0
ARC
  8
_0-0_0
  6
CONTINUOUS
 62
    7
 10
1244.5293955955642
 20
160.66947790397023
 40
516.19134521484375
 50
136.47129821777344
 51
138.400634765625
  0
ARC
  8
_0-0_0
  6
CONTINUOUS
 62
    7
 10
877.502301708235
 20
515.5306992174468
 40
15.666496276855471
 50
205.57809448242187
 51
232.37185668945312
  0
ARC
  8
_0-0_0
  6
CONTINUOUS
 62
    7
 10
888.00861407853529
 20
533.1278671861968
 40
41.740993499755859
 50
229.21586608886719
 51
233.66329956054687
  0
ARC
  8
_0-0_0
  6
CONTINUOUS
 62
    7
 10
899.89004088975344
 20
534.51750036490762
 40
31.370639801025391
 50
210.61053466796875
 51
231.23175048828125
  0
ARC
  8
_0-0_0
  6
CONTINUOUS
 62
    7
 10
903.41978980637941
 20
533.07142492545449
 40
32.185512542724609
 50
204.2740173339844
 51
225.02070617675784
  0
ARC
  8
_0-0_0
  6
CONTINUOUS
 62
    7
 10
903.61542655564699
 20
533.67725988639211
 40
25.807916641235352
 50
194.62838745117187
 51
229.07182312011719
  0
ARC
  8
_0-0_0
  6
CONTINUOUS
 62
    7
 10
852.69656325913832
 20
538.25678869498586
 40
28.220991134643558
 50
308.52854919433594
 51
339.11306762695312
  0
ARC
  8
_0-0_0
  6
CONTINUOUS
 62
    7
 10
913.12019683457777
 20
550.97410436881387
 40
40.170581817626953
 50
212.86138916015625
 51
230.35350036621094
  0
ARC
  8
_0-0_0
  6
CONTINUOUS
 62
    7
 10
903.41978980637941
 20
533.07142492545449
 40
32.185512542724609
 50
204.2740173339844
 51
225.02070617675784
  0
ARC
  8
_0-0_0
  6
CONTINUOUS
 62
    7
 10
913.12019683457777
 20
550.97410436881387
 40
40.170581817626953
 50
212.86138916015625
 51
230.35350036621094
  0
ARC
  8
_0-0_0
  6
CONTINUOUS
 62
    7
 10
913.12019683457777
 20
550.97410436881387
 40
40.170581817626953
 50
212.86138916015625
 51
230.35350036621094
  0
ARC
  8
_0-0_0
  6
CONTINUOUS
 62
    7
 10
903.61542655564699
 20
533.67725988639211
 40
25.807916641235352
 50
194.62838745117187
 51
229.07182312011719
  0
ARC
  8
_0-0_0
  6
CONTINUOUS
 62
    7
 10
903.61542655564699
 20
533.67725988639211
 40
25.807916641235352
 50
194.62838745117187
 51
229.07182312011719
  0
ARC
  8
_0-0_0
  6
CONTINUOUS
 62
    7
 10
809.56938888169691
 20
562.69524999869668
 40
68.026260375976562
 50
312.70909118652344
 51
323.67642211914062
  0
ARC
  8
_0-0_0
  6
CONTINUOUS
 62
    7
 10
438.32898666001716
 20
917.17147680533742
 40
585.495361328125
 50
315.79444885253906
 51
317.77290344238281
  0
ARC
  8
_0-0_0
  6
CONTINUOUS
 62
    7
 10
884.29209281541273
 20
515.89930578482961
 40
10.961838722229004
 50
309.2052001953125
 51
39.493545532226548
  0
ARC
  8
_0-0_0
  6
CONTINUOUS
 62
    7
 10
884.29209281541273
 20
515.89930578482961
 40
10.961838722229004
 50
309.2052001953125
 51
39.493545532226548
  0
ARC
  8
_0-0_0
  6
CONTINUOUS
 62
    7
 10
885.78217746354517
 20
519.23394628775918
 40
7.8610548973083505
 50
298.85540771484375
 51
43.313812255859368
  0
ARC
  8
_0-0_0
  6
CONTINUOUS
 62
    7
 10
884.79391147233412
 20
518.54330297721231
 40
4.743873119354248
 50
295.11337280273437
 51
46.522674560546868
  0
ARC
  8
_0-0_0
  6
CONTINUOUS
 62
    7
 10
913.12019683457777
 20
550.97410436881387
 40
40.170581817626953
 50
212.86138916015625
 51
230.35350036621094
  0
ARC
  8
_0-0_0
  6
CONTINUOUS
 62
    7
 10
939.80070449448988
 20
563.6155380846343
 40
62.071784973144531
 50
207.616943359375
 51
218.91201782226562
  0
ARC
  8
_0-0_0
  6
CONTINUOUS
 62
    7
 10
927.06674529649172
 20
555.42468115104055
 40
51.445587158203132
 50
205.30548095703125
 51
219.17808532714847
  0
ARC
  8
_0-0_0
  6
CONTINUOUS
 62
    7
 10
835.3823008690016
 20
587.54421850455617
 40
89.537010192871094
 50
295.38482666015625
 51
305.05361938476568
  0
ARC
  8
_0-0_0
  6
CONTINUOUS
 62
    7
 10
835.3823008690016
 20
587.54421850455617
 40
89.537010192871094
 50
295.38482666015625
 51
305.05361938476568
  0
ARC
  8
_0-0_0
  6
CONTINUOUS
 62
    7
 10
899.24171401597414
 20
457.99549719107961
 40
54.922252655029304
 50
117.63529968261719
 51
143.40162658691406
  0
ARC
  8
_0-0_0
  6
CONTINUOUS
 62
    7
 10
900.43255950547621
 20
446.78282018912637
 40
63.00506591796875
 50
113.95643615722658
 51
131.79893493652344
  0
ARC
  8
_0-0_0
  6
CONTINUOUS
 62
    7
 10
858.36596633531019
 20
552.31327673209523
 40
50.707099914550788
 50
288.97042846679687
 51
307.98786926269531
  0
ARC
  8
_0-0_0
  6
CONTINUOUS
 62
    7
 10
868.08554030991957
 20
533.64976354850137
 40
34.986194610595703
 50
287.59565734863281
 51
311.39724731445312
  0
ARC
  8
_0-0_0
  6
CONTINUOUS
 62
    7
 10
911.35235931016371
 20
545.51591345084512
 40
58.975048065185547
 50
232.60946655273443
 51
246.79859924316409
  0
ARC
  8
_0-0_0
  6
CONTINUOUS
 62
    7
 10
938.24760390855226
 20
600.38674780143106
 40
125.30206298828126
 50
236.99057006835943
 51
243.46369934082034
  0
ARC
  8
_0-0_0
  6
CONTINUOUS
 62
    7
 10
937.19884444810316
 20
615.43939825309133
 40
141.55174255371094
 50
240.00325012207031
 51
245.77740478515625
  0
ARC
  8
_0-0_0
  6
CONTINUOUS
 62
    7
 10
916.89366866685316
 20
423.78584142936074
 40
85.534599304199219
 50
116.54980468749999
 51
129.04499816894528
  0
ARC
  8
_0-0_0
  6
CONTINUOUS
 62
    7
 10
887.94433070756349
 20
515.94720312369668
 40
39.681041717529297
 50
225.858642578125
 51
244.71832275390625
  0
ARC
  8
_0-0_0
  6
CONTINUOUS
 62
    7
 10
872.49302054978773
 20
480.85507055533742
 40
14.088919639587402
 50
157.50204467773437
 51
230.21925354003906
  0
ARC
  8
_0-0_0
  6
CONTINUOUS
 62
    7
 10
872.11444284058973
 20
478.54888769400924
 40
14.797623634338379
 50
127.95718383789062
 51
227.4749450683594
  0
ARC
  8
_0-0_0
  6
CONTINUOUS
 62
    7
 10
870.45657254792616
 20
478.74975439322793
 40
19.222690582275391
 50
128.69699096679687
 51
238.37063598632815
  0
ARC
  8
_0-0_0
  6
CONTINUOUS
 62
    7
 10
907.1221461448805
 20
558.16296240104055
 40
91.880096435546875
 50
237.98806762695315
 51
244.25785827636719
  0
ARC
  8
_0-0_0
  6
CONTINUOUS
 62
    7
 10
907.1221461448805
 20
558.16296240104055
 40
91.880096435546875
 50
237.98806762695315
 51
244.25785827636719
  0
ARC
  8
_0-0_0
  6
CONTINUOUS
 62
    7
 10
907.1221461448805
 20
558.16296240104055
 40
91.880096435546875
 50
237.98806762695315
 51
244.25785827636719
  0
ARC
  8
_0-0_0
  6
CONTINUOUS
 62
    7
 10
907.89781142808363
 20
443.11155554068887
 40
51.938274383544929
 50
114.39483642578126
 51
151.13822937011719
  0
ARC
  8
_0-0_0
  6
CONTINUOUS
 62
    7
 10
922.80806686021253
 20
414.26981970084518
 40
76.210517883300781
 50
118.29203796386719
 51
130.96603393554687
  0
ARC
  8
_0-0_0
  6
CONTINUOUS
 62
    7
 10
830.01592208482191
 20
587.49056860221242
 40
116.72747802734376
 50
297.54637145996099
 51
307.98368835449224
  0
ARC
  8
_0-0_0
  6
CONTINUOUS
 62
    7
 10
830.01592208482191
 20
587.49056860221242
 40
116.72747802734376
 50
297.54637145996099
 51
307.98368835449224
  0
ARC
  8
_0-0_0
  6
CONTINUOUS
 62
    7
 10
735.30902816392336
 20
242.74571081412637
 40
302.82089233398437
 50
57.701141357421875
 51
59.829406738281257
  0
ARC
  8
_0-0_0
  6
CONTINUOUS
 62
    7
 10
735.30902816392336
 20
242.74571081412637
 40
302.82089233398437
 50
57.701141357421875
 51
59.829406738281257
  0
ARC
  8
_0-0_0
  6
CONTINUOUS
 62
    7
 10
830.01592208482191
 20
587.49056860221242
 40
116.72747802734376
 50
297.54637145996099
 51
307.98368835449224
  0
ARC
  8
_0-0_0
  6
CONTINUOUS
 62
    7
 10
861.82633163072046
 20
538.28404089225148
 40
53.831111907958984
 50
297.21638488769531
 51
305.76362609863281
  0
ARC
  8
_0-0_0
  6
CONTINUOUS
 62
    7
 10
920.21904327012464
 20
553.19846960318898
 40
57.917675018310547
 50
238.33686828613284
 51
245.57524108886722
  0
ARC
  8
_0-0_0
  6
CONTINUOUS
 62
    7
 10
894.29054214097414
 20
494.70173498404836
 40
11.648541450500488
 50
38.401580810546875
 51
72.870529174804688
  0
ARC
  8
_0-0_0
  6
CONTINUOUS
 62
    7
 10
899.24709655381605
 20
499.53494116080611
 40
4.8144311904907227
 50
302.78900146484375
 51
29.935363769531254
  0
ARC
  8
_0-0_0
  6
CONTINUOUS
 62
    7
 10
896.33692313767835
 20
494.27952429068898
 40
10.07009220123291
 50
14.639999389648439
 51
19.5450439453125
  0
ARC
  8
_0-0_0
  6
CONTINUOUS
 62
    7
 10
896.49101783372328
 20
498.98733373893106
 40
10.22463321685791
 50
295.49058532714844
 51
318.70634460449219
  0
ARC
  8
_0-0_0
  6
CONTINUOUS
 62
    7
 10
841.47279311753675
 20
574.22903295768106
 40
103.27591705322266
 50
295.96353149414062
 51
305.123291015625
  0
ARC
  8
_0-0_0
  6
CONTINUOUS
 62
    7
 10
841.47279311753675
 20
574.22903295768106
 40
103.27591705322266
 50
295.96353149414062
 51
305.123291015625
  0
ARC
  8
_0-0_0
  6
CONTINUOUS
 62
    7
 10
922.80806686021253
 20
414.26981970084518
 40
76.210517883300781
 50
118.29203796386719
 51
130.96603393554687
  0
ARC
  8
_0-0_0
  6
CONTINUOUS
 62
    7
 10
838.00393630601332
 20
393.9887222887358
 40
90.949851989746108
 50
57.60076904296875
 51
64.051956176757813
  0
ARC
  8
_0-0_0
  6
CONTINUOUS
 62
    7
 10
857.82944442368921
 20
436.56739660514205
 40
38.502658843994141
 50
49.73902893066407
 51
66.790939331054688
  0
ARC
  8
_0-0_0
  6
CONTINUOUS
 62
    7
 10
857.82944442368921
 20
436.56739660514205
 40
38.502658843994141
 50
49.73902893066407
 51
66.790939331054688
  0
ARC
  8
_0-0_0
  6
CONTINUOUS
 62
    7
 10
911.72457076646253
 20
445.81486364615773
 40
35.311496734619141
 50
124.73155212402345
 51
173.28215026855472
  0
ARC
  8
_0-0_0
  6
CONTINUOUS
 62
    7
 10
861.78507091142114
 20
446.52995153678262
 40
27.196699142456055
 50
42.170242309570312
 51
66.787155151367187
  0
ARC
  8
_0-0_0
  6
CONTINUOUS
 62
    7
 10
850.51272536851332
 20
439.96330114615768
 40
31.214588165283207
 50
29.393341064453129
 51
55.088409423828125
  0
ARC
  8
_0-0_0
  6
CONTINUOUS
 62
    7
 10
826.25303603745863
 20
427.1786636949858
 40
50.133087158203125
 50
357.22610473632812
 51
31.106323242187486
  0
ARC
  8
_0-0_0
  6
CONTINUOUS
 62
    7
 10
826.25303603745863
 20
427.1786636949858
 40
50.133087158203125
 50
357.22610473632812
 51
31.106323242187486
  0
ARC
  8
_0-0_0
  6
CONTINUOUS
 62
    7
 10
882.57610084153589
 20
460.14536901725137
 40
15.196436882019045
 50
129.82518005371094
 51
201.44970703125
  0
ARC
  8
_0-0_0
  6
CONTINUOUS
 62
    7
 10
910.65978957749758
 20
434.58042761100148
 40
56.148876190185547
 50
118.34844970703124
 51
145.29972839355469
  0
ARC
  8
_0-0_0
  6
CONTINUOUS
 62
    7
 10
875.43490357734129
 20
457.50376745475137
 40
14.190550804138184
 50
140.42167663574219
 51
220.89064025878906
  0
ARC
  8
_0-0_0
  6
CONTINUOUS
 62
    7
 10
875.43490357734129
 20
457.50376745475137
 40
14.190550804138184
 50
140.42167663574219
 51
220.89064025878906
  0
ARC
  8
_0-0_0
  6
CONTINUOUS
 62
    7
 10
876.72215758301172
 20
459.90312048209518
 40
16.533340454101563
 50
149.95086669921878
 51
219.3422546386719
  0
ARC
  8
_0-0_0
  6
CONTINUOUS
 62
    7
 10
826.25303603745863
 20
427.1786636949858
 40
50.133087158203125
 50
357.22610473632812
 51
31.106323242187486
  0
ARC
  8
_0-0_0
  6
CONTINUOUS
 62
    7
 10
826.25303603745863
 20
427.1786636949858
 40
50.133087158203125
 50
357.22610473632812
 51
31.106323242187486
  0
ARC
  8
_0-0_0
  6
CONTINUOUS
 62
    7
 10
834.86109115220472
 20
428.86274572623574
 40
35.703670501708984
 50
6.61053466796875
 51
29.880752563476559
  0
ARC
  8
_0-0_0
  6
CONTINUOUS
 62
    7
 10
834.86109115220472
 20
428.86274572623574
 40
35.703670501708984
 50
6.61053466796875
 51
29.880752563476559
  0
ARC
  8
_0-0_0
  6
CONTINUOUS
 62
    7
 10
834.86109115220472
 20
428.86274572623574
 40
35.703670501708984
 50
6.61053466796875
 51
29.880752563476559
  0
ARC
  8
_0-0_0
  6
CONTINUOUS
 62
    7
 10
834.86109115220472
 20
428.86274572623574
 40
35.703670501708984
 50
6.61053466796875
 51
29.880752563476559
  0
ARC
  8
_0-0_0
  6
CONTINUOUS
 62
    7
 10
834.86109115220472
 20
428.86274572623574
 40
35.703670501708984
 50
6.61053466796875
 51
29.880752563476559
  0
ARC
  8
_0-0_0
  6
CONTINUOUS
 62
    7
 10
834.86109115220472
 20
428.86274572623574
 40
35.703670501708984
 50
6.61053466796875
 51
29.880752563476559
  0
ARC
  8
_0-0_0
  6
CONTINUOUS
 62
    7
 10
834.86109115220472
 20
428.86274572623574
 40
35.703670501708984
 50
6.61053466796875
 51
29.880752563476559
  0
ARC
  8
_0-0_0
  6
CONTINUOUS
 62
    7
 10
834.86109115220472
 20
428.86274572623574
 40
35.703670501708984
 50
6.61053466796875
 51
29.880752563476559
  0
ARC
  8
_0-0_0
  6
CONTINUOUS
 62
    7
 10
834.86109115220472
 20
428.86274572623574
 40
35.703670501708984
 50
6.61053466796875
 51
29.880752563476559
  0
ARC
  8
_0-0_0
  6
CONTINUOUS
 62
    7
 10
826.25303603745863
 20
427.1786636949858
 40
50.133087158203125
 50
357.22610473632812
 51
31.106323242187486
  0
ARC
  8
_0-0_0
  6
CONTINUOUS
 62
    7
 10
826.25303603745863
 20
427.1786636949858
 40
50.133087158203125
 50
357.22610473632812
 51
31.106323242187486
  0
ARC
  8
_0-0_0
  6
CONTINUOUS
 62
    7
 10
826.25303603745863
 20
427.1786636949858
 40
50.133087158203125
 50
357.22610473632812
 51
31.106323242187486
  0
ARC
  8
_0-0_0
  6
CONTINUOUS
 62
    7
 10
826.25303603745863
 20
427.1786636949858
 40
50.133087158203125
 50
357.22610473632812
 51
31.106323242187486
  0
ARC
  8
_0-0_0
  6
CONTINUOUS
 62
    7
 10
826.25303603745863
 20
427.1786636949858
 40
50.133087158203125
 50
357.22610473632812
 51
31.106323242187486
  0
ARC
  8
_0-0_0
  6
CONTINUOUS
 62
    7
 10
826.25303603745863
 20
427.1786636949858
 40
50.133087158203125
 50
357.22610473632812
 51
31.106323242187486
  0
ARC
  8
_0-0_0
  6
CONTINUOUS
 62
    7
 10
826.25303603745863
 20
427.1786636949858
 40
50.133087158203125
 50
357.22610473632812
 51
31.106323242187486
  0
ARC
  8
_0-0_0
  6
CONTINUOUS
 62
    7
 10
826.25303603745863
 20
427.1786636949858
 40
50.133087158203125
 50
357.22610473632812
 51
31.106323242187486
  0
ARC
  8
_0-0_0
  6
CONTINUOUS
 62
    7
 10
834.86109115220472
 20
428.86274572623574
 40
35.703670501708984
 50
6.61053466796875
 51
29.880752563476559
  0
ARC
  8
_0-0_0
  6
CONTINUOUS
 62
    7
 10
834.86109115220472
 20
428.86274572623574
 40
35.703670501708984
 50
6.61053466796875
 51
29.880752563476559
  0
ARC
  8
_0-0_0
  6
CONTINUOUS
 62
    7
 10
826.25303603745863
 20
427.1786636949858
 40
50.133087158203125
 50
357.22610473632812
 51
31.106323242187486
  0
ARC
  8
_0-0_0
  6
CONTINUOUS
 62
    7
 10
826.25303603745863
 20
427.1786636949858
 40
50.133087158203125
 50
357.22610473632812
 51
31.106323242187486
  0
ARC
  8
_0-0_0
  6
CONTINUOUS
 62
    7
 10
826.25303603745863
 20
427.1786636949858
 40
50.133087158203125
 50
357.22610473632812
 51
31.106323242187486
  0
ARC
  8
_0-0_0
  6
CONTINUOUS
 62
    7
 10
826.25303603745863
 20
427.1786636949858
 40
50.133087158203125
 50
357.22610473632812
 51
31.106323242187486
  0
ARC
  8
_0-0_0
  6
CONTINUOUS
 62
    7
 10
826.25303603745863
 20
427.1786636949858
 40
50.133087158203125
 50
357.22610473632812
 51
31.106323242187486
  0
ARC
  8
_0-0_0
  6
CONTINUOUS
 62
    7
 10
826.25303603745863
 20
427.1786636949858
 40
50.133087158203125
 50
357.22610473632812
 51
31.106323242187486
  0
ARC
  8
_0-0_0
  6
CONTINUOUS
 62
    7
 10
826.25303603745863
 20
427.1786636949858
 40
50.133087158203125
 50
357.22610473632812
 51
31.106323242187486
  0
ARC
  8
_0-0_0
  6
CONTINUOUS
 62
    7
 10
826.25303603745863
 20
427.1786636949858
 40
50.133087158203125
 50
357.22610473632812
 51
31.106323242187486
  0
ARC
  8
_0-0_0
  6
CONTINUOUS
 62
    7
 10
826.25303603745863
 20
427.1786636949858
 40
50.133087158203125
 50
357.22610473632812
 51
31.106323242187486
  0
ARC
  8
_0-0_0
  6
CONTINUOUS
 62
    7
 10
890.30545856095716
 20
478.17153784049361
 40
10.246707916259766
 50
309.32164001464849
 51
25.328033447265678
  0
ARC
  8
_0-0_0
  6
CONTINUOUS
 62
    7
 10
891.52878619767591
 20
478.81210180533736
 40
3.5106959342956543
 50
322.68467712402344
 51
41.694335937500014
  0
ARC
  8
_0-0_0
  6
CONTINUOUS
 62
    7
 10
874.04783369637903
 20
503.52902075064992
 40
33.640106201171875
 50
301.4635009765625
 51
307.05958557128906
  0
ARC
  8
_0-0_0
  6
CONTINUOUS
 62
    7
 10
892.32014419175562
 20
477.57998510611856
 40
2.1922409534454346
 50
335.87347412109381
 51
65.554473876953196
  0
ARC
  8
_0-0_0
  6
CONTINUOUS
 62
    7
 10
883.63897849656507
 20
508.01466223014199
 40
16.521247863769531
 50
305.7330322265625
 51
322.91453552246094
  0
ARC
  8
_0-0_0
  6
CONTINUOUS
 62
    7
 10
895.53720428086672
 20
499.02918859732955
 40
1.6113159656524658
 50
322.67790222167969
 51
62.941146850585959
  0
ARC
  8
_0-0_0
  6
CONTINUOUS
 62
    7
 10
918.85811568833765
 20
544.87898107779824
 40
44.399368286132812
 50
234.01631164550781
 51
241.57168579101562
  0
ARC
  8
_0-0_0
  6
CONTINUOUS
 62
    7
 10
920.21904327012464
 20
553.19846960318898
 40
57.917675018310547
 50
238.33686828613284
 51
245.57524108886722
  0
ARC
  8
_0-0_0
  6
CONTINUOUS
 62
    7
 10
903.41978980637941
 20
533.07142492545449
 40
32.185512542724609
 50
241.26863098144531
 51
244.9981689453125
  0
ARC
  8
_0-0_0
  6
CONTINUOUS
 62
    7
 10
903.61542655564699
 20
533.67725988639211
 40
25.807916641235352
 50
194.62838745117187
 51
229.07182312011719
  0
ARC
  8
_0-0_0
  6
CONTINUOUS
 62
    7
 10
885.89794589616213
 20
516.70027014029824
 40
3.7021670341491704
 50
15.678558349609379
 51
64.540603637695312
  0
ARC
  8
_0-0_0
  6
CONTINUOUS
 62
    7
 10
913.12019683457777
 20
550.97410436881387
 40
40.170581817626953
 50
212.86138916015625
 51
230.35350036621094
  0
ARC
  8
_0-0_0
  6
CONTINUOUS
 62
    7
 10
939.80070449448988
 20
563.6155380846343
 40
62.071784973144531
 50
207.616943359375
 51
218.91201782226562
  0
ARC
  8
_0-0_0
  6
CONTINUOUS
 62
    7
 10
884.29209281541273
 20
515.89930578482961
 40
10.961838722229004
 50
309.2052001953125
 51
39.493545532226548
  0
ARC
  8
_0-0_0
  6
CONTINUOUS
 62
    7
 10
892.75600768662855
 20
493.09849401725148
 40
13.840044021606445
 50
19.193115234375004
 51
38.908554077148445
  0
ARC
  8
_0-0_0
  6
CONTINUOUS
 62
    7
 10
894.50535537339624
 20
500.62356420768111
 40
12.796571731567383
 50
319.06907653808594
 51
332.27850341796875
  0
ARC
  8
_0-0_0
  6
CONTINUOUS
 62
    7
 10
896.33692313767835
 20
494.27952429068898
 40
10.07009220123291
 50
14.639999389648439
 51
19.5450439453125
  0
ARC
  8
_0-0_0
  6
CONTINUOUS
 62
    7
 10
876.98415859080706
 20
464.90879675162648
 40
28.659826278686523
 50
38.00396728515625
 51
48.733428955078125
  0
ARC
  8
_0-0_0
  6
CONTINUOUS
 62
    7
 10
894.93869926072523
 20
529.24214025748586
 40
10
 50
219.17808532714847
 51
226.52261352539065
  0
ARC
  8
_0-0_0
  6
CONTINUOUS
 62
    7
 10
872.62683273889002
 20
518.41842504752492
 40
10
 50
141.22344970703125
 51
149.3617248535156
  0
ARC
  8
_0-0_0
  6
CONTINUOUS
 62
    7
 10
870.36234952546522
 20
513.31597753775918
 40
15.218968391418457
 50
219.86578369140625
 51
230.79724121093753
  0
ARC
  8
_0-0_0
  6
CONTINUOUS
 62
    7
 10
903.17746879197534
 20
496.06645056022018
 40
3.0000000000000004
 50
332.27853393554687
 51
14.640090942382836
  0
ARC
  8
_0-0_0
  6
CONTINUOUS
 62
    7
 10
897.77600432969496
 20
539.64652868522023
 40
70.681266784667969
 50
236.14930725097656
 51
244.64933776855469
  0
ARC
  8
_0-0_0
  6
CONTINUOUS
 62
    7
 10
870.73882247544691
 20
479.67465063346242
 40
19.118410110473633
 50
144.63436889648437
 51
158.27793884277344
  0
ARC
  8
_0-0_0
  6
CONTINUOUS
 62
    7
 10
917.38280440904066
 20
435.16789098990773
 40
40.670570373535156
 50
120.40585327148436
 51
161.99641418457031
  0
ARC
  8
_0-0_0
  6
CONTINUOUS
 62
    7
 10
929.24115707017347
 20
457.33958288443887
 40
34.104747772216797
 50
154.77513122558597
 51
167.94879150390625
  0
ARC
  8
_0-0_0
  6
CONTINUOUS
 62
    7
 10
919.1633601341382
 20
433.23838659537643
 40
38.254444122314453
 50
128.90858459472656
 51
153.97665405273437
  0
ARC
  8
_0-0_0
  6
CONTINUOUS
 62
    7
 10
892.80092956162866
 20
465.13432165397023
 40
3.1598520278930664
 50
317.65887451171875
 51
347.68110656738281
  0
ARC
  8
_0-0_0
  6
CONTINUOUS
 62
    7
 10
1036.4003825340408
 20
420.58573766959518
 40
160.12724304199222
 50
170.77711486816409
 51
178.5088806152344
  0
ARC
  8
_0-0_0
  6
CONTINUOUS
 62
    7
 10
950.53955794907984
 20
440.04615637076705
 40
74.544303894042969
 50
172.36859130859375
 51
187.24095153808594
  0
ARC
  8
_0-0_0
  6
CONTINUOUS
 62
    7
 10
993.95986129380628
 20
428.23145910514199
 40
111.68669891357423
 50
170.14558410644531
 51
181.78500366210937
  0
ARC
  8
_0-0_0
  6
CONTINUOUS
 62
    7
 10
877.73957563973818
 20
458.24510046256393
 40
10
 50
201.44970703125003
 51
211.10632324218753
  0
ARC
  8
_0-0_0
  6
CONTINUOUS
 62
    7
 10
857.1478037986891
 20
441.66822668326699
 40
10
 50
29.8807373046875
 51
40.890625000000007
  0
ARC
  8
_0-0_0
  6
CONTINUOUS
 62
    7
 10
917.3008341941968
 20
430.86039587272012
 40
34.790569305419922
 50
140.07823181152344
 51
168.27577209472656
  0
ARC
  8
_0-0_0
  6
CONTINUOUS
 62
    7
 10
947.37338973618898
 20
426.8869156481108
 40
65.081024169921875
 50
170.23075866699219
 51
178.12057495117187
  0
ARC
  8
_0-0_0
  6
CONTINUOUS
 62
    7
 10
882.24567844010744
 20
460.50523229850143
 40
11.120863914489746
 50
318.84707641601562
 51
4.8695068359375178
  0
ARC
  8
_0-0_0
  6
CONTINUOUS
 62
    7
 10
893.77348853684816
 20
445.63465734732961
 40
10
 50
153.97665405273437
 51
170.14556884765625
  0
ARC
  8
_0-0_0
  6
CONTINUOUS
 62
    7
 10
888.21395351029787
 20
444.64744421256393
 40
10
 50
161.99644470214844
 51
170.77713012695312
  0
ARC
  8
_0-0_0
  6
CONTINUOUS
 62
    7
 10
842.6922145042555
 20
438.65675207389199
 40
34.392318725585937
 50
12.655181884765625
 51
43.712890625
  0
ARC
  8
_0-0_0
  6
CONTINUOUS
 62
    7
 10
876.72215758301172
 20
459.90312048209518
 40
16.533340454101563
 50
149.95086669921878
 51
213.64706420898437
  0
ARC
  8
_0-0_0
  6
CONTINUOUS
 62
    7
 10
885.55154563523706
 20
473.43536230338424
 40
11.550354957580566
 50
41.887939453125007
 51
61.410934448242202
  0
ARC
  8
_0-0_0
  6
CONTINUOUS
 62
    7
 10
873.92824269868299
 20
454.45658727897012
 40
31.676914215087891
 50
52.464813232421875
 51
61.814102172851563
  0
ARC
  8
_0-0_0
  6
CONTINUOUS
 62
    7
 10
833.7878184471266
 20
553.17130895865773
 40
36.573757171630859
 50
321.60160827636719
 51
351.18670654296875
  0
ARC
  8
_0-0_0
  6
CONTINUOUS
 62
    7
 10
829.71855880357202
 20
555.30816503775918
 40
46.612133026123047
 50
324.33291625976562
 51
350.4410400390625
  0
ARC
  8
_0-0_0
  6
CONTINUOUS
 62
    7
 10
827.33980514146253
 20
554.46433874381398
 40
48.988430023193359
 50
319.116455078125
 51
351.90690612792969
  0
ARC
  8
_0-0_0
  6
CONTINUOUS
 62
    7
 10
837.292190090193
 20
552.59861608756398
 40
45.086666107177741
 50
320.09887695312506
 51
353.59333801269537
  0
ARC
  8
_0-0_0
  6
CONTINUOUS
 62
    7
 10
813.49951888657972
 20
549.73344274772012
 40
69.010635375976563
 50
341.81423950195318
 51
358.20155334472662
  0
ARC
  8
_0-0_0
  6
CONTINUOUS
 62
    7
 10
953.76391555406019
 20
553.5182480455718
 40
71.44720458984375
 50
184.77749633789062
 51
195.15341186523437
  0
ENDSEC
  0
EOF
