  0
SECTION
  2
HEADER
  9
$ACADVER
  1
AC1009
  9
$INSBASE
 10
0
 20
0
 30
0
  9
$EXTMIN
 10
0
 20
0
  9
$EXTMAX
 10
2100
 20
1485
  9
$LIMMIN
 10
0
 20
0
  9
$LIMMAX
 10
2100
 20
1485
  9
$LTSCALE
 40
5
  0
ENDSEC
  0
SECTION
  2
TABLES
  0
TABLE
  2
LTYPE
 70
     9
  0
LTYPE
  2
CONTINUOUS
 70
    64
  3
実線
 72
    65
 73
     0
 40
0.0
  0
LTYPE
  2
DASHED1
 70
    64
  3
--  --  --  --  --  --  --  --  
 72
    65
 73
     2
 40
2.5
 49
1.25
 49
-1.25
  0
LTYPE
  2
DASHED2
 70
    64
  3
----    ----    ----    ----    
 72
    65
 73
     2
 40
5.0
 49
2.5
 49
-2.5
  0
LTYPE
  2
DASHED3
 70
    64
  3
------  ------  ------  ------  
 72
    65
 73
     2
 40
5.0
 49
3.75
 49
-1.25
  0
LTYPE
  2
CENTER1
 70
    64
  3
----- - ----- - ----- - ----- - 
 72
    65
 73
     4
 40
10.0
 49
6.25
 49
-1.25
 49
1.25
 49
-1.25
  0
LTYPE
  2
CENTER2
 70
    64
  3
----------  --  ----------  --  
 72
    65
 73
     4
 40
20.0
 49
12.5
 49
-2.5
 49
2.5
 49
-2.5
  0
LTYPE
  2
PHANTOM1
 70
    64
  3
--- - - --- - - --- - - --- - - 
 72
    65
 73
     6
 40
10.0
 49
3.25
 49
-1.25
 49
1.25
 49
-1.25
 49
1.25
 49
-1.25
  0
LTYPE
  2
PHANTOM2
 70
    64
  3
--------  -  -  --------  -  -  
 72
    65
 73
     6
 40
20.0
 49
10.0
 49
-2.5
 49
1.25
 49
-2.5
 49
1.25
 49
-2.5
  0
LTYPE
  2
DOT
 70
    64
  3
-   -   -   -   -   -   -   -   
 72
    65
 73
     2
 40
2.5
 49
0.625
 49
-1.875
  0
LTYPE
  2
DUMMY
 70
    64
  3
ダミー
 72
    65
 73
     0
 40
0.0
  0
LTYPE
  2
RAND1
 70
    64
  3
ランダム線1
 72
    65
 73
     4
 40
10.0
 49
1.0
 49
-2.0
 49
3.0
 49
-4.0
  0
LTYPE
  2
RAND2
 70
    64
  3
ランダム線2
 72
    65
 73
     4
 40
14.0
 49
2.0
 49
-3.0
 49
4.0
 49
-5.0
  0
LTYPE
  2
RAND3
 70
    64
  3
ランダム線3
 72
    65
 73
     4
 40
18.0
 49
3.0
 49
-4.0
 49
5.0
 49
-6.0
  0
LTYPE
  2
RAND4
 70
    64
  3
ランダム線4
 72
    65
 73
     4
 40
22.0
 49
4.0
 49
-5.0
 49
6.0
 49
-7.0
  0
LTYPE
  2
RAND5
 70
    64
  3
ランダム線5
 72
    65
 73
     4
 40
26.0
 49
5.0
 49
-6.0
 49
7.0
 49
-8.0
  0
LTYPE
  2
LONG1
 70
    64
  3
----------  --  ----------  --  
 72
    65
 73
     4
 40
40.0
 49
32.5
 49
-2.5
 49
2.5
 49
-2.5
  0
LTYPE
  2
LONG2
 70
    64
  3
--------  -  -  --------  -  -  
 72
    65
 73
     6
 40
40.0
 49
30.0
 49
-2.5
 49
1.25
 49
-2.5
 49
1.25
 49
-2.5
  0
LTYPE
  2
LONG3
 70
    64
  3
+++++++++++++++..+++++++++++++++
 72
    65
 73
     2
 40
40.0
 49
37.5
 49
-2.5
  0
LTYPE
  2
LONG4
 70
    64
  3
+++++++++++++++..+++++++++++++++
 72
    65
 73
     2
 40
80.0
 49
75.0
 49
-5.0
  0
LTYPE
  2
LONG5
 70
    64
  3
----------  --  ----------  --  
 72
    65
 73
     4
 40
60.0
 49
37.5
 49
-7.5
 49
7.5
 49
-7.5
  0
LTYPE
  2
dashed
 70
   64
  3
-------   -------------   ------
 72
   65
 73
    2
 40
7.5
 49
6
 49
-1.5
  0
LTYPE
  2
dashed_spaced
 70
   64
  3
----        --------        ----
 72
   65
 73
    2
 40
12
 49
6
 49
-6
  0
LTYPE
  2
long_dashed_dotted
 70
   64
  3
------------- --- --------------
 72
   65
 73
    4
 40
15.25
 49
12
 49
-1.5
 49
0.25
 49
-1.5
  0
LTYPE
  2
long_dashed_double-dotted
 70
   64
  3
----------- --- --- ------------
 72
   65
 73
    6
 40
17
 49
12
 49
-1.5
 49
0.25
 49
-1.5
 49
0.25
 49
-1.5
  0
LTYPE
  2
long_dashed_triplicate-dotted
 70
   64
  3
--------- --- --- --- ----------
 72
   65
 73
    8
 40
18.75
 49
12
 49
-1.5
 49
0.25
 49
-1.5
 49
0.25
 49
-1.5
 49
0.25
 49
-1.5
  0
LTYPE
  2
dotted
 70
   64
  3
   -       -       -       -    
 72
   65
 73
    2
 40
1.75
 49
0.25
 49
-1.5
  0
LTYPE
  2
chain
 70
   64
  3
-------------- -- --------------
 72
   65
 73
    4
 40
18.5
 49
12
 49
-1.5
 49
3.5
 49
-1.5
  0
LTYPE
  2
chain_double_dash
 70
   64
  3
------------ -- -- -------------
 72
   65
 73
    6
 40
23.5
 49
12
 49
-1.5
 49
3.5
 49
-1.5
 49
3.5
 49
-1.5
  0
LTYPE
  2
dashed_dotted
 70
   64
  3
-----------     -     ----------
 72
   65
 73
    4
 40
9.25
 49
6
 49
-1.5
 49
0.25
 49
-1.5
  0
LTYPE
  2
double-dashed_dotted
 70
   64
  3
------   -----------   -   -----
 72
   65
 73
    6
 40
16.75
 49
6
 49
-1.5
 49
6
 49
-1.5
 49
0.25
 49
-1.5
  0
LTYPE
  2
dashed_double-dotted
 70
   64
  3
---------    -    -    ---------
 72
   65
 73
    6
 40
11
 49
6
 49
-1.5
 49
0.25
 49
-1.5
 49
0.25
 49
-1.5
  0
LTYPE
  2
double-dashed_double-dotted
 70
   64
  3
-----   ---------   -   -   ----
 72
   65
 73
    8
 40
18.5
 49
6
 49
-1.5
 49
6
 49
-1.5
 49
0.25
 49
-1.5
 49
0.25
 49
-1.5
  0
LTYPE
  2
dashed_triplicate-dotted
 70
   64
  3
-------    -    -    -    ------
 72
   65
 73
    8
 40
12.75
 49
6
 49
-1.5
 49
0.25
 49
-1.5
 49
0.25
 49
-1.5
 49
0.25
 49
-1.5
  0
LTYPE
  2
double-dashed_triplicate-dotted
 70
   64
  3
-----  ---------  -  -  -  -----
 72
   65
 73
   10
 40
20.25
 49
6
 49
-1.5
 49
6
 49
-1.5
 49
0.25
 49
-1.5
 49
0.25
 49
-1.5
 49
0.25
 49
-1.5
  0
LTYPE
  2
undefined
 70
   64
  3
--------------------------------
 72
   65
 73
    0
 40
0
  0
LTYPE
  2
BORDER
 70
   64
  3
----     --------     -     ----
 72
   65
 73
    6
 40
1.76
 49
0.5
 49
-0.25
 49
0.5
 49
-0.25
 49
0.01
 49
-0.25
  0
LTYPE
  2
BORDER2
 70
   64
  3
----     --------     -     ----
 72
   65
 73
    6
 40
0.885
 49
0.25
 49
-0.125
 49
0.25
 49
-0.125
 49
0.01
 49
-0.125
  0
LTYPE
  2
BORDERX2
 70
   64
  3
----     --------     -     ----
 72
   65
 73
    6
 40
3.5099999999999998
 49
1
 49
-0.5
 49
1
 49
-0.5
 49
0.01
 49
-0.5
  0
LTYPE
  2
CENTER
 70
   64
  3
----------    ----    ----------
 72
   65
 73
    4
 40
2
 49
1.25
 49
-0.25
 49
0.25
 49
-0.25
  0
LTYPE
  2
CENTER2_21
 70
   64
  3
----------    ----    ----------
 72
   65
 73
    4
 40
1.125
 49
0.75
 49
-0.125
 49
0.125
 49
-0.125
  0
LTYPE
  2
CENTERX2
 70
   64
  3
----------    ----    ----------
 72
   65
 73
    4
 40
4
 49
2.5
 49
-0.5
 49
0.5
 49
-0.5
  0
LTYPE
  2
DASHDOT
 70
   64
  3
--------        -        -------
 72
   65
 73
    4
 40
1.01
 49
0.5
 49
-0.25
 49
0.01
 49
-0.25
  0
LTYPE
  2
DASHDOT2
 70
   64
  3
--------        -        -------
 72
   65
 73
    4
 40
0.51
 49
0.25
 49
-0.125
 49
0.01
 49
-0.125
  0
LTYPE
  2
DASHDOTX2
 70
   64
  3
--------        -        -------
 72
   65
 73
    4
 40
2.0099999999999998
 49
1
 49
-0.5
 49
0.01
 49
-0.5
  0
LTYPE
  2
DASHED
 70
   64
  3
------     -----------     -----
 72
   65
 73
    2
 40
0.75
 49
0.5
 49
-0.25
  0
LTYPE
  2
DASHED2_27
 70
   64
  3
------     -----------     -----
 72
   65
 73
    2
 40
0.375
 49
0.25
 49
-0.125
  0
LTYPE
  2
DASHEDX2
 70
   64
  3
------     -----------     -----
 72
   65
 73
    2
 40
1.5
 49
1
 49
-0.5
  0
LTYPE
  2
DIVIDE
 70
   64
  3
------      -      -      ------
 72
   65
 73
    6
 40
1.27
 49
0.5
 49
-0.25
 49
0.01
 49
-0.25
 49
0.01
 49
-0.25
  0
LTYPE
  2
DIVIDE2
 70
   64
  3
------      -      -      ------
 72
   65
 73
    6
 40
0.645
 49
0.25
 49
-0.125
 49
0.01
 49
-0.125
 49
0.01
 49
-0.125
  0
LTYPE
  2
DIVIDEX2
 70
   64
  3
------      -      -      ------
 72
   65
 73
    6
 40
2.5199999999999996
 49
1
 49
-0.5
 49
0.01
 49
-0.5
 49
0.01
 49
-0.5
  0
LTYPE
  2
DOT_32
 70
   64
  3
-               -               
 72
   65
 73
    2
 40
0.26
 49
0.01
 49
-0.25
  0
ENDTAB
  0
TABLE
  2
STYLE
  5
3
100
AcDbSymbolTable
 70
     1
  0
STYLE
  5
10
100
AcDbSymbolTableRecord
100
AcDbTextStyleTableRecord
  2
STANDARD
 70
     0
 40
0.0
 41
1.0
 50
0.0
 71
     0
 42
0.2
  3
txt
  4
bigfont.shx
  0
STYLE
  5
26
100
AcDbSymbolTableRecord
100
AcDbTextStyleTableRecord
  2
TATEGAKI
 70
    68
 40
0.0
 41
1.0
 50
0.0
 71
     0
 42
1.0
  3
txt
  4
bigfont.shx
  0
ENDTAB
  0
TABLE
  2
LAYER
 70
    3
  0
LAYER
  2
_0-0_0
 70
   64
 62
    7
  6
CONTINUOUS
  0
LAYER
  2
_0-2_P-0000
 70
   64
 62
    7
  6
CONTINUOUS
  0
LAYER
  2
ADD_LINE
 70
   64
 62
    7
  6
CONTINUOUS
  0
ENDTAB
  0
ENDSEC
  0
SECTION
  2
BLOCKS
  0
BLOCK
  2
-000-OBJ73
 70
   64
 10
0
 20
0
 30
0
  0
ARC
  8
_0-4__0-1_LAYER_10
  6
CONTINUOUS
 62
    7
 10
-2110.0156800000004
 20
-2935.4863999999993
 40
1462.95028
 50
357.52218099999999
 51
0.5443050000000084
  0
ARC
  8
_0-4__0-1_LAYER_10
  6
CONTINUOUS
 62
    7
 10
-2367.9368400000003
 20
-2987.2051600000009
 40
1959.537
 50
359.66292700000008
 51
1.9189480000000572
  0
ARC
  8
_0-4__0-1_LAYER_10
  6
CONTINUOUS
 62
    7
 10
-2272.7854399999992
 20
-3020.9600399999995
 40
1864.4852800000001
 50
0.68304
 51
3.0551369999999984
  0
ARC
  8
_0-4__0-1_LAYER_10
  6
CONTINUOUS
 62
    7
 10
-1969.84112
 20
-2912.5762400000003
 40
1803.4666000000002
 50
357.26175999999998
 51
359.71368799999999
  0
ENDBLK
  0
BLOCK
  2
-001-OBJ74
 70
   64
 10
0
 20
0
 30
0
  0
ARC
  8
_0-4__0-1_LAYER_10
  6
CONTINUOUS
 62
    7
 10
-2031.6636400000002
 20
-3923.6309200000001
 40
1959.537
 50
359.66292700000008
 51
1.9189480000000572
  0
ARC
  8
_0-4__0-1_LAYER_10
  6
CONTINUOUS
 62
    7
 10
-1633.5679199999995
 20
-3849.002
 40
1803.4666000000002
 50
357.26175999999998
 51
359.71368799999999
  0
ARC
  8
_0-4__0-1_LAYER_10
  6
CONTINUOUS
 62
    7
 10
-1773.7424799999994
 20
-3871.9121599999999
 40
1462.95028
 50
357.52218099999999
 51
0.5443050000000084
  0
ARC
  8
_0-4__0-1_LAYER_10
  6
CONTINUOUS
 62
    7
 10
-1936.5122800000004
 20
-3957.3858
 40
1864.4852800000001
 50
0.68304
 51
3.0551369999999984
  0
ENDBLK
  0
BLOCK
  2
-002-OBJ75
 70
   64
 10
0
 20
0
 30
0
  0
LINE
  8
_0-4__0-1_LAYER_10
  6
CONTINUOUS
 62
    7
 10
320
 20
-10799.998
 11
-320
 21
-10799.998
  0
ENDBLK
  0
BLOCK
  2
-003-OBJ76
 70
   64
 10
0
 20
0
 30
0
  0
LINE
  8
_0-4__0-1_LAYER_10
  6
CONTINUOUS
 62
    7
 10
-240
 20
-10799.998
 11
240
 21
-10799.998
  0
ENDBLK
  0
ENDSEC
  0
SECTION
  2
ENTITIES
  0
INSERT
  2
-000-OBJ73
  8
_0-0_0
 10
1060.9214233875173
 20
752.48727061754107
 41
0.0249999999999999
 42
0.0249999999999999
 50
0
  0
INSERT
  2
-001-OBJ74
  8
_0-0_0
 10
1052.5145933875174
 20
775.897915617541
 41
0.0249999999999999
 42
0.0249999999999999
 50
0
  0
INSERT
  2
-002-OBJ75
  8
_0-0_0
 10
1050.710592387506
 20
947.51888461755152
 41
0.0249999999999999
 42
0.0249999999999999
 50
0
  0
INSERT
  2
-003-OBJ76
  8
_0-0_0
 10
1050.710592387506
 20
947.51888461755152
 41
0.0249999999999999
 42
0.0249999999999999
 50
0
  0
LINE
  8
_0-0_0
  6
CONTINUOUS
 62
    7
 10
1042.710592387506
 20
663.51893461752843
 11
1058.710592387506
 21
663.51893461752843
  0
LINE
  8
_0-0_0
  6
CONTINUOUS
 62
    7
 10
1042.710592387506
 20
666.51893461755026
 11
1058.710592387506
 21
666.51893461755026
  0
LINE
  8
_0-0_0
  6
CONTINUOUS
 62
    7
 10
1042.710592387506
 20
674.51893461753934
 11
1058.710592387506
 21
674.51893461753934
  0
LINE
  8
_0-0_0
  6
CONTINUOUS
 62
    7
 10
1042.710592387506
 20
674.51893461753934
 11
1042.710592387506
 21
666.51893461755026
  0
LINE
  8
_0-0_0
  6
CONTINUOUS
 62
    7
 10
1058.710592387506
 20
666.51893461755026
 11
1058.710592387506
 21
674.51893461753934
  0
ARC
  8
_0-0_0
  6
CONTINUOUS
 62
    7
 10
1042.710592387506
 20
665.01893461753934
 40
1.5
 50
90.000003000000007
 51
270.00000100000005
  0
ARC
  8
_0-0_0
  6
CONTINUOUS
 62
    7
 10
1058.710592387506
 20
665.01893461753934
 40
1.5
 50
270.000001
 51
90.000002999999992
  0
ARC
  8
_0-0_0
  6
CONTINUOUS
 62
    7
 10
1058.710592387506
 20
676.01893461755026
 40
1.5
 50
270.000001
 51
90.000002999999992
  0
ARC
  8
_0-0_0
  6
CONTINUOUS
 62
    7
 10
1042.710592387506
 20
676.01893461755026
 40
1.5
 50
90.000003000000007
 51
270.00000100000005
  0
ARC
  8
_0-0_0
  6
CONTINUOUS
 62
    7
 10
1058.710592387506
 20
820.01888661754856
 40
1.5
 50
270.000001
 51
90.000002999999992
  0
LINE
  8
_0-0_0
  6
CONTINUOUS
 62
    7
 10
1058.710592387506
 20
810.51888661754856
 11
1058.710592387506
 21
818.51888661754856
  0
ARC
  8
_0-0_0
  6
CONTINUOUS
 62
    7
 10
1058.710592387506
 20
809.01888661754856
 40
1.5
 50
270.000001
 51
90.000002999999992
  0
LINE
  8
_0-0_0
  6
CONTINUOUS
 62
    7
 10
1042.710592387506
 20
810.51888661754856
 11
1058.710592387506
 21
810.51888661754856
  0
ARC
  8
_0-0_0
  6
CONTINUOUS
 62
    7
 10
1042.710592387506
 20
809.01888661754856
 40
1.5
 50
90.000003000000007
 51
270.00000100000005
  0
LINE
  8
_0-0_0
  6
CONTINUOUS
 62
    7
 10
1042.710592387506
 20
818.51888661754856
 11
1042.710592387506
 21
810.51888661754856
  0
LINE
  8
_0-0_0
  6
CONTINUOUS
 62
    7
 10
1042.710592387506
 20
818.51888661754856
 11
1058.710592387506
 21
818.51888661754856
  0
ARC
  8
_0-0_0
  6
CONTINUOUS
 62
    7
 10
1042.710592387506
 20
820.01888661754856
 40
1.5
 50
90.000003000000007
 51
270.00000100000005
  0
LINE
  8
_0-0_0
  6
CONTINUOUS
 62
    7
 10
1042.710592387506
 20
807.51888661754856
 11
1058.710592387506
 21
807.51888661754856
  0
LINE
  8
_0-0_0
  6
CONTINUOUS
 62
    7
 10
1058.710592387506
 20
821.51888661753037
 11
1042.710592387506
 21
821.51888661753037
  0
LINE
  8
_0-0_0
  6
CONTINUOUS
 62
    7
 10
1044.710592387506
 20
821.51888661753037
 11
1056.710592387506
 21
821.51888661753037
  0
ARC
  8
_0-0_0
  6
CONTINUOUS
 62
    7
 10
1008.1710303875079
 20
679.10011161755028
 40
36.573757000000001
 50
357.52218099999919
 51
0.5443050000004554
  0
ARC
  8
_0-0_0
  6
CONTINUOUS
 62
    7
 10
1001.7230023875163
 20
677.80714261754838
 40
48.988424999999999
 50
359.66292700000059
 51
1.9189480000004957
  0
ARC
  8
_0-0_0
  6
CONTINUOUS
 62
    7
 10
1004.1017863875168
 20
676.96327061755073
 40
46.612131999999995
 50
0.6830399999996646
 51
3.0551370000006144
  0
ARC
  8
_0-0_0
  6
CONTINUOUS
 62
    7
 10
1011.6753943875156
 20
679.672865617551
 40
45.086665000000004
 50
357.26176000000032
 51
359.71368799999988
  0
ARC
  8
_0-0_0
  6
CONTINUOUS
 62
    7
 10
1001.7230023875163
 20
677.80714261754838
 40
48.988424999999999
 50
359.66292700000059
 51
1.9189480000004957
  0
ARC
  8
_0-0_0
  6
CONTINUOUS
 62
    7
 10
1011.6753943875156
 20
679.672865617551
 40
45.086665000000004
 50
357.26176000000032
 51
359.71368799999988
  0
ARC
  8
_0-0_0
  6
CONTINUOUS
 62
    7
 10
1008.1710303875079
 20
679.10011161755028
 40
36.573757000000001
 50
357.52218099999919
 51
0.5443050000004554
  0
ARC
  8
_0-0_0
  6
CONTINUOUS
 62
    7
 10
1004.1017863875168
 20
676.96327061755073
 40
46.612131999999995
 50
0.6830399999996646
 51
3.0551370000006144
  0
LINE
  8
_0-0_0
  6
CONTINUOUS
 62
    7
 10
1058.710592387506
 20
677.51893461755026
 11
1042.710592387506
 21
677.51893461755026
  0
LINE
  8
_0-0_0
  6
CONTINUOUS
 62
    7
 10
1044.710592387506
 20
677.51893461755026
 11
1056.710592387506
 21
677.51893461755026
  0
ARC
  8
_0-0_0
  6
CONTINUOUS
 62
    7
 10
1008.1710303875079
 20
805.93770961754853
 40
36.573757000000001
 50
321.60161500000009
 51
2.4778389999996278
  0
ARC
  8
_0-0_0
  6
CONTINUOUS
 62
    7
 10
1058.2126483875181
 20
760.35506961755164
 40
31.302976000000001
 50
133.07458399999999
 51
150.32149399999955
  0
ARC
  8
_0-0_0
  6
CONTINUOUS
 62
    7
 10
1058.2126483875181
 20
760.35506961755164
 40
31.302976000000001
 50
133.07458399999999
 51
150.32149399999955
  0
ARC
  8
_0-0_0
  6
CONTINUOUS
 62
    7
 10
1059.251535387506
 20
762.52947661755024
 40
31.221621999999996
 50
154.73666499999939
 51
178.03032900000053
  0
ARC
  8
_0-0_0
  6
CONTINUOUS
 62
    7
 10
1059.251535387506
 20
762.52947661755024
 40
31.221621999999996
 50
154.73666499999939
 51
178.03032900000053
  0
ARC
  8
_0-0_0
  6
CONTINUOUS
 62
    7
 10
1050.1209813875175
 20
767.54284361753162
 40
20.834492999999995
 50
156.48910099999972
 51
187.19745300000073
  0
ARC
  8
_0-0_0
  6
CONTINUOUS
 62
    7
 10
1001.7230173875068
 20
807.23073961754926
 40
48.988428999999989
 50
319.11646499999978
 51
0.3370299999994628
  0
ARC
  8
_0-0_0
  6
CONTINUOUS
 62
    7
 10
1051.8855113875179
 20
768.29711661754845
 40
15.666495999999999
 50
149.36178399999949
 51
163.73575399999973
  0
ARC
  8
_0-0_0
  6
CONTINUOUS
 62
    7
 10
1004.1017713875044
 20
808.0745816175513
 40
46.612131999999995
 50
324.33292600000061
 51
359.31696400000033
  0
ARC
  8
_0-0_0
  6
CONTINUOUS
 62
    7
 10
351.350621387508
 20
1330.0401196175517
 40
882.33476499999995
 50
321.2234959999999
 51
321.51014600000047
  0
LINE
  8
_0-0_0
  6
CONTINUOUS
 62
    7
 10
1044.710592387506
 20
807.51891761752995
 11
1056.710592387506
 21
807.51891761752995
  0
ARC
  8
_0-0_0
  6
CONTINUOUS
 62
    7
 10
1128.1471303875078
 20
806.28466461754942
 40
71.447203999999999
 50
181.89461800000009
 51
195.15342200000001
  0
ARC
  8
_0-0_0
  6
CONTINUOUS
 62
    7
 10
987.8827313875081
 20
802.49984361754105
 40
69.010633999999968
 50
341.81424900000042
 51
358.92053999999939
  0
ARC
  8
_0-0_0
  6
CONTINUOUS
 62
    7
 10
1011.6753943875156
 20
805.36501761755062
 40
45.086665000000004
 50
320.09889200000032
 51
2.7381819999998482
  0
ARC
  8
_0-0_0
  6
CONTINUOUS
 62
    7
 10
351.350621387508
 20
1330.0401196175517
 40
882.33476499999995
 50
321.2234959999999
 51
321.51014600000047
  0
ARC
  8
_0-0_0
  6
CONTINUOUS
 62
    7
 10
983.95260138750746
 20
815.46166661754978
 40
68.026258999999982
 50
312.709092
 51
323.6764359999998
  0
ARC
  8
_0-0_0
  6
CONTINUOUS
 62
    7
 10
1045.4006943875065
 20
746.71023261754817
 40
24.216836999999998
 50
129.20533600000056
 51
179.36845799999961
  0
ARC
  8
_0-0_0
  6
CONTINUOUS
 62
    7
 10
1034.2251913875079
 20
747.56814261755062
 40
13.053248
 50
182.59509400000053
 51
233.40021299999952
  0
ARC
  8
_0-0_0
  6
CONTINUOUS
 62
    7
 10
1037.7777353875063
 20
747.20068061754864
 40
13.912072999999998
 50
151.43582599999931
 51
218.74951199999953
  0
ARC
  8
_0-0_0
  6
CONTINUOUS
 62
    7
 10
1049.3953683875079
 20
739.96297961755045
 40
27.587939999999996
 50
127.9738260000002
 51
149.77028399999935
  0
ARC
  8
_0-0_0
  6
CONTINUOUS
 62
    7
 10
612.71218938750837
 20
1169.9378876175288
 40
585.49535300000002
 50
315.79445199999998
 51
317.77291199999979
  0
ARC
  8
_0-0_0
  6
CONTINUOUS
 62
    7
 10
1041.2954313875089
 20
749.06191761753144
 40
10.982367
 50
139.84177100000022
 51
199.76732400000006
  0
ARC
  8
_0-0_0
  6
CONTINUOUS
 62
    7
 10
1046.3570993875182
 20
762.25857261754936
 40
17.278248999999995
 50
209.66633100000058
 51
227.56355700000026
  0
ARC
  8
_0-0_0
  6
CONTINUOUS
 62
    7
 10
1062.3918243875087
 20
785.89428361754835
 40
41.740992999999989
 50
229.21587600000049
 51
233.66331200000013
  0
ARC
  8
_0-0_0
  6
CONTINUOUS
 62
    7
 10
1418.9125863875088
 20
413.43588461754916
 40
516.19133799999963
 50
136.4713049999998
 51
138.40064199999969
  0
ARC
  8
_0-0_0
  6
CONTINUOUS
 62
    7
 10
1051.8855113875179
 20
768.29711661754845
 40
15.666495999999999
 50
205.57810699999959
 51
232.37185999999986
  0
ARC
  8
_0-0_0
  6
CONTINUOUS
 62
    7
 10
1062.3918243875087
 20
785.89428361754835
 40
41.740992999999989
 50
229.21587600000049
 51
233.66331200000013
  0
ARC
  8
_0-0_0
  6
CONTINUOUS
 62
    7
 10
1074.2732503875086
 20
787.28390161754942
 40
31.370638999999997
 50
210.610536
 51
231.23176500000031
  0
ARC
  8
_0-0_0
  6
CONTINUOUS
 62
    7
 10
1077.8029993875025
 20
785.83785661754882
 40
32.185512000000003
 50
204.27401900000038
 51
225.02071900000041
  0
ARC
  8
_0-0_0
  6
CONTINUOUS
 62
    7
 10
1077.9986363875068
 20
786.44369161755094
 40
25.807915999999995
 50
194.62839900000029
 51
229.07182699999973
  0
ARC
  8
_0-0_0
  6
CONTINUOUS
 62
    7
 10
1027.0797673875059
 20
791.02322061753148
 40
28.220990999999998
 50
308.52855100000011
 51
339.11307299999919
  0
ARC
  8
_0-0_0
  6
CONTINUOUS
 62
    7
 10
1087.5034063875064
 20
803.74050561754848
 40
40.170580999999963
 50
212.86139700000061
 51
230.35351200000011
  0
ARC
  8
_0-0_0
  6
CONTINUOUS
 62
    7
 10
1077.8029993875025
 20
785.83785661754882
 40
32.185512000000003
 50
204.27401900000038
 51
225.02071900000041
  0
ARC
  8
_0-0_0
  6
CONTINUOUS
 62
    7
 10
1087.5034063875064
 20
803.74050561754848
 40
40.170580999999963
 50
212.86139700000061
 51
230.35351200000011
  0
ARC
  8
_0-0_0
  6
CONTINUOUS
 62
    7
 10
1087.5034063875064
 20
803.74050561754848
 40
40.170580999999963
 50
212.86139700000061
 51
230.35351200000011
  0
ARC
  8
_0-0_0
  6
CONTINUOUS
 62
    7
 10
1077.9986363875068
 20
786.44369161755094
 40
25.807915999999995
 50
194.62839900000029
 51
229.07182699999973
  0
ARC
  8
_0-0_0
  6
CONTINUOUS
 62
    7
 10
1077.9986363875068
 20
786.44369161755094
 40
25.807915999999995
 50
194.62839900000029
 51
229.07182699999973
  0
ARC
  8
_0-0_0
  6
CONTINUOUS
 62
    7
 10
983.95260138750746
 20
815.46166661754978
 40
68.026258999999982
 50
312.709092
 51
323.6764359999998
  0
ARC
  8
_0-0_0
  6
CONTINUOUS
 62
    7
 10
612.71218938750837
 20
1169.9378876175288
 40
585.49535300000002
 50
315.79445199999998
 51
317.77291199999979
  0
ARC
  8
_0-0_0
  6
CONTINUOUS
 62
    7
 10
1058.6753023875062
 20
768.66573761752807
 40
10.961838999999998
 50
309.20520500000021
 51
39.49354700000049
  0
ARC
  8
_0-0_0
  6
CONTINUOUS
 62
    7
 10
1058.6753023875062
 20
768.66573761752807
 40
10.961838999999998
 50
309.20520500000021
 51
39.49354700000049
  0
ARC
  8
_0-0_0
  6
CONTINUOUS
 62
    7
 10
1060.1653883875042
 20
772.00036361754974
 40
7.8610550000000003
 50
298.85541899999998
 51
43.313822000000457
  0
ARC
  8
_0-0_0
  6
CONTINUOUS
 62
    7
 10
1059.1771223875185
 20
771.30971961755131
 40
4.7438729999999989
 50
295.11337699999979
 51
46.522679000000203
  0
ARC
  8
_0-0_0
  6
CONTINUOUS
 62
    7
 10
1087.5034063875064
 20
803.74050561754848
 40
40.170580999999963
 50
212.86139700000061
 51
230.35351200000011
  0
ARC
  8
_0-0_0
  6
CONTINUOUS
 62
    7
 10
1114.183911387503
 20
816.38195461755095
 40
62.071783999999994
 50
207.6169729999998
 51
218.9120439999999
  0
ARC
  8
_0-0_0
  6
CONTINUOUS
 62
    7
 10
1101.4499543875063
 20
808.19109761753134
 40
51.445585999999992
 50
205.3054869999996
 51
219.17809299999973
  0
ARC
  8
_0-0_0
  6
CONTINUOUS
 62
    7
 10
1009.765513387516
 20
840.31063461754093
 40
89.537008999999983
 50
295.38483600000018
 51
305.05362399999979
  0
ARC
  8
_0-0_0
  6
CONTINUOUS
 62
    7
 10
1009.765513387516
 20
840.31063461754093
 40
89.537008999999983
 50
295.38483600000018
 51
305.05362399999979
  0
ARC
  8
_0-0_0
  6
CONTINUOUS
 62
    7
 10
1073.624923387506
 20
710.76189961754062
 40
54.922252
 50
117.63530999999971
 51
143.40163800000019
  0
ARC
  8
_0-0_0
  6
CONTINUOUS
 62
    7
 10
1074.8157693875182
 20
699.54922261754837
 40
63.005065000000002
 50
113.9564399999998
 51
131.7989369999998
  0
ARC
  8
_0-0_0
  6
CONTINUOUS
 62
    7
 10
1032.7491703875057
 20
805.07967761754844
 40
50.707098999999999
 50
288.97044099999988
 51
307.98787400000049
  0
ARC
  8
_0-0_0
  6
CONTINUOUS
 62
    7
 10
1042.4687483875023
 20
786.41616461754893
 40
34.986193999999998
 50
287.59566099999989
 51
311.39725800000031
  0
ARC
  8
_0-0_0
  6
CONTINUOUS
 62
    7
 10
1085.7355683875066
 20
798.28231461755058
 40
58.975046999999982
 50
232.60946900000025
 51
246.79861300000013
  0
ARC
  8
_0-0_0
  6
CONTINUOUS
 62
    7
 10
1112.6308103875053
 20
853.15316361753867
 40
125.30206099999999
 50
236.9905710000001
 51
243.46370499999972
  0
ARC
  8
_0-0_0
  6
CONTINUOUS
 62
    7
 10
1111.5820553875164
 20
868.20580561754832
 40
141.55174
 50
240.00325800000019
 51
245.7774179999999
  0
ARC
  8
_0-0_0
  6
CONTINUOUS
 62
    7
 10
1091.2768793875148
 20
676.55224461754915
 40
85.534598000000003
 50
116.5498149999996
 51
129.04500399999981
  0
ARC
  8
_0-0_0
  6
CONTINUOUS
 62
    7
 10
1062.3275393875156
 20
768.71361961754883
 40
39.681040999999993
 50
225.8586459999996
 51
244.71832900000032
  0
ARC
  8
_0-0_0
  6
CONTINUOUS
 62
    7
 10
1046.8762303875046
 20
733.62148761752906
 40
14.08892
 50
157.50205899999969
 51
230.2192579999998
  0
ARC
  8
_0-0_0
  6
CONTINUOUS
 62
    7
 10
1046.4976523875157
 20
731.31530561755062
 40
14.797623999999999
 50
127.957187
 51
227.47495600000042
  0
ARC
  8
_0-0_0
  6
CONTINUOUS
 62
    7
 10
1044.8397843875064
 20
731.51617161753165
 40
19.222689999999997
 50
128.69700599999999
 51
238.37065099999964
  0
ARC
  8
_0-0_0
  6
CONTINUOUS
 62
    7
 10
1081.5053553875041
 20
810.92937861754035
 40
91.880094999999983
 50
237.98807900000003
 51
244.25786500000032
  0
ARC
  8
_0-0_0
  6
CONTINUOUS
 62
    7
 10
1081.5053553875041
 20
810.92937861754035
 40
91.880094999999983
 50
237.98807900000003
 51
244.25786500000032
  0
ARC
  8
_0-0_0
  6
CONTINUOUS
 62
    7
 10
1081.5053553875041
 20
810.92937861754035
 40
91.880094999999983
 50
237.98807900000003
 51
244.25786500000032
  0
ARC
  8
_0-0_0
  6
CONTINUOUS
 62
    7
 10
1082.2810203875051
 20
695.87795861755149
 40
51.938273999999979
 50
114.39485000000001
 51
151.1382349999997
  0
ARC
  8
_0-0_0
  6
CONTINUOUS
 62
    7
 10
1097.1912773875156
 20
667.03622261754936
 40
76.210517000000024
 50
118.29204599999971
 51
130.9660359999998
  0
ARC
  8
_0-0_0
  6
CONTINUOUS
 62
    7
 10
1004.3991343875168
 20
840.25698461753927
 40
116.727476
 50
297.54637200000025
 51
307.98369400000047
  0
ARC
  8
_0-0_0
  6
CONTINUOUS
 62
    7
 10
1004.3991343875168
 20
840.25698461753927
 40
116.727476
 50
297.54637200000025
 51
307.98369400000047
  0
ARC
  8
_0-0_0
  6
CONTINUOUS
 62
    7
 10
909.69224238750758
 20
495.5121166175486
 40
302.82088800000002
 50
57.701143999999957
 51
59.829410999999958
  0
ARC
  8
_0-0_0
  6
CONTINUOUS
 62
    7
 10
909.69224238750758
 20
495.5121166175486
 40
302.82088800000002
 50
57.701143999999957
 51
59.829410999999958
  0
ARC
  8
_0-0_0
  6
CONTINUOUS
 62
    7
 10
1004.3991343875168
 20
840.25698461753927
 40
116.727476
 50
297.54637200000025
 51
307.98369400000047
  0
ARC
  8
_0-0_0
  6
CONTINUOUS
 62
    7
 10
1036.2095433875074
 20
791.05044261752846
 40
53.831110999999993
 50
297.2163919999997
 51
305.76363600000002
  0
ARC
  8
_0-0_0
  6
CONTINUOUS
 62
    7
 10
1094.6022553875082
 20
805.9648706175285
 40
57.917673999999991
 50
238.33688300000011
 51
245.57524399999977
  0
ARC
  8
_0-0_0
  6
CONTINUOUS
 62
    7
 10
1068.6737533875057
 20
747.46816761753871
 40
11.648540999999998
 50
38.401580999999631
 51
72.870537000000184
  0
ARC
  8
_0-0_0
  6
CONTINUOUS
 62
    7
 10
1073.6303063875166
 20
752.30135861755116
 40
4.814430999999999
 50
302.78900699999957
 51
29.935377000000049
  0
ARC
  8
_0-0_0
  6
CONTINUOUS
 62
    7
 10
1070.7201323875051
 20
747.04592661754941
 40
10.070091999999999
 50
14.640011999999825
 51
19.545046999999872
  0
ARC
  8
_0-0_0
  6
CONTINUOUS
 62
    7
 10
1070.8742273875177
 20
751.75375061752857
 40
10.224633000000001
 50
295.49059499999993
 51
318.70635299999992
  0
ARC
  8
_0-0_0
  6
CONTINUOUS
 62
    7
 10
1015.8559973875017
 20
826.99544861754839
 40
103.27591599999998
 50
295.96354400000013
 51
305.12329199999948
  0
ARC
  8
_0-0_0
  6
CONTINUOUS
 62
    7
 10
1015.8559973875017
 20
826.99544861754839
 40
103.27591599999998
 50
295.96354400000013
 51
305.12329199999948
  0
ARC
  8
_0-0_0
  6
CONTINUOUS
 62
    7
 10
1097.1912773875156
 20
667.03622261754936
 40
76.210517000000024
 50
118.29204599999971
 51
130.9660359999998
  0
ARC
  8
_0-0_0
  6
CONTINUOUS
 62
    7
 10
1012.3871413875022
 20
646.75512561755022
 40
90.949850999999995
 50
57.600782000000159
 51
64.05196400000014
  0
ARC
  8
_0-0_0
  6
CONTINUOUS
 62
    7
 10
1032.2126563875063
 20
689.33379961752871
 40
38.502658000000011
 50
49.739038999999998
 51
66.790944999999709
  0
ARC
  8
_0-0_0
  6
CONTINUOUS
 62
    7
 10
1032.2126563875063
 20
689.33379961752871
 40
38.502658000000011
 50
49.739038999999998
 51
66.790944999999709
  0
ARC
  8
_0-0_0
  6
CONTINUOUS
 62
    7
 10
1086.1077853535171
 20
698.58128417365151
 40
35.31149991868859
 50
124.731564594129
 51
173.28216208510389
  0
ARC
  8
_0-0_0
  6
CONTINUOUS
 62
    7
 10
1036.168283387502
 20
699.29636961755023
 40
27.196698999999999
 50
42.170250000000557
 51
66.787166999999783
  0
ARC
  8
_0-0_0
  6
CONTINUOUS
 62
    7
 10
1024.8959293875159
 20
692.72970361755142
 40
31.214587999999996
 50
29.393354000000244
 51
55.088418999999682
  0
ARC
  8
_0-0_0
  6
CONTINUOUS
 62
    7
 10
1000.6362403875173
 20
679.94506661752894
 40
50.133085999999992
 50
357.22613400000029
 51
31.106340999999436
  0
ARC
  8
_0-0_0
  6
CONTINUOUS
 62
    7
 10
1000.6362403875173
 20
679.94506661752894
 40
50.133085999999992
 50
357.22613400000029
 51
31.106340999999436
  0
ARC
  8
_0-0_0
  6
CONTINUOUS
 62
    7
 10
1056.9593103875159
 20
712.91175661754824
 40
15.196436999999998
 50
129.82518899999971
 51
201.44970900000033
  0
ARC
  8
_0-0_0
  6
CONTINUOUS
 62
    7
 10
1085.0429983875074
 20
687.34683061754913
 40
56.14887499999999
 50
118.34844999999959
 51
145.29973399999969
  0
ARC
  8
_0-0_0
  6
CONTINUOUS
 62
    7
 10
1049.8181133875041
 20
710.27018561754812
 40
14.190550999999997
 50
140.42168200000032
 51
220.89065400000004
  0
ARC
  8
_0-0_0
  6
CONTINUOUS
 62
    7
 10
1049.8181133875041
 20
710.27018561754812
 40
14.190550999999997
 50
140.42168200000032
 51
220.89065400000004
  0
ARC
  8
_0-0_0
  6
CONTINUOUS
 62
    7
 10
1051.1053673875067
 20
712.66952261752886
 40
16.533339999999995
 50
149.95087500000022
 51
219.34226300000012
  0
ARC
  8
_0-0_0
  6
CONTINUOUS
 62
    7
 10
1000.6362403875173
 20
679.94506661752894
 40
50.133085999999992
 50
357.22613400000029
 51
31.106340999999436
  0
ARC
  8
_0-0_0
  6
CONTINUOUS
 62
    7
 10
1000.6362403875173
 20
679.94506661752894
 40
50.133085999999992
 50
357.22613400000029
 51
31.106340999999436
  0
ARC
  8
_0-0_0
  6
CONTINUOUS
 62
    7
 10
1009.244303387517
 20
681.6291486175287
 40
35.703670000000002
 50
6.6105350000008061
 51
29.880766000000019
  0
ARC
  8
_0-0_0
  6
CONTINUOUS
 62
    7
 10
1009.244303387517
 20
681.6291486175287
 40
35.703670000000002
 50
6.6105350000008061
 51
29.880766000000019
  0
ARC
  8
_0-0_0
  6
CONTINUOUS
 62
    7
 10
1009.244303387517
 20
681.6291486175287
 40
35.703670000000002
 50
6.6105350000008061
 51
29.880766000000019
  0
ARC
  8
_0-0_0
  6
CONTINUOUS
 62
    7
 10
1009.244303387517
 20
681.6291486175287
 40
35.703670000000002
 50
6.6105350000008061
 51
29.880766000000019
  0
ARC
  8
_0-0_0
  6
CONTINUOUS
 62
    7
 10
1009.244303387517
 20
681.6291486175287
 40
35.703670000000002
 50
6.6105350000008061
 51
29.880766000000019
  0
ARC
  8
_0-0_0
  6
CONTINUOUS
 62
    7
 10
1009.244303387517
 20
681.6291486175287
 40
35.703670000000002
 50
6.6105350000008061
 51
29.880766000000019
  0
ARC
  8
_0-0_0
  6
CONTINUOUS
 62
    7
 10
1009.244303387517
 20
681.6291486175287
 40
35.703670000000002
 50
6.6105350000008061
 51
29.880766000000019
  0
ARC
  8
_0-0_0
  6
CONTINUOUS
 62
    7
 10
1009.244303387517
 20
681.6291486175287
 40
35.703670000000002
 50
6.6105350000008061
 51
29.880766000000019
  0
ARC
  8
_0-0_0
  6
CONTINUOUS
 62
    7
 10
1009.244303387517
 20
681.6291486175287
 40
35.703670000000002
 50
6.6105350000008061
 51
29.880766000000019
  0
ARC
  8
_0-0_0
  6
CONTINUOUS
 62
    7
 10
1000.6362403875173
 20
679.94506661752894
 40
50.133085999999992
 50
357.22613400000029
 51
31.106340999999436
  0
ARC
  8
_0-0_0
  6
CONTINUOUS
 62
    7
 10
1000.6362403875173
 20
679.94506661752894
 40
50.133085999999992
 50
357.22613400000029
 51
31.106340999999436
  0
ARC
  8
_0-0_0
  6
CONTINUOUS
 62
    7
 10
1000.6362403875173
 20
679.94506661752894
 40
50.133085999999992
 50
357.22613400000029
 51
31.106340999999436
  0
ARC
  8
_0-0_0
  6
CONTINUOUS
 62
    7
 10
1000.6362403875173
 20
679.94506661752894
 40
50.133085999999992
 50
357.22613400000029
 51
31.106340999999436
  0
ARC
  8
_0-0_0
  6
CONTINUOUS
 62
    7
 10
1000.6362403875173
 20
679.94506661752894
 40
50.133085999999992
 50
357.22613400000029
 51
31.106340999999436
  0
ARC
  8
_0-0_0
  6
CONTINUOUS
 62
    7
 10
1000.6362403875173
 20
679.94506661752894
 40
50.133085999999992
 50
357.22613400000029
 51
31.106340999999436
  0
ARC
  8
_0-0_0
  6
CONTINUOUS
 62
    7
 10
1000.6362403875173
 20
679.94506661752894
 40
50.133085999999992
 50
357.22613400000029
 51
31.106340999999436
  0
ARC
  8
_0-0_0
  6
CONTINUOUS
 62
    7
 10
1000.6362403875173
 20
679.94506661752894
 40
50.133085999999992
 50
357.22613400000029
 51
31.106340999999436
  0
ARC
  8
_0-0_0
  6
CONTINUOUS
 62
    7
 10
1009.244303387517
 20
681.6291486175287
 40
35.703670000000002
 50
6.6105350000008061
 51
29.880766000000019
  0
ARC
  8
_0-0_0
  6
CONTINUOUS
 62
    7
 10
1009.244303387517
 20
681.6291486175287
 40
35.703670000000002
 50
6.6105350000008061
 51
29.880766000000019
  0
LINE
  8
_0-0_0
  6
CONTINUOUS
 62
    7
 10
1044.710592387506
 20
685.73934761754936
 11
1044.710592387506
 21
677.51891961754882
  0
LINE
  8
_0-0_0
  6
CONTINUOUS
 62
    7
 10
1044.710592387506
 20
685.73934761754936
 11
1044.710592387506
 21
677.51891961754882
  0
LINE
  8
_0-0_0
  6
CONTINUOUS
 62
    7
 10
1044.710592387506
 20
685.73934761754936
 11
1044.710592387506
 21
677.51891961754882
  0
LINE
  8
_0-0_0
  6
CONTINUOUS
 62
    7
 10
1044.710592387506
 20
685.73934761754936
 11
1044.710592387506
 21
677.51891961754882
  0
LINE
  8
_0-0_0
  6
CONTINUOUS
 62
    7
 10
1044.710592387506
 20
685.73934761754936
 11
1044.710592387506
 21
677.51891961754882
  0
LINE
  8
_0-0_0
  6
CONTINUOUS
 62
    7
 10
1044.710592387506
 20
685.73934761754936
 11
1044.710592387506
 21
677.51891961754882
  0
ARC
  8
_0-0_0
  6
CONTINUOUS
 62
    7
 10
1000.6362403875173
 20
679.94506661752894
 40
50.133085999999992
 50
357.22613400000029
 51
31.106340999999436
  0
ARC
  8
_0-0_0
  6
CONTINUOUS
 62
    7
 10
1000.6362403875173
 20
679.94506661752894
 40
50.133085999999992
 50
357.22613400000029
 51
31.106340999999436
  0
ARC
  8
_0-0_0
  6
CONTINUOUS
 62
    7
 10
1000.6362403875173
 20
679.94506661752894
 40
50.133085999999992
 50
357.22613400000029
 51
31.106340999999436
  0
ARC
  8
_0-0_0
  6
CONTINUOUS
 62
    7
 10
1000.6362403875173
 20
679.94506661752894
 40
50.133085999999992
 50
357.22613400000029
 51
31.106340999999436
  0
ARC
  8
_0-0_0
  6
CONTINUOUS
 62
    7
 10
1000.6362403875173
 20
679.94506661752894
 40
50.133085999999992
 50
357.22613400000029
 51
31.106340999999436
  0
ARC
  8
_0-0_0
  6
CONTINUOUS
 62
    7
 10
1000.6362403875173
 20
679.94506661752894
 40
50.133085999999992
 50
357.22613400000029
 51
31.106340999999436
  0
ARC
  8
_0-0_0
  6
CONTINUOUS
 62
    7
 10
1000.6362403875173
 20
679.94506661752894
 40
50.133085999999992
 50
357.22613400000029
 51
31.106340999999436
  0
ARC
  8
_0-0_0
  6
CONTINUOUS
 62
    7
 10
1000.6362403875173
 20
679.94506661752894
 40
50.133085999999992
 50
357.22613400000029
 51
31.106340999999436
  0
ARC
  8
_0-0_0
  6
CONTINUOUS
 62
    7
 10
1000.6362403875173
 20
679.94506661752894
 40
50.133085999999992
 50
357.22613400000029
 51
31.106340999999436
  0
LINE
  8
_0-0_0
  6
CONTINUOUS
 62
    7
 10
1044.710592387506
 20
685.73934761754936
 11
1044.710592387506
 21
677.51891961754882
  0
LINE
  8
_0-0_0
  6
CONTINUOUS
 62
    7
 10
1044.710592387506
 20
677.51891961754882
 11
1056.710592387506
 21
677.51891961754882
  0
LINE
  8
_0-0_0
  6
CONTINUOUS
 62
    7
 10
1044.710592387506
 20
677.51891961754882
 11
1056.710592387506
 21
677.51891961754882
  0
LINE
  8
_0-0_0
  6
CONTINUOUS
 62
    7
 10
1044.710592387506
 20
677.51891961754882
 11
1056.710592387506
 21
677.51891961754882
  0
ARC
  8
_0-0_0
  6
CONTINUOUS
 62
    7
 10
1064.6886693875058
 20
730.93797061753139
 40
10.246707999999998
 50
309.32164600000038
 51
25.328045999999986
  0
ARC
  8
_0-0_0
  6
CONTINUOUS
 62
    7
 10
1065.9119963875055
 20
731.5785196175384
 40
3.5106959999999976
 50
322.68469199999981
 51
41.694339999999883
  0
ARC
  8
_0-0_0
  6
CONTINUOUS
 62
    7
 10
1048.4310433875071
 20
756.29543761752939
 40
33.640106000000003
 50
301.46351300000009
 51
307.05959600000023
  0
ARC
  8
_0-0_0
  6
CONTINUOUS
 62
    7
 10
1066.7033553875153
 20
730.3464176175512
 40
2.1922410000000001
 50
335.87348699999973
 51
65.554488999999663
  0
ARC
  8
_0-0_0
  6
CONTINUOUS
 62
    7
 10
1058.0221883875056
 20
760.78109461754866
 40
16.521248
 50
305.7330369999998
 51
322.91454199999998
  0
ARC
  8
_0-0_0
  6
CONTINUOUS
 62
    7
 10
1069.920412387517
 20
751.79562061755132
 40
1.6113159999999991
 50
322.67791700000032
 51
62.941155999999701
  0
ARC
  8
_0-0_0
  6
CONTINUOUS
 62
    7
 10
1093.241326387506
 20
797.64541261754857
 40
44.399367999999988
 50
234.016324
 51
241.57168799999977
  0
ARC
  8
_0-0_0
  6
CONTINUOUS
 62
    7
 10
1094.6022553875082
 20
805.9648706175285
 40
57.917673999999991
 50
238.33688300000011
 51
245.57524399999977
  0
ARC
  8
_0-0_0
  6
CONTINUOUS
 62
    7
 10
1077.8029993875025
 20
785.83785661754882
 40
32.185512000000003
 50
241.26864600000025
 51
244.99817499999978
  0
ARC
  8
_0-0_0
  6
CONTINUOUS
 62
    7
 10
1077.9986363875068
 20
786.44369161755094
 40
25.807915999999995
 50
194.62839900000029
 51
229.07182699999973
  0
ARC
  8
_0-0_0
  6
CONTINUOUS
 62
    7
 10
1060.2811563875148
 20
769.46670261754116
 40
3.702166999999998
 50
15.67856299999935
 51
64.540615999999716
  0
ARC
  8
_0-0_0
  6
CONTINUOUS
 62
    7
 10
1087.5034063875064
 20
803.74050561754848
 40
40.170580999999963
 50
212.86139700000061
 51
230.35351200000011
  0
ARC
  8
_0-0_0
  6
CONTINUOUS
 62
    7
 10
1114.183911387503
 20
816.38195461755095
 40
62.071783999999994
 50
207.6169729999998
 51
218.9120439999999
  0
ARC
  8
_0-0_0
  6
CONTINUOUS
 62
    7
 10
1058.6753023875062
 20
768.66573761752807
 40
10.961838999999998
 50
309.20520500000021
 51
39.49354700000049
  0
ARC
  8
_0-0_0
  6
CONTINUOUS
 62
    7
 10
1067.1392153875058
 20
745.86489561754934
 40
13.840044000000001
 50
19.193117000000484
 51
38.908559000000139
  0
ARC
  8
_0-0_0
  6
CONTINUOUS
 62
    7
 10
1068.8885663875044
 20
753.38998161753989
 40
12.796571999999998
 50
319.06909099999967
 51
332.2785120000006
  0
ARC
  8
_0-0_0
  6
CONTINUOUS
 62
    7
 10
1070.7201323875051
 20
747.04592661754941
 40
10.070091999999999
 50
14.640011999999825
 51
19.545046999999872
  0
ARC
  8
_0-0_0
  6
CONTINUOUS
 62
    7
 10
1051.3673683875168
 20
717.67519961752987
 40
28.659825999999992
 50
38.003974999999457
 51
48.733437000000201
  0
ARC
  8
_0-0_0
  6
CONTINUOUS
 62
    7
 10
1069.3219083875083
 20
782.00857261754936
 40
10
 50
219.17809299999979
 51
226.52262300000041
  0
ARC
  8
_0-0_0
  6
CONTINUOUS
 62
    7
 10
1047.0100423875047
 20
771.18484161754895
 40
10
 50
141.2234640000004
 51
149.36173000000039
  0
ARC
  8
_0-0_0
  6
CONTINUOUS
 62
    7
 10
1044.7455583875053
 20
766.08239461755147
 40
15.218968
 50
219.86579699999984
 51
230.7972560000002
  0
ARC
  8
_0-0_0
  6
CONTINUOUS
 62
    7
 10
1077.5606783875046
 20
748.83285261752826
 40
3
 50
332.27853999999979
 51
14.640092000000408
  0
ARC
  8
_0-0_0
  6
CONTINUOUS
 62
    7
 10
1072.1592133875019
 20
792.4129296175488
 40
70.681266000000022
 50
236.14930999999979
 51
244.64934399999981
  0
ARC
  8
_0-0_0
  6
CONTINUOUS
 62
    7
 10
1045.1220303875161
 20
732.44106761752846
 40
19.118409999999997
 50
144.6343779999994
 51
158.2779539999998
  0
ARC
  8
_0-0_0
  6
CONTINUOUS
 62
    7
 10
1091.7660123875175
 20
687.93429361754897
 40
40.670569999999998
 50
120.40586700000031
 51
161.99641900000071
  0
ARC
  8
_0-0_0
  6
CONTINUOUS
 62
    7
 10
1103.6243683875146
 20
710.10598561754887
 40
34.104747000000003
 50
154.77513299999941
 51
167.94879199999983
  0
ARC
  8
_0-0_0
  6
CONTINUOUS
 62
    7
 10
1093.5465693875085
 20
686.00478961754925
 40
38.254443999999992
 50
128.90859199999949
 51
153.9766560000001
  0
ARC
  8
_0-0_0
  6
CONTINUOUS
 62
    7
 10
1067.1841373875068
 20
717.90073961755115
 40
3.1598519999999972
 50
317.65887500000042
 51
347.68110799999988
  0
ARC
  8
_0-0_0
  6
CONTINUOUS
 62
    7
 10
1210.7835763875046
 20
673.3521406175314
 40
160.127241
 50
170.77711900000074
 51
178.50889299999952
  0
ARC
  8
_0-0_0
  6
CONTINUOUS
 62
    7
 10
1124.9227763875024
 20
692.81255961754141
 40
74.544302999999999
 50
172.36859400000063
 51
187.2409619999996
  0
ARC
  8
_0-0_0
  6
CONTINUOUS
 62
    7
 10
1168.3430713875059
 20
680.99786161753946
 40
111.68669699999998
 50
170.14558599999933
 51
181.78500700000046
  0
ARC
  8
_0-0_0
  6
CONTINUOUS
 62
    7
 10
1052.1227853875171
 20
711.0115026175481
 40
10
 50
201.44970900000035
 51
211.10632600000042
  0
ARC
  8
_0-0_0
  6
CONTINUOUS
 62
    7
 10
1031.531015387518
 20
694.43462961752812
 40
10
 50
29.880746000000315
 51
40.890638000000067
  0
ARC
  8
_0-0_0
  6
CONTINUOUS
 62
    7
 10
1091.6840423875183
 20
683.62679861752986
 40
34.790568999999991
 50
140.07824600000023
 51
168.27577999999951
  0
ARC
  8
_0-0_0
  6
CONTINUOUS
 62
    7
 10
1121.7566043875049
 20
679.65331861754021
 40
65.081023000000002
 50
170.23077199999929
 51
178.1205829999997
  0
LINE
  8
_0-0_0
  6
CONTINUOUS
 62
    7
 10
1056.710592387506
 20
677.51891961754882
 11
1056.710592387506
 21
681.78771761754979
  0
ARC
  8
_0-0_0
  6
CONTINUOUS
 62
    7
 10
1056.6288893875026
 20
713.27164961754897
 40
11.120863999999999
 50
318.8470819999996
 51
4.8695190000005049
  0
ARC
  8
_0-0_0
  6
CONTINUOUS
 62
    7
 10
1068.1566983875164
 20
698.40105961755035
 40
10
 50
153.9766560000001
 51
170.14557200000019
  0
ARC
  8
_0-0_0
  6
CONTINUOUS
 62
    7
 10
1062.5971623875084
 20
697.41384661752818
 40
10
 50
161.99644599999959
 51
170.77713200000011
  0
ARC
  8
_0-0_0
  6
CONTINUOUS
 62
    7
 10
1017.0754193875182
 20
691.42315461755061
 40
34.392318000000003
 50
12.655207000000132
 51
43.712899999999898
  0
ARC
  8
_0-0_0
  6
CONTINUOUS
 62
    7
 10
1051.1053673875067
 20
712.66952261752886
 40
16.533339999999995
 50
149.95087500000022
 51
213.64707400000063
  0
LINE
  8
_0-0_0
  6
CONTINUOUS
 62
    7
 10
1044.710592387506
 20
677.51891961754882
 11
1056.710592387506
 21
677.51891961754882
  0
ARC
  8
_0-0_0
  6
CONTINUOUS
 62
    7
 10
1059.934755387505
 20
726.20177961753143
 40
11.550355
 50
41.887951999999821
 51
61.410940999999724
  0
ARC
  8
_0-0_0
  6
CONTINUOUS
 62
    7
 10
1048.311453387505
 20
707.22298961754859
 40
31.676913999999993
 50
52.464824000000462
 51
61.814106999999993
  0
LINE
  8
_0-2_P-0000
  6
CONTINUOUS
 62
    7
 10
1043.710592387506
 20
1192.5189106175312
 11
1057.710592387506
 21
1192.5189106175312
  0
LINE
  8
_0-2_P-0000
  6
CONTINUOUS
 62
    7
 10
1057.710592387506
 20
1192.5189106175312
 11
1057.710592387506
 21
821.51888661753037
  0
LINE
  8
_0-2_P-0000
  6
CONTINUOUS
 62
    7
 10
1043.710592387506
 20
1192.5189106175312
 11
1043.710592387506
 21
821.51888661753037
  0
LINE
  8
_0-2_P-0000
  6
CONTINUOUS
 62
    7
 10
1043.710592387506
 20
292.51891061753849
 11
1057.710592387506
 21
292.51891061753849
  0
LINE
  8
_0-0_0
  6
CONTINUOUS
 62
    7
 10
1043.7097977762678
 20
1145.2412405762188
 11
1044.1150703774038
 21
1146.620769018471
  0
LINE
  8
_0-0_0
  6
CONTINUOUS
 62
    7
 10
1057.7105923874988
 20
1170.166549854639
 11
1056.8225813486861
 21
1169.6506366803294
  0
LINE
  8
_0-0_0
  6
CONTINUOUS
 62
    7
 10
1044.1150703774038
 20
1168.9533421550586
 11
1045.7526391571664
 21
1171.3970639746585
  0
LINE
  8
_0-0_0
  6
CONTINUOUS
 62
    7
 10
1045.7526391571664
 20
1171.3970639746585
 11
1045.7526391571664
 21
1172.8160172503192
  0
LINE
  8
_0-0_0
  6
CONTINUOUS
 62
    7
 10
1045.7526391571664
 20
1172.8160172503192
 11
1045.7526391571664
 21
1174.1955461055693
  0
LINE
  8
_0-0_0
  6
CONTINUOUS
 62
    7
 10
1045.7526391571664
 20
1174.1955461055693
 11
1045.7526391571664
 21
1175.7721607186504
  0
LINE
  8
_0-0_0
  6
CONTINUOUS
 62
    7
 10
1045.7526391571664
 20
1175.7721607186504
 11
1045.7526391571664
 21
1177.4669998586287
  0
LINE
  8
_0-0_0
  6
CONTINUOUS
 62
    7
 10
1045.7526391571664
 20
1177.4669998586287
 11
1045.5561312844147
 21
1179.1618641917703
  0
LINE
  8
_0-0_0
  6
CONTINUOUS
 62
    7
 10
1045.5561312844147
 20
1179.1618641917703
 11
1045.3596245317458
 21
1180.8961277521594
  0
LINE
  8
_0-0_0
  6
CONTINUOUS
 62
    7
 10
1045.3596245317458
 20
1180.8961277521594
 11
1045.0976136613754
 21
1182.5909668921413
  0
LINE
  8
_0-0_0
  6
CONTINUOUS
 62
    7
 10
1045.0976136613754
 20
1182.5909668921413
 11
1044.9011057886382
 21
1185.8326081891501
  0
LINE
  8
_0-0_0
  6
CONTINUOUS
 62
    7
 10
1044.9011057886382
 20
1185.8326081891501
 11
1044.2460797328022
 21
1187.2121494344899
  0
LINE
  8
_0-0_0
  6
CONTINUOUS
 62
    7
 10
1046.3893722871726
 20
1157.3810999540583
 11
1046.3893722871726
 21
1158.1299950237699
  0
LINE
  8
_0-0_0
  6
CONTINUOUS
 62
    7
 10
1056.8225813486861
 20
1169.6506366803294
 11
1055.5780327946632
 21
1168.2710954349895
  0
LINE
  8
_0-0_0
  6
CONTINUOUS
 62
    7
 10
1055.5780327946632
 20
1168.2710954349895
 11
1054.5299898732919
 21
1166.3791829272814
  0
LINE
  8
_0-0_0
  6
CONTINUOUS
 62
    7
 10
1054.5299898732919
 20
1166.3791829272814
 11
1054.267979002936
 21
1165.4332140768383
  0
LINE
  8
_0-0_0
  6
CONTINUOUS
 62
    7
 10
1054.267979002936
 20
1165.4332140768383
 11
1054.267979002936
 21
1164.2113469719916
  0
LINE
  8
_0-0_0
  6
CONTINUOUS
 62
    7
 10
1054.267979002936
 20
1164.2113469719916
 11
1054.0714711301916
 21
1162.2011595510303
  0
LINE
  8
_0-0_0
  6
CONTINUOUS
 62
    7
 10
1054.0714711301916
 20
1162.2011595510303
 11
1054.0714711301916
 21
1161.5705261784788
  0
LINE
  8
_0-0_0
  6
CONTINUOUS
 62
    7
 10
1054.0714711301916
 20
1161.5705261784788
 11
1054.5299898732919
 21
1159.2450284727893
  0
LINE
  8
_0-0_0
  6
CONTINUOUS
 62
    7
 10
1054.5299898732919
 20
1159.2450284727893
 11
1054.5299898732919
 21
1158.6143827101587
  0
LINE
  8
_0-0_0
  6
CONTINUOUS
 62
    7
 10
1054.5299898732919
 20
1158.6143827101587
 11
1055.5780327946632
 21
1154.2393107463395
  0
LINE
  8
_0-0_0
  6
CONTINUOUS
 62
    7
 10
1055.5780327946632
 20
1154.2393107463395
 11
1055.7745406674221
 21
1151.0370942827503
  0
LINE
  8
_0-0_0
  6
CONTINUOUS
 62
    7
 10
1055.7745406674221
 20
1151.0370942827503
 11
1056.4295672832741
 21
1149.9334640949091
  0
LINE
  8
_0-0_0
  6
CONTINUOUS
 62
    7
 10
1056.4295672832741
 20
1149.9334640949091
 11
1057.0190892214232
 21
1148.9875076345488
  0
LINE
  8
_0-0_0
  6
CONTINUOUS
 62
    7
 10
1057.0190892214232
 20
1148.9875076345488
 11
1057.4776079645453
 21
1148.5539352396481
  0
LINE
  8
_0-0_0
  6
CONTINUOUS
 62
    7
 10
1046.1273625368849
 20
1155.8044973180695
 11
1046.3893722871726
 21
1157.3810999540583
  0
LINE
  8
_0-0_0
  6
CONTINUOUS
 62
    7
 10
1046.1273625368849
 20
1155.0556150514603
 11
1046.1273625368849
 21
1155.8044973180695
  0
LINE
  8
_0-0_0
  6
CONTINUOUS
 62
    7
 10
1045.9308546641478
 20
1153.7943227001888
 11
1046.1273625368849
 21
1155.0556150514603
  0
LINE
  8
_0-0_0
  6
CONTINUOUS
 62
    7
 10
1045.1631132987968
 20
1152.3753822276194
 11
1045.9308546641478
 21
1153.7943227001888
  0
LINE
  8
_0-0_0
  6
CONTINUOUS
 62
    7
 10
1045.1631132987968
 20
1150.8381920349602
 11
1045.1631132987968
 21
1152.3753822276194
  0
LINE
  8
_0-0_0
  6
CONTINUOUS
 62
    7
 10
1044.9666048659928
 20
1149.7345742371981
 11
1045.1631132987968
 21
1150.8381920349602
  0
LINE
  8
_0-0_0
  6
CONTINUOUS
 62
    7
 10
1044.3115782501554
 20
1147.8820609567192
 11
1044.9666048659928
 21
1149.7345742371981
  0
LINE
  8
_0-0_0
  6
CONTINUOUS
 62
    7
 10
1044.1150703774038
 20
1146.620769018471
 11
1044.3115782501554
 21
1147.8820609567192
  0
LINE
  8
_0-0_0
  6
CONTINUOUS
 62
    7
 10
1057.4776079645453
 20
1148.5539352396481
 11
1057.7105923874988
 21
1148.3473330715315
  0
LINE
  8
_0-0_0
  6
CONTINUOUS
 62
    7
 10
1046.0829111111379
 20
1160.8925101454986
 11
1044.985192479362
 21
1161.7167718646306
  0
LINE
  8
_0-0_0
  6
CONTINUOUS
 62
    7
 10
1046.3893722871726
 20
1159.7066100498414
 11
1046.0829111111379
 21
1160.8925101454986
  0
LINE
  8
_0-0_0
  6
CONTINUOUS
 62
    7
 10
1046.3893722871726
 20
1158.1299950237699
 11
1046.3893722871726
 21
1159.7066100498414
  0
LINE
  8
_0-0_0
  6
CONTINUOUS
 62
    7
 10
1044.985192479362
 20
1161.7167718646306
 11
1043.7097977762678
 21
1162.3264453455304
  0
LINE
  8
_0-0_0
  6
CONTINUOUS
 62
    7
 10
1043.7097977762678
 20
1168.6532068318809
 11
1044.1150703774038
 21
1168.9533421550586
  0
LINE
  8
_0-0_0
  6
CONTINUOUS
 62
    7
 10
1057.7105923874988
 20
1191.9105559469679
 11
1055.9710463000447
 21
1189.9380153824095
  0
LINE
  8
_0-0_0
  6
CONTINUOUS
 62
    7
 10
1055.9710463000447
 20
1189.9380153824095
 11
1055.3815243618883
 21
1188.0461028747013
  0
LINE
  8
_0-0_0
  6
CONTINUOUS
 62
    7
 10
1055.3815243618883
 20
1188.0461028747013
 11
1055.3815243618883
 21
1186.3512385415597
  0
LINE
  8
_0-0_0
  6
CONTINUOUS
 62
    7
 10
1055.3815243618883
 20
1186.3512385415597
 11
1055.3815243618883
 21
1185.2476207437903
  0
LINE
  8
_0-0_0
  6
CONTINUOUS
 62
    7
 10
1055.3815243618883
 20
1185.2476207437903
 11
1055.5780327946632
 21
1182.9221230380899
  0
LINE
  8
_0-0_0
  6
CONTINUOUS
 62
    7
 10
1055.5780327946632
 20
1182.9221230380899
 11
1055.9710463000447
 21
1181.8184928502487
  0
LINE
  8
_0-0_0
  6
CONTINUOUS
 62
    7
 10
1055.9710463000447
 20
1181.8184928502487
 11
1055.9710463000447
 21
1180.2813026575895
  0
LINE
  8
_0-0_0
  6
CONTINUOUS
 62
    7
 10
1055.9710463000447
 20
1180.2813026575895
 11
1055.9710463000447
 21
1178.8623617720111
  0
LINE
  8
_0-0_0
  6
CONTINUOUS
 62
    7
 10
1055.9710463000447
 20
1178.8623617720111
 11
1056.1675569729559
 21
1178.1134790923898
  0
LINE
  8
_0-0_0
  6
CONTINUOUS
 62
    7
 10
1056.1675569729559
 20
1178.1134790923898
 11
1056.4295672832741
 21
1177.4828333297592
  0
LINE
  8
_0-0_0
  6
CONTINUOUS
 62
    7
 10
1056.4295672832741
 20
1177.4828333297592
 11
1056.8225813486861
 21
1176.3792027289091
  0
LINE
  8
_0-0_0
  6
CONTINUOUS
 62
    7
 10
1056.8225813486861
 20
1176.3792027289091
 11
1057.4776079645453
 21
1175.3150097645594
  0
LINE
  8
_0-0_0
  6
CONTINUOUS
 62
    7
 10
1057.4776079645453
 20
1175.3150097645594
 11
1057.7105923874988
 21
1175.2215393859187
  0
LINE
  8
_0-0_0
  6
CONTINUOUS
 62
    7
 10
1044.2460797328022
 20
1187.2121494344899
 11
1043.7097977762678
 21
1188.2878118993394
  0
LINE
  8
_0-0_0
  6
CONTINUOUS
 62
    7
 10
1043.7097977762678
 20
1095.2412405762186
 11
1044.1150703774038
 21
1096.620769018471
  0
LINE
  8
_0-0_0
  6
CONTINUOUS
 62
    7
 10
1057.7105923874988
 20
1120.1665498546499
 11
1056.8225813486861
 21
1119.6506366803296
  0
LINE
  8
_0-0_0
  6
CONTINUOUS
 62
    7
 10
1044.1150703774038
 20
1118.9533421550514
 11
1045.7526391571664
 21
1121.3970639746585
  0
LINE
  8
_0-0_0
  6
CONTINUOUS
 62
    7
 10
1045.7526391571664
 20
1121.3970639746585
 11
1045.7526391571664
 21
1122.8160172503194
  0
LINE
  8
_0-0_0
  6
CONTINUOUS
 62
    7
 10
1045.7526391571664
 20
1122.8160172503194
 11
1045.7526391571664
 21
1124.1955461055695
  0
LINE
  8
_0-0_0
  6
CONTINUOUS
 62
    7
 10
1045.7526391571664
 20
1124.1955461055695
 11
1045.7526391571664
 21
1125.7721607186395
  0
LINE
  8
_0-0_0
  6
CONTINUOUS
 62
    7
 10
1045.7526391571664
 20
1125.7721607186395
 11
1045.7526391571664
 21
1127.4669998586214
  0
LINE
  8
_0-0_0
  6
CONTINUOUS
 62
    7
 10
1045.7526391571664
 20
1127.4669998586214
 11
1045.5561312844147
 21
1129.161864191781
  0
LINE
  8
_0-0_0
  6
CONTINUOUS
 62
    7
 10
1045.5561312844147
 20
1129.161864191781
 11
1045.3596245317458
 21
1130.8961277521703
  0
LINE
  8
_0-0_0
  6
CONTINUOUS
 62
    7
 10
1045.3596245317458
 20
1130.8961277521703
 11
1045.0976136613754
 21
1132.5909668921486
  0
LINE
  8
_0-0_0
  6
CONTINUOUS
 62
    7
 10
1045.0976136613754
 20
1132.5909668921486
 11
1044.9011057886382
 21
1135.8326081891501
  0
LINE
  8
_0-0_0
  6
CONTINUOUS
 62
    7
 10
1044.9011057886382
 20
1135.8326081891501
 11
1044.2460797328022
 21
1137.2121494344901
  0
LINE
  8
_0-0_0
  6
CONTINUOUS
 62
    7
 10
1046.3893722871726
 20
1107.3810999540583
 11
1046.3893722871726
 21
1108.1299950237699
  0
LINE
  8
_0-0_0
  6
CONTINUOUS
 62
    7
 10
1056.8225813486861
 20
1119.6506366803296
 11
1055.5780327946632
 21
1118.2710954349895
  0
LINE
  8
_0-0_0
  6
CONTINUOUS
 62
    7
 10
1055.5780327946632
 20
1118.2710954349895
 11
1054.5299898732919
 21
1116.3791829272814
  0
LINE
  8
_0-0_0
  6
CONTINUOUS
 62
    7
 10
1054.5299898732919
 20
1116.3791829272814
 11
1054.267979002936
 21
1115.4332140768383
  0
LINE
  8
_0-0_0
  6
CONTINUOUS
 62
    7
 10
1054.267979002936
 20
1115.4332140768383
 11
1054.267979002936
 21
1114.2113469719916
  0
LINE
  8
_0-0_0
  6
CONTINUOUS
 62
    7
 10
1054.267979002936
 20
1114.2113469719916
 11
1054.0714711301916
 21
1112.2011595510301
  0
LINE
  8
_0-0_0
  6
CONTINUOUS
 62
    7
 10
1054.0714711301916
 20
1112.2011595510301
 11
1054.0714711301916
 21
1111.5705261784785
  0
LINE
  8
_0-0_0
  6
CONTINUOUS
 62
    7
 10
1054.0714711301916
 20
1111.5705261784785
 11
1054.5299898732919
 21
1109.2450284727893
  0
LINE
  8
_0-0_0
  6
CONTINUOUS
 62
    7
 10
1054.5299898732919
 20
1109.2450284727893
 11
1054.5299898732919
 21
1108.6143827101587
  0
LINE
  8
_0-0_0
  6
CONTINUOUS
 62
    7
 10
1054.5299898732919
 20
1108.6143827101587
 11
1055.5780327946632
 21
1104.2393107463504
  0
LINE
  8
_0-0_0
  6
CONTINUOUS
 62
    7
 10
1055.5780327946632
 20
1104.2393107463504
 11
1055.7745406674221
 21
1101.0370942827612
  0
LINE
  8
_0-0_0
  6
CONTINUOUS
 62
    7
 10
1055.7745406674221
 20
1101.0370942827612
 11
1056.4295672832741
 21
1099.9334640948982
  0
LINE
  8
_0-0_0
  6
CONTINUOUS
 62
    7
 10
1056.4295672832741
 20
1099.9334640948982
 11
1057.0190892214232
 21
1098.9875076345488
  0
LINE
  8
_0-0_0
  6
CONTINUOUS
 62
    7
 10
1057.0190892214232
 20
1098.9875076345488
 11
1057.4776079645453
 21
1098.5539352396481
  0
LINE
  8
_0-0_0
  6
CONTINUOUS
 62
    7
 10
1046.1273625368849
 20
1105.8044973180695
 11
1046.3893722871726
 21
1107.3810999540583
  0
LINE
  8
_0-0_0
  6
CONTINUOUS
 62
    7
 10
1046.1273625368849
 20
1105.0556150514494
 11
1046.1273625368849
 21
1105.8044973180695
  0
LINE
  8
_0-0_0
  6
CONTINUOUS
 62
    7
 10
1045.9308546641478
 20
1103.7943227001997
 11
1046.1273625368849
 21
1105.0556150514494
  0
LINE
  8
_0-0_0
  6
CONTINUOUS
 62
    7
 10
1045.1631132987968
 20
1102.3753822276194
 11
1045.9308546641478
 21
1103.7943227001997
  0
LINE
  8
_0-0_0
  6
CONTINUOUS
 62
    7
 10
1045.1631132987968
 20
1100.8381920349602
 11
1045.1631132987968
 21
1102.3753822276194
  0
LINE
  8
_0-0_0
  6
CONTINUOUS
 62
    7
 10
1044.9666048659928
 20
1099.7345742371906
 11
1045.1631132987968
 21
1100.8381920349602
  0
LINE
  8
_0-0_0
  6
CONTINUOUS
 62
    7
 10
1044.3115782501554
 20
1097.8820609567192
 11
1044.9666048659928
 21
1099.7345742371906
  0
LINE
  8
_0-0_0
  6
CONTINUOUS
 62
    7
 10
1044.1150703774038
 20
1096.620769018471
 11
1044.3115782501554
 21
1097.8820609567192
  0
LINE
  8
_0-0_0
  6
CONTINUOUS
 62
    7
 10
1057.4776079645453
 20
1098.5539352396481
 11
1057.7105923874988
 21
1098.3473330715315
  0
LINE
  8
_0-0_0
  6
CONTINUOUS
 62
    7
 10
1046.0829111111379
 20
1110.8925101454988
 11
1044.985192479362
 21
1111.7167718646303
  0
LINE
  8
_0-0_0
  6
CONTINUOUS
 62
    7
 10
1046.3893722871726
 20
1109.7066100498414
 11
1046.0829111111379
 21
1110.8925101454988
  0
LINE
  8
_0-0_0
  6
CONTINUOUS
 62
    7
 10
1046.3893722871726
 20
1108.1299950237699
 11
1046.3893722871726
 21
1109.7066100498414
  0
LINE
  8
_0-0_0
  6
CONTINUOUS
 62
    7
 10
1044.985192479362
 20
1111.7167718646303
 11
1043.7097977762678
 21
1112.3264453455304
  0
LINE
  8
_0-0_0
  6
CONTINUOUS
 62
    7
 10
1043.7097977762678
 20
1118.6532068318811
 11
1044.1150703774038
 21
1118.9533421550514
  0
LINE
  8
_0-0_0
  6
CONTINUOUS
 62
    7
 10
1057.7105923874988
 20
1141.910555946979
 11
1055.9710463000447
 21
1139.9380153824204
  0
LINE
  8
_0-0_0
  6
CONTINUOUS
 62
    7
 10
1055.9710463000447
 20
1139.9380153824204
 11
1055.3815243618883
 21
1138.0461028747013
  0
LINE
  8
_0-0_0
  6
CONTINUOUS
 62
    7
 10
1055.3815243618883
 20
1138.0461028747013
 11
1055.3815243618883
 21
1136.3512385415488
  0
LINE
  8
_0-0_0
  6
CONTINUOUS
 62
    7
 10
1055.3815243618883
 20
1136.3512385415488
 11
1055.3815243618883
 21
1135.2476207437794
  0
LINE
  8
_0-0_0
  6
CONTINUOUS
 62
    7
 10
1055.3815243618883
 20
1135.2476207437794
 11
1055.5780327946632
 21
1132.9221230380899
  0
LINE
  8
_0-0_0
  6
CONTINUOUS
 62
    7
 10
1055.5780327946632
 20
1132.9221230380899
 11
1055.9710463000447
 21
1131.8184928502412
  0
LINE
  8
_0-0_0
  6
CONTINUOUS
 62
    7
 10
1055.9710463000447
 20
1131.8184928502412
 11
1055.9710463000447
 21
1130.2813026575895
  0
LINE
  8
_0-0_0
  6
CONTINUOUS
 62
    7
 10
1055.9710463000447
 20
1130.2813026575895
 11
1055.9710463000447
 21
1128.8623617720114
  0
LINE
  8
_0-0_0
  6
CONTINUOUS
 62
    7
 10
1055.9710463000447
 20
1128.8623617720114
 11
1056.1675569729559
 21
1128.1134790923898
  0
LINE
  8
_0-0_0
  6
CONTINUOUS
 62
    7
 10
1056.1675569729559
 20
1128.1134790923898
 11
1056.4295672832741
 21
1127.4828333297592
  0
LINE
  8
_0-0_0
  6
CONTINUOUS
 62
    7
 10
1056.4295672832741
 20
1127.4828333297592
 11
1056.8225813486861
 21
1126.3792027289091
  0
LINE
  8
_0-0_0
  6
CONTINUOUS
 62
    7
 10
1056.8225813486861
 20
1126.3792027289091
 11
1057.4776079645453
 21
1125.3150097645484
  0
LINE
  8
_0-0_0
  6
CONTINUOUS
 62
    7
 10
1057.4776079645453
 20
1125.3150097645484
 11
1057.7105923874988
 21
1125.2215393859296
  0
LINE
  8
_0-0_0
  6
CONTINUOUS
 62
    7
 10
1044.2460797328022
 20
1137.2121494344901
 11
1043.7097977762678
 21
1138.2878118993392
  0
LINE
  8
_0-2_P-0000
  6
CONTINUOUS
 62
    7
 10
1043.710592387506
 20
663.51893461752843
 11
1043.710592387506
 21
292.51891061753849
  0
LINE
  8
_0-2_P-0000
  6
CONTINUOUS
 62
    7
 10
1057.710592387506
 20
663.51893461752843
 11
1057.710592387506
 21
292.51891061753849
  0
LINE
  8
_0-0_0
  6
CONTINUOUS
 62
    7
 10
1043.7097977762678
 20
1045.2412405762188
 11
1044.1150703774038
 21
1046.620769018471
  0
LINE
  8
_0-0_0
  6
CONTINUOUS
 62
    7
 10
1057.7105923874988
 20
1070.1665498546499
 11
1056.8225813486861
 21
1069.6506366803296
  0
LINE
  8
_0-0_0
  6
CONTINUOUS
 62
    7
 10
1044.1150703774038
 20
1068.9533421550586
 11
1045.7526391571664
 21
1071.3970639746512
  0
LINE
  8
_0-0_0
  6
CONTINUOUS
 62
    7
 10
1045.7526391571664
 20
1071.3970639746512
 11
1045.7526391571664
 21
1072.8160172503194
  0
LINE
  8
_0-0_0
  6
CONTINUOUS
 62
    7
 10
1045.7526391571664
 20
1072.8160172503194
 11
1045.7526391571664
 21
1074.1955461055695
  0
LINE
  8
_0-0_0
  6
CONTINUOUS
 62
    7
 10
1045.7526391571664
 20
1074.1955461055695
 11
1045.7526391571664
 21
1075.7721607186395
  0
LINE
  8
_0-0_0
  6
CONTINUOUS
 62
    7
 10
1045.7526391571664
 20
1075.7721607186395
 11
1045.7526391571664
 21
1077.4669998586214
  0
LINE
  8
_0-0_0
  6
CONTINUOUS
 62
    7
 10
1045.7526391571664
 20
1077.4669998586214
 11
1045.5561312844147
 21
1079.1618641917812
  0
LINE
  8
_0-0_0
  6
CONTINUOUS
 62
    7
 10
1045.5561312844147
 20
1079.1618641917812
 11
1045.3596245317458
 21
1080.8961277521701
  0
LINE
  8
_0-0_0
  6
CONTINUOUS
 62
    7
 10
1045.3596245317458
 20
1080.8961277521701
 11
1045.0976136613754
 21
1082.5909668921595
  0
LINE
  8
_0-0_0
  6
CONTINUOUS
 62
    7
 10
1045.0976136613754
 20
1082.5909668921595
 11
1044.9011057886382
 21
1085.832608189161
  0
LINE
  8
_0-0_0
  6
CONTINUOUS
 62
    7
 10
1044.9011057886382
 20
1085.832608189161
 11
1044.2460797328022
 21
1087.2121494344901
  0
LINE
  8
_0-0_0
  6
CONTINUOUS
 62
    7
 10
1046.3893722871726
 20
1057.3810999540583
 11
1046.3893722871726
 21
1058.1299950237699
  0
LINE
  8
_0-0_0
  6
CONTINUOUS
 62
    7
 10
1056.8225813486861
 20
1069.6506366803296
 11
1055.5780327946632
 21
1068.2710954349895
  0
LINE
  8
_0-0_0
  6
CONTINUOUS
 62
    7
 10
1055.5780327946632
 20
1068.2710954349895
 11
1054.5299898732919
 21
1066.3791829272814
  0
LINE
  8
_0-0_0
  6
CONTINUOUS
 62
    7
 10
1054.5299898732919
 20
1066.3791829272814
 11
1054.267979002936
 21
1065.4332140768381
  0
LINE
  8
_0-0_0
  6
CONTINUOUS
 62
    7
 10
1054.267979002936
 20
1065.4332140768381
 11
1054.267979002936
 21
1064.2113469719916
  0
LINE
  8
_0-0_0
  6
CONTINUOUS
 62
    7
 10
1054.267979002936
 20
1064.2113469719916
 11
1054.0714711301916
 21
1062.2011595510303
  0
LINE
  8
_0-0_0
  6
CONTINUOUS
 62
    7
 10
1054.0714711301916
 20
1062.2011595510303
 11
1054.0714711301916
 21
1061.5705261784788
  0
LINE
  8
_0-0_0
  6
CONTINUOUS
 62
    7
 10
1054.0714711301916
 20
1061.5705261784788
 11
1054.5299898732919
 21
1059.2450284727893
  0
LINE
  8
_0-0_0
  6
CONTINUOUS
 62
    7
 10
1054.5299898732919
 20
1059.2450284727893
 11
1054.5299898732919
 21
1058.6143827101587
  0
LINE
  8
_0-0_0
  6
CONTINUOUS
 62
    7
 10
1054.5299898732919
 20
1058.6143827101587
 11
1055.5780327946632
 21
1054.2393107463504
  0
LINE
  8
_0-0_0
  6
CONTINUOUS
 62
    7
 10
1055.5780327946632
 20
1054.2393107463504
 11
1055.7745406674221
 21
1051.0370942827612
  0
LINE
  8
_0-0_0
  6
CONTINUOUS
 62
    7
 10
1055.7745406674221
 20
1051.0370942827612
 11
1056.4295672832741
 21
1049.9334640948982
  0
LINE
  8
_0-0_0
  6
CONTINUOUS
 62
    7
 10
1056.4295672832741
 20
1049.9334640948982
 11
1057.0190892214232
 21
1048.9875076345488
  0
LINE
  8
_0-0_0
  6
CONTINUOUS
 62
    7
 10
1057.0190892214232
 20
1048.9875076345488
 11
1057.4776079645453
 21
1048.5539352396481
  0
LINE
  8
_0-0_0
  6
CONTINUOUS
 62
    7
 10
1046.1273625368849
 20
1055.8044973180695
 11
1046.3893722871726
 21
1057.3810999540583
  0
LINE
  8
_0-0_0
  6
CONTINUOUS
 62
    7
 10
1046.1273625368849
 20
1055.0556150514494
 11
1046.1273625368849
 21
1055.8044973180695
  0
LINE
  8
_0-0_0
  6
CONTINUOUS
 62
    7
 10
1045.9308546641478
 20
1053.7943227001997
 11
1046.1273625368849
 21
1055.0556150514494
  0
LINE
  8
_0-0_0
  6
CONTINUOUS
 62
    7
 10
1045.1631132987968
 20
1052.3753822276194
 11
1045.9308546641478
 21
1053.7943227001997
  0
LINE
  8
_0-0_0
  6
CONTINUOUS
 62
    7
 10
1045.1631132987968
 20
1050.8381920349602
 11
1045.1631132987968
 21
1052.3753822276194
  0
LINE
  8
_0-0_0
  6
CONTINUOUS
 62
    7
 10
1044.9666048659928
 20
1049.7345742371908
 11
1045.1631132987968
 21
1050.8381920349602
  0
LINE
  8
_0-0_0
  6
CONTINUOUS
 62
    7
 10
1044.3115782501554
 20
1047.8820609567301
 11
1044.9666048659928
 21
1049.7345742371908
  0
LINE
  8
_0-0_0
  6
CONTINUOUS
 62
    7
 10
1044.1150703774038
 20
1046.620769018471
 11
1044.3115782501554
 21
1047.8820609567301
  0
LINE
  8
_0-0_0
  6
CONTINUOUS
 62
    7
 10
1057.4776079645453
 20
1048.5539352396481
 11
1057.7105923874988
 21
1048.3473330715315
  0
LINE
  8
_0-0_0
  6
CONTINUOUS
 62
    7
 10
1046.0829111111379
 20
1060.8925101454988
 11
1044.985192479362
 21
1061.7167718646306
  0
LINE
  8
_0-0_0
  6
CONTINUOUS
 62
    7
 10
1046.3893722871726
 20
1059.7066100498414
 11
1046.0829111111379
 21
1060.8925101454988
  0
LINE
  8
_0-0_0
  6
CONTINUOUS
 62
    7
 10
1046.3893722871726
 20
1058.1299950237699
 11
1046.3893722871726
 21
1059.7066100498414
  0
LINE
  8
_0-0_0
  6
CONTINUOUS
 62
    7
 10
1044.985192479362
 20
1061.7167718646306
 11
1043.7097977762678
 21
1062.3264453455304
  0
LINE
  8
_0-0_0
  6
CONTINUOUS
 62
    7
 10
1043.7097977762678
 20
1068.6532068318811
 11
1044.1150703774038
 21
1068.9533421550586
  0
LINE
  8
_0-0_0
  6
CONTINUOUS
 62
    7
 10
1057.7105923874988
 20
1091.910555946979
 11
1055.9710463000447
 21
1089.9380153824202
  0
LINE
  8
_0-0_0
  6
CONTINUOUS
 62
    7
 10
1055.9710463000447
 20
1089.9380153824202
 11
1055.3815243618883
 21
1088.0461028747013
  0
LINE
  8
_0-0_0
  6
CONTINUOUS
 62
    7
 10
1055.3815243618883
 20
1088.0461028747013
 11
1055.3815243618883
 21
1086.3512385415488
  0
LINE
  8
_0-0_0
  6
CONTINUOUS
 62
    7
 10
1055.3815243618883
 20
1086.3512385415488
 11
1055.3815243618883
 21
1085.2476207437794
  0
LINE
  8
_0-0_0
  6
CONTINUOUS
 62
    7
 10
1055.3815243618883
 20
1085.2476207437794
 11
1055.5780327946632
 21
1082.9221230380899
  0
LINE
  8
_0-0_0
  6
CONTINUOUS
 62
    7
 10
1055.5780327946632
 20
1082.9221230380899
 11
1055.9710463000447
 21
1081.8184928502415
  0
LINE
  8
_0-0_0
  6
CONTINUOUS
 62
    7
 10
1055.9710463000447
 20
1081.8184928502415
 11
1055.9710463000447
 21
1080.2813026575893
  0
LINE
  8
_0-0_0
  6
CONTINUOUS
 62
    7
 10
1055.9710463000447
 20
1080.2813026575893
 11
1055.9710463000447
 21
1078.8623617720114
  0
LINE
  8
_0-0_0
  6
CONTINUOUS
 62
    7
 10
1055.9710463000447
 20
1078.8623617720114
 11
1056.1675569729559
 21
1078.1134790923895
  0
LINE
  8
_0-0_0
  6
CONTINUOUS
 62
    7
 10
1056.1675569729559
 20
1078.1134790923895
 11
1056.4295672832741
 21
1077.4828333297589
  0
LINE
  8
_0-0_0
  6
CONTINUOUS
 62
    7
 10
1056.4295672832741
 20
1077.4828333297589
 11
1056.8225813486861
 21
1076.3792027289091
  0
LINE
  8
_0-0_0
  6
CONTINUOUS
 62
    7
 10
1056.8225813486861
 20
1076.3792027289091
 11
1057.4776079645453
 21
1075.3150097645482
  0
LINE
  8
_0-0_0
  6
CONTINUOUS
 62
    7
 10
1057.4776079645453
 20
1075.3150097645482
 11
1057.7105923874988
 21
1075.2215393859294
  0
LINE
  8
_0-0_0
  6
CONTINUOUS
 62
    7
 10
1044.2460797328022
 20
1087.2121494344901
 11
1043.7097977762678
 21
1088.2878118993394
  0
LINE
  8
_0-0_0
  6
CONTINUOUS
 62
    7
 10
1043.7097977762678
 20
995.24124057621884
 11
1044.1150703774038
 21
996.62076901847104
  0
LINE
  8
_0-0_0
  6
CONTINUOUS
 62
    7
 10
1057.7105923874988
 20
1020.1665498546499
 11
1056.8225813486861
 21
1019.6506366803296
  0
LINE
  8
_0-0_0
  6
CONTINUOUS
 62
    7
 10
1044.1150703774038
 20
1018.9533421550586
 11
1045.7526391571664
 21
1021.3970639746585
  0
LINE
  8
_0-0_0
  6
CONTINUOUS
 62
    7
 10
1045.7526391571664
 20
1021.3970639746585
 11
1045.7526391571664
 21
1022.8160172503194
  0
LINE
  8
_0-0_0
  6
CONTINUOUS
 62
    7
 10
1045.7526391571664
 20
1022.8160172503194
 11
1045.7526391571664
 21
1024.1955461055695
  0
LINE
  8
_0-0_0
  6
CONTINUOUS
 62
    7
 10
1045.7526391571664
 20
1024.1955461055695
 11
1045.7526391571664
 21
1025.7721607186395
  0
LINE
  8
_0-0_0
  6
CONTINUOUS
 62
    7
 10
1045.7526391571664
 20
1025.7721607186395
 11
1045.7526391571664
 21
1027.4669998586214
  0
LINE
  8
_0-0_0
  6
CONTINUOUS
 62
    7
 10
1045.7526391571664
 20
1027.4669998586214
 11
1045.5561312844147
 21
1029.1618641917703
  0
LINE
  8
_0-0_0
  6
CONTINUOUS
 62
    7
 10
1045.5561312844147
 20
1029.1618641917703
 11
1045.3596245317458
 21
1030.8961277521703
  0
LINE
  8
_0-0_0
  6
CONTINUOUS
 62
    7
 10
1045.3596245317458
 20
1030.8961277521703
 11
1045.0976136613754
 21
1032.5909668921486
  0
LINE
  8
_0-0_0
  6
CONTINUOUS
 62
    7
 10
1045.0976136613754
 20
1032.5909668921486
 11
1044.9011057886382
 21
1035.832608189161
  0
LINE
  8
_0-0_0
  6
CONTINUOUS
 62
    7
 10
1044.9011057886382
 20
1035.832608189161
 11
1044.2460797328022
 21
1037.2121494344901
  0
LINE
  8
_0-0_0
  6
CONTINUOUS
 62
    7
 10
1046.3893722871726
 20
1007.3810999540583
 11
1046.3893722871726
 21
1008.1299950237808
  0
LINE
  8
_0-0_0
  6
CONTINUOUS
 62
    7
 10
1056.8225813486861
 20
1019.6506366803296
 11
1055.5780327946632
 21
1018.2710954349895
  0
LINE
  8
_0-0_0
  6
CONTINUOUS
 62
    7
 10
1055.5780327946632
 20
1018.2710954349895
 11
1054.5299898732919
 21
1016.3791829272814
  0
LINE
  8
_0-0_0
  6
CONTINUOUS
 62
    7
 10
1054.5299898732919
 20
1016.3791829272814
 11
1054.267979002936
 21
1015.4332140768383
  0
LINE
  8
_0-0_0
  6
CONTINUOUS
 62
    7
 10
1054.267979002936
 20
1015.4332140768383
 11
1054.267979002936
 21
1014.2113469719916
  0
LINE
  8
_0-0_0
  6
CONTINUOUS
 62
    7
 10
1054.267979002936
 20
1014.2113469719916
 11
1054.0714711301916
 21
1012.2011595510303
  0
LINE
  8
_0-0_0
  6
CONTINUOUS
 62
    7
 10
1054.0714711301916
 20
1012.2011595510303
 11
1054.0714711301916
 21
1011.5705261784788
  0
LINE
  8
_0-0_0
  6
CONTINUOUS
 62
    7
 10
1054.0714711301916
 20
1011.5705261784788
 11
1054.5299898732919
 21
1009.2450284727893
  0
LINE
  8
_0-0_0
  6
CONTINUOUS
 62
    7
 10
1054.5299898732919
 20
1009.2450284727893
 11
1054.5299898732919
 21
1008.6143827101587
  0
LINE
  8
_0-0_0
  6
CONTINUOUS
 62
    7
 10
1054.5299898732919
 20
1008.6143827101587
 11
1055.5780327946632
 21
1004.2393107463504
  0
LINE
  8
_0-0_0
  6
CONTINUOUS
 62
    7
 10
1055.5780327946632
 20
1004.2393107463504
 11
1055.7745406674221
 21
1001.0370942827612
  0
LINE
  8
_0-0_0
  6
CONTINUOUS
 62
    7
 10
1055.7745406674221
 20
1001.0370942827612
 11
1056.4295672832741
 21
999.93346409489823
  0
LINE
  8
_0-0_0
  6
CONTINUOUS
 62
    7
 10
1056.4295672832741
 20
999.93346409489823
 11
1057.0190892214232
 21
998.98750763454882
  0
LINE
  8
_0-0_0
  6
CONTINUOUS
 62
    7
 10
1057.0190892214232
 20
998.98750763454882
 11
1057.4776079645453
 21
998.55393523964813
  0
LINE
  8
_0-0_0
  6
CONTINUOUS
 62
    7
 10
1046.1273625368849
 20
1005.8044973180695
 11
1046.3893722871726
 21
1007.3810999540583
  0
LINE
  8
_0-0_0
  6
CONTINUOUS
 62
    7
 10
1046.1273625368849
 20
1005.0556150514603
 11
1046.1273625368849
 21
1005.8044973180695
  0
LINE
  8
_0-0_0
  6
CONTINUOUS
 62
    7
 10
1045.9308546641478
 20
1003.7943227001997
 11
1046.1273625368849
 21
1005.0556150514603
  0
LINE
  8
_0-0_0
  6
CONTINUOUS
 62
    7
 10
1045.1631132987968
 20
1002.3753822276194
 11
1045.9308546641478
 21
1003.7943227001997
  0
LINE
  8
_0-0_0
  6
CONTINUOUS
 62
    7
 10
1045.1631132987968
 20
1000.8381920349602
 11
1045.1631132987968
 21
1002.3753822276194
  0
LINE
  8
_0-0_0
  6
CONTINUOUS
 62
    7
 10
1044.9666048659928
 20
999.73457423719083
 11
1045.1631132987968
 21
1000.8381920349602
  0
LINE
  8
_0-0_0
  6
CONTINUOUS
 62
    7
 10
1044.3115782501554
 20
997.88206095671922
 11
1044.9666048659928
 21
999.73457423719083
  0
LINE
  8
_0-0_0
  6
CONTINUOUS
 62
    7
 10
1044.1150703774038
 20
996.62076901847104
 11
1044.3115782501554
 21
997.88206095671922
  0
LINE
  8
_0-0_0
  6
CONTINUOUS
 62
    7
 10
1057.4776079645453
 20
998.55393523964813
 11
1057.7105923874988
 21
998.34733307153147
  0
LINE
  8
_0-0_0
  6
CONTINUOUS
 62
    7
 10
1046.0829111111379
 20
1010.8925101454988
 11
1044.985192479362
 21
1011.7167718646306
  0
LINE
  8
_0-0_0
  6
CONTINUOUS
 62
    7
 10
1046.3893722871726
 20
1009.7066100498414
 11
1046.0829111111379
 21
1010.8925101454988
  0
LINE
  8
_0-0_0
  6
CONTINUOUS
 62
    7
 10
1046.3893722871726
 20
1008.1299950237808
 11
1046.3893722871726
 21
1009.7066100498414
  0
LINE
  8
_0-0_0
  6
CONTINUOUS
 62
    7
 10
1044.985192479362
 20
1011.7167718646306
 11
1043.7097977762678
 21
1012.3264453455304
  0
LINE
  8
_0-0_0
  6
CONTINUOUS
 62
    7
 10
1043.7097977762678
 20
1018.6532068318811
 11
1044.1150703774038
 21
1018.9533421550586
  0
LINE
  8
_0-0_0
  6
CONTINUOUS
 62
    7
 10
1057.7105923874988
 20
1041.910555946979
 11
1055.9710463000447
 21
1039.9380153824204
  0
LINE
  8
_0-0_0
  6
CONTINUOUS
 62
    7
 10
1055.9710463000447
 20
1039.9380153824204
 11
1055.3815243618883
 21
1038.0461028747013
  0
LINE
  8
_0-0_0
  6
CONTINUOUS
 62
    7
 10
1055.3815243618883
 20
1038.0461028747013
 11
1055.3815243618883
 21
1036.3512385415488
  0
LINE
  8
_0-0_0
  6
CONTINUOUS
 62
    7
 10
1055.3815243618883
 20
1036.3512385415488
 11
1055.3815243618883
 21
1035.2476207437685
  0
LINE
  8
_0-0_0
  6
CONTINUOUS
 62
    7
 10
1055.3815243618883
 20
1035.2476207437685
 11
1055.5780327946632
 21
1032.9221230380899
  0
LINE
  8
_0-0_0
  6
CONTINUOUS
 62
    7
 10
1055.5780327946632
 20
1032.9221230380899
 11
1055.9710463000447
 21
1031.8184928502415
  0
LINE
  8
_0-0_0
  6
CONTINUOUS
 62
    7
 10
1055.9710463000447
 20
1031.8184928502415
 11
1055.9710463000447
 21
1030.2813026575895
  0
LINE
  8
_0-0_0
  6
CONTINUOUS
 62
    7
 10
1055.9710463000447
 20
1030.2813026575895
 11
1055.9710463000447
 21
1028.8623617720114
  0
LINE
  8
_0-0_0
  6
CONTINUOUS
 62
    7
 10
1055.9710463000447
 20
1028.8623617720114
 11
1056.1675569729559
 21
1028.1134790923898
  0
LINE
  8
_0-0_0
  6
CONTINUOUS
 62
    7
 10
1056.1675569729559
 20
1028.1134790923898
 11
1056.4295672832741
 21
1027.4828333297592
  0
LINE
  8
_0-0_0
  6
CONTINUOUS
 62
    7
 10
1056.4295672832741
 20
1027.4828333297592
 11
1056.8225813486861
 21
1026.3792027289091
  0
LINE
  8
_0-0_0
  6
CONTINUOUS
 62
    7
 10
1056.8225813486861
 20
1026.3792027289091
 11
1057.4776079645453
 21
1025.3150097645484
  0
LINE
  8
_0-0_0
  6
CONTINUOUS
 62
    7
 10
1057.4776079645453
 20
1025.3150097645484
 11
1057.7105923874988
 21
1025.2215393859296
  0
LINE
  8
_0-0_0
  6
CONTINUOUS
 62
    7
 10
1044.2460797328022
 20
1037.2121494344901
 11
1043.7097977762678
 21
1038.2878118993394
  0
LINE
  8
_0-0_0
  6
CONTINUOUS
 62
    7
 10
1043.7097977762678
 20
945.24124057621884
 11
1044.1150703774038
 21
946.62076901847104
  0
LINE
  8
_0-0_0
  6
CONTINUOUS
 62
    7
 10
1057.7105923874988
 20
970.16654985464993
 11
1056.8225813486861
 21
969.65063668032963
  0
LINE
  8
_0-0_0
  6
CONTINUOUS
 62
    7
 10
1044.1150703774038
 20
968.95334215505864
 11
1045.7526391571664
 21
971.39706397465852
  0
LINE
  8
_0-0_0
  6
CONTINUOUS
 62
    7
 10
1045.7526391571664
 20
971.39706397465852
 11
1045.7526391571664
 21
972.81601725031942
  0
LINE
  8
_0-0_0
  6
CONTINUOUS
 62
    7
 10
1045.7526391571664
 20
972.81601725031942
 11
1045.7526391571664
 21
974.19554610556952
  0
LINE
  8
_0-0_0
  6
CONTINUOUS
 62
    7
 10
1045.7526391571664
 20
974.19554610556952
 11
1045.7526391571664
 21
975.7721607186395
  0
LINE
  8
_0-0_0
  6
CONTINUOUS
 62
    7
 10
1045.7526391571664
 20
975.7721607186395
 11
1045.7526391571664
 21
977.46699985862142
  0
LINE
  8
_0-0_0
  6
CONTINUOUS
 62
    7
 10
1045.7526391571664
 20
977.46699985862142
 11
1045.5561312844147
 21
979.16186419178121
  0
LINE
  8
_0-0_0
  6
CONTINUOUS
 62
    7
 10
1045.5561312844147
 20
979.16186419178121
 11
1045.3596245317458
 21
980.89612775217029
  0
LINE
  8
_0-0_0
  6
CONTINUOUS
 62
    7
 10
1045.3596245317458
 20
980.89612775217029
 11
1045.0976136613754
 21
982.59096689214857
  0
LINE
  8
_0-0_0
  6
CONTINUOUS
 62
    7
 10
1045.0976136613754
 20
982.59096689214857
 11
1044.9011057886382
 21
985.83260818915005
  0
LINE
  8
_0-0_0
  6
CONTINUOUS
 62
    7
 10
1044.9011057886382
 20
985.83260818915005
 11
1044.2460797328022
 21
987.21214943449013
  0
LINE
  8
_0-0_0
  6
CONTINUOUS
 62
    7
 10
1046.3893722871726
 20
957.3810999540583
 11
1046.3893722871726
 21
958.12999502378079
  0
LINE
  8
_0-0_0
  6
CONTINUOUS
 62
    7
 10
1056.8225813486861
 20
969.65063668032963
 11
1055.5780327946632
 21
968.27109543498955
  0
LINE
  8
_0-0_0
  6
CONTINUOUS
 62
    7
 10
1055.5780327946632
 20
968.27109543498955
 11
1054.5299898732919
 21
966.37918292728136
  0
LINE
  8
_0-0_0
  6
CONTINUOUS
 62
    7
 10
1054.5299898732919
 20
966.37918292728136
 11
1054.267979002936
 21
965.43321407683834
  0
LINE
  8
_0-0_0
  6
CONTINUOUS
 62
    7
 10
1054.267979002936
 20
965.43321407683834
 11
1054.267979002936
 21
964.21134697199159
  0
LINE
  8
_0-0_0
  6
CONTINUOUS
 62
    7
 10
1054.267979002936
 20
964.21134697199159
 11
1054.0714711301916
 21
962.20115955103029
  0
LINE
  8
_0-0_0
  6
CONTINUOUS
 62
    7
 10
1054.0714711301916
 20
962.20115955103029
 11
1054.0714711301916
 21
961.57052617847876
  0
LINE
  8
_0-0_0
  6
CONTINUOUS
 62
    7
 10
1054.0714711301916
 20
961.57052617847876
 11
1054.5299898732919
 21
959.24502847278927
  0
LINE
  8
_0-0_0
  6
CONTINUOUS
 62
    7
 10
1054.5299898732919
 20
959.24502847278927
 11
1054.5299898732919
 21
958.61438271015868
  0
LINE
  8
_0-0_0
  6
CONTINUOUS
 62
    7
 10
1054.5299898732919
 20
958.61438271015868
 11
1055.5780327946632
 21
954.23931074635038
  0
LINE
  8
_0-0_0
  6
CONTINUOUS
 62
    7
 10
1055.5780327946632
 20
954.23931074635038
 11
1055.7745406674221
 21
951.03709428276125
  0
LINE
  8
_0-0_0
  6
CONTINUOUS
 62
    7
 10
1055.7745406674221
 20
951.03709428276125
 11
1056.4295672832741
 21
949.93346409489823
  0
LINE
  8
_0-0_0
  6
CONTINUOUS
 62
    7
 10
1056.4295672832741
 20
949.93346409489823
 11
1057.0190892214232
 21
948.98750763454882
  0
LINE
  8
_0-0_0
  6
CONTINUOUS
 62
    7
 10
1057.0190892214232
 20
948.98750763454882
 11
1057.4776079645453
 21
948.55393523964813
  0
LINE
  8
_0-0_0
  6
CONTINUOUS
 62
    7
 10
1046.1273625368849
 20
955.80449731806948
 11
1046.3893722871726
 21
957.3810999540583
  0
LINE
  8
_0-0_0
  6
CONTINUOUS
 62
    7
 10
1046.1273625368849
 20
955.05561505144942
 11
1046.1273625368849
 21
955.80449731806948
  0
LINE
  8
_0-0_0
  6
CONTINUOUS
 62
    7
 10
1045.9308546641478
 20
953.7943227001997
 11
1046.1273625368849
 21
955.05561505144942
  0
LINE
  8
_0-0_0
  6
CONTINUOUS
 62
    7
 10
1045.1631132987968
 20
952.37538222761941
 11
1045.9308546641478
 21
953.7943227001997
  0
LINE
  8
_0-0_0
  6
CONTINUOUS
 62
    7
 10
1045.1631132987968
 20
950.83819203496023
 11
1045.1631132987968
 21
952.37538222761941
  0
LINE
  8
_0-0_0
  6
CONTINUOUS
 62
    7
 10
1044.9666048659928
 20
949.73457423719083
 11
1045.1631132987968
 21
950.83819203496023
  0
LINE
  8
_0-0_0
  6
CONTINUOUS
 62
    7
 10
1044.3115782501554
 20
947.88206095671922
 11
1044.9666048659928
 21
949.73457423719083
  0
LINE
  8
_0-0_0
  6
CONTINUOUS
 62
    7
 10
1044.1150703774038
 20
946.62076901847104
 11
1044.3115782501554
 21
947.88206095671922
  0
LINE
  8
_0-0_0
  6
CONTINUOUS
 62
    7
 10
1057.4776079645453
 20
948.55393523964813
 11
1057.7105923874988
 21
948.34733307153147
  0
LINE
  8
_0-0_0
  6
CONTINUOUS
 62
    7
 10
1046.0829111111379
 20
960.89251014549882
 11
1044.985192479362
 21
961.71677186463057
  0
LINE
  8
_0-0_0
  6
CONTINUOUS
 62
    7
 10
1046.3893722871726
 20
959.7066100498414
 11
1046.0829111111379
 21
960.89251014549882
  0
LINE
  8
_0-0_0
  6
CONTINUOUS
 62
    7
 10
1046.3893722871726
 20
958.12999502378079
 11
1046.3893722871726
 21
959.7066100498414
  0
LINE
  8
_0-0_0
  6
CONTINUOUS
 62
    7
 10
1044.985192479362
 20
961.71677186463057
 11
1043.7097977762678
 21
962.32644534553037
  0
LINE
  8
_0-0_0
  6
CONTINUOUS
 62
    7
 10
1043.7097977762678
 20
968.65320683188111
 11
1044.1150703774038
 21
968.95334215505864
  0
LINE
  8
_0-0_0
  6
CONTINUOUS
 62
    7
 10
1057.7105923874988
 20
991.91055594696809
 11
1055.9710463000447
 21
989.93801538242042
  0
LINE
  8
_0-0_0
  6
CONTINUOUS
 62
    7
 10
1055.9710463000447
 20
989.93801538242042
 11
1055.3815243618883
 21
988.04610287470132
  0
LINE
  8
_0-0_0
  6
CONTINUOUS
 62
    7
 10
1055.3815243618883
 20
988.04610287470132
 11
1055.3815243618883
 21
986.35123854155972
  0
LINE
  8
_0-0_0
  6
CONTINUOUS
 62
    7
 10
1055.3815243618883
 20
986.35123854155972
 11
1055.3815243618883
 21
985.24762074377941
  0
LINE
  8
_0-0_0
  6
CONTINUOUS
 62
    7
 10
1055.3815243618883
 20
985.24762074377941
 11
1055.5780327946632
 21
982.92212303808992
  0
LINE
  8
_0-0_0
  6
CONTINUOUS
 62
    7
 10
1055.5780327946632
 20
982.92212303808992
 11
1055.9710463000447
 21
981.81849285024146
  0
LINE
  8
_0-0_0
  6
CONTINUOUS
 62
    7
 10
1055.9710463000447
 20
981.81849285024146
 11
1055.9710463000447
 21
980.28130265758955
  0
LINE
  8
_0-0_0
  6
CONTINUOUS
 62
    7
 10
1055.9710463000447
 20
980.28130265758955
 11
1055.9710463000447
 21
978.86236177201135
  0
LINE
  8
_0-0_0
  6
CONTINUOUS
 62
    7
 10
1055.9710463000447
 20
978.86236177201135
 11
1056.1675569729559
 21
978.11347909238975
  0
LINE
  8
_0-0_0
  6
CONTINUOUS
 62
    7
 10
1056.1675569729559
 20
978.11347909238975
 11
1056.4295672832741
 21
977.48283332975916
  0
LINE
  8
_0-0_0
  6
CONTINUOUS
 62
    7
 10
1056.4295672832741
 20
977.48283332975916
 11
1056.8225813486861
 21
976.37920272890915
  0
LINE
  8
_0-0_0
  6
CONTINUOUS
 62
    7
 10
1056.8225813486861
 20
976.37920272890915
 11
1057.4776079645453
 21
975.31500976454845
  0
LINE
  8
_0-0_0
  6
CONTINUOUS
 62
    7
 10
1057.4776079645453
 20
975.31500976454845
 11
1057.7105923874988
 21
975.22153938592965
  0
LINE
  8
_0-0_0
  6
CONTINUOUS
 62
    7
 10
1044.2460797328022
 20
987.21214943449013
 11
1043.7097977762678
 21
988.28781189933943
  0
LINE
  8
_0-0_0
  6
CONTINUOUS
 62
    7
 10
1043.7097977762678
 20
895.24124057621884
 11
1044.1150703774038
 21
896.62076901847104
  0
LINE
  8
_0-0_0
  6
CONTINUOUS
 62
    7
 10
1057.7105923874988
 20
920.16654985464993
 11
1056.8225813486861
 21
919.65063668032963
  0
LINE
  8
_0-0_0
  6
CONTINUOUS
 62
    7
 10
1044.1150703774038
 20
918.95334215505136
 11
1045.7526391571664
 21
921.39706397465852
  0
LINE
  8
_0-0_0
  6
CONTINUOUS
 62
    7
 10
1045.7526391571664
 20
921.39706397465852
 11
1045.7526391571664
 21
922.81601725031942
  0
LINE
  8
_0-0_0
  6
CONTINUOUS
 62
    7
 10
1045.7526391571664
 20
922.81601725031942
 11
1045.7526391571664
 21
924.19554610556952
  0
LINE
  8
_0-0_0
  6
CONTINUOUS
 62
    7
 10
1045.7526391571664
 20
924.19554610556952
 11
1045.7526391571664
 21
925.7721607186395
  0
LINE
  8
_0-0_0
  6
CONTINUOUS
 62
    7
 10
1045.7526391571664
 20
925.7721607186395
 11
1045.7526391571664
 21
927.46699985862142
  0
LINE
  8
_0-0_0
  6
CONTINUOUS
 62
    7
 10
1045.7526391571664
 20
927.46699985862142
 11
1045.5561312844147
 21
929.16186419177029
  0
LINE
  8
_0-0_0
  6
CONTINUOUS
 62
    7
 10
1045.5561312844147
 20
929.16186419177029
 11
1045.3596245317458
 21
930.89612775217029
  0
LINE
  8
_0-0_0
  6
CONTINUOUS
 62
    7
 10
1045.3596245317458
 20
930.89612775217029
 11
1045.0976136613754
 21
932.59096689214857
  0
LINE
  8
_0-0_0
  6
CONTINUOUS
 62
    7
 10
1045.0976136613754
 20
932.59096689214857
 11
1044.9011057886382
 21
935.83260818915005
  0
LINE
  8
_0-0_0
  6
CONTINUOUS
 62
    7
 10
1044.9011057886382
 20
935.83260818915005
 11
1044.2460797328022
 21
937.21214943449013
  0
LINE
  8
_0-0_0
  6
CONTINUOUS
 62
    7
 10
1046.3893722871726
 20
907.3810999540583
 11
1046.3893722871726
 21
908.12999502376988
  0
LINE
  8
_0-0_0
  6
CONTINUOUS
 62
    7
 10
1056.8225813486861
 20
919.65063668032963
 11
1055.5780327946632
 21
918.27109543498955
  0
LINE
  8
_0-0_0
  6
CONTINUOUS
 62
    7
 10
1055.5780327946632
 20
918.27109543498955
 11
1054.5299898732919
 21
916.37918292728136
  0
LINE
  8
_0-0_0
  6
CONTINUOUS
 62
    7
 10
1054.5299898732919
 20
916.37918292728136
 11
1054.267979002936
 21
915.43321407683834
  0
LINE
  8
_0-0_0
  6
CONTINUOUS
 62
    7
 10
1054.267979002936
 20
915.43321407683834
 11
1054.267979002936
 21
914.21134697199159
  0
LINE
  8
_0-0_0
  6
CONTINUOUS
 62
    7
 10
1054.267979002936
 20
914.21134697199159
 11
1054.0714711301916
 21
912.20115955103029
  0
LINE
  8
_0-0_0
  6
CONTINUOUS
 62
    7
 10
1054.0714711301916
 20
912.20115955103029
 11
1054.0714711301916
 21
911.57052617847876
  0
LINE
  8
_0-0_0
  6
CONTINUOUS
 62
    7
 10
1054.0714711301916
 20
911.57052617847876
 11
1054.5299898732919
 21
909.24502847278927
  0
LINE
  8
_0-0_0
  6
CONTINUOUS
 62
    7
 10
1054.5299898732919
 20
909.24502847278927
 11
1054.5299898732919
 21
908.61438271015868
  0
LINE
  8
_0-0_0
  6
CONTINUOUS
 62
    7
 10
1054.5299898732919
 20
908.61438271015868
 11
1055.5780327946632
 21
904.23931074635038
  0
LINE
  8
_0-0_0
  6
CONTINUOUS
 62
    7
 10
1055.5780327946632
 20
904.23931074635038
 11
1055.7745406674221
 21
901.03709428276125
  0
LINE
  8
_0-0_0
  6
CONTINUOUS
 62
    7
 10
1055.7745406674221
 20
901.03709428276125
 11
1056.4295672832741
 21
899.93346409489823
  0
LINE
  8
_0-0_0
  6
CONTINUOUS
 62
    7
 10
1056.4295672832741
 20
899.93346409489823
 11
1057.0190892214232
 21
898.98750763455973
  0
LINE
  8
_0-0_0
  6
CONTINUOUS
 62
    7
 10
1057.0190892214232
 20
898.98750763455973
 11
1057.4776079645453
 21
898.55393523964813
  0
LINE
  8
_0-0_0
  6
CONTINUOUS
 62
    7
 10
1046.1273625368849
 20
905.80449731806948
 11
1046.3893722871726
 21
907.3810999540583
  0
LINE
  8
_0-0_0
  6
CONTINUOUS
 62
    7
 10
1046.1273625368849
 20
905.05561505144942
 11
1046.1273625368849
 21
905.80449731806948
  0
LINE
  8
_0-0_0
  6
CONTINUOUS
 62
    7
 10
1045.9308546641478
 20
903.79432270021061
 11
1046.1273625368849
 21
905.05561505144942
  0
LINE
  8
_0-0_0
  6
CONTINUOUS
 62
    7
 10
1045.1631132987968
 20
902.37538222761941
 11
1045.9308546641478
 21
903.79432270021061
  0
LINE
  8
_0-0_0
  6
CONTINUOUS
 62
    7
 10
1045.1631132987968
 20
900.83819203496023
 11
1045.1631132987968
 21
902.37538222761941
  0
LINE
  8
_0-0_0
  6
CONTINUOUS
 62
    7
 10
1044.9666048659928
 20
899.73457423719083
 11
1045.1631132987968
 21
900.83819203496023
  0
LINE
  8
_0-0_0
  6
CONTINUOUS
 62
    7
 10
1044.3115782501554
 20
897.88206095671922
 11
1044.9666048659928
 21
899.73457423719083
  0
LINE
  8
_0-0_0
  6
CONTINUOUS
 62
    7
 10
1044.1150703774038
 20
896.62076901847104
 11
1044.3115782501554
 21
897.88206095671922
  0
LINE
  8
_0-0_0
  6
CONTINUOUS
 62
    7
 10
1057.4776079645453
 20
898.55393523964813
 11
1057.7105923874988
 21
898.34733307153147
  0
LINE
  8
_0-0_0
  6
CONTINUOUS
 62
    7
 10
1046.0829111111379
 20
910.89251014549882
 11
1044.985192479362
 21
911.71677186463057
  0
LINE
  8
_0-0_0
  6
CONTINUOUS
 62
    7
 10
1046.3893722871726
 20
909.7066100498414
 11
1046.0829111111379
 21
910.89251014549882
  0
LINE
  8
_0-0_0
  6
CONTINUOUS
 62
    7
 10
1046.3893722871726
 20
908.12999502376988
 11
1046.3893722871726
 21
909.7066100498414
  0
LINE
  8
_0-0_0
  6
CONTINUOUS
 62
    7
 10
1044.985192479362
 20
911.71677186463057
 11
1043.7097977762678
 21
912.32644534553037
  0
LINE
  8
_0-0_0
  6
CONTINUOUS
 62
    7
 10
1043.7097977762678
 20
918.65320683188111
 11
1044.1150703774038
 21
918.95334215505136
  0
LINE
  8
_0-0_0
  6
CONTINUOUS
 62
    7
 10
1057.7105923874988
 20
941.910555946979
 11
1055.9710463000447
 21
939.93801538242042
  0
LINE
  8
_0-0_0
  6
CONTINUOUS
 62
    7
 10
1055.9710463000447
 20
939.93801538242042
 11
1055.3815243618883
 21
938.04610287470132
  0
LINE
  8
_0-0_0
  6
CONTINUOUS
 62
    7
 10
1055.3815243618883
 20
938.04610287470132
 11
1055.3815243618883
 21
936.35123854154881
  0
LINE
  8
_0-0_0
  6
CONTINUOUS
 62
    7
 10
1055.3815243618883
 20
936.35123854154881
 11
1055.3815243618883
 21
935.24762074377941
  0
LINE
  8
_0-0_0
  6
CONTINUOUS
 62
    7
 10
1055.3815243618883
 20
935.24762074377941
 11
1055.5780327946632
 21
932.92212303808992
  0
LINE
  8
_0-0_0
  6
CONTINUOUS
 62
    7
 10
1055.5780327946632
 20
932.92212303808992
 11
1055.9710463000447
 21
931.81849285024146
  0
LINE
  8
_0-0_0
  6
CONTINUOUS
 62
    7
 10
1055.9710463000447
 20
931.81849285024146
 11
1055.9710463000447
 21
930.28130265758955
  0
LINE
  8
_0-0_0
  6
CONTINUOUS
 62
    7
 10
1055.9710463000447
 20
930.28130265758955
 11
1055.9710463000447
 21
928.86236177201135
  0
LINE
  8
_0-0_0
  6
CONTINUOUS
 62
    7
 10
1055.9710463000447
 20
928.86236177201135
 11
1056.1675569729559
 21
928.11347909238975
  0
LINE
  8
_0-0_0
  6
CONTINUOUS
 62
    7
 10
1056.1675569729559
 20
928.11347909238975
 11
1056.4295672832741
 21
927.48283332975916
  0
LINE
  8
_0-0_0
  6
CONTINUOUS
 62
    7
 10
1056.4295672832741
 20
927.48283332975916
 11
1056.8225813486861
 21
926.37920272890915
  0
LINE
  8
_0-0_0
  6
CONTINUOUS
 62
    7
 10
1056.8225813486861
 20
926.37920272890915
 11
1057.4776079645453
 21
925.31500976454845
  0
LINE
  8
_0-0_0
  6
CONTINUOUS
 62
    7
 10
1057.4776079645453
 20
925.31500976454845
 11
1057.7105923874988
 21
925.22153938592965
  0
LINE
  8
_0-0_0
  6
CONTINUOUS
 62
    7
 10
1044.2460797328022
 20
937.21214943449013
 11
1043.7097977762678
 21
938.28781189933943
  0
LINE
  8
_0-0_0
  6
CONTINUOUS
 62
    7
 10
1043.7097977762678
 20
845.24124057621884
 11
1044.1150703774038
 21
846.62076901847104
  0
LINE
  8
_0-0_0
  6
CONTINUOUS
 62
    7
 10
1057.7105923874988
 20
870.16654985464993
 11
1056.8225813486861
 21
869.65063668032963
  0
LINE
  8
_0-0_0
  6
CONTINUOUS
 62
    7
 10
1044.1150703774038
 20
868.95334215505864
 11
1045.7526391571664
 21
871.39706397465125
  0
LINE
  8
_0-0_0
  6
CONTINUOUS
 62
    7
 10
1045.7526391571664
 20
871.39706397465125
 11
1045.7526391571664
 21
872.81601725031942
  0
LINE
  8
_0-0_0
  6
CONTINUOUS
 62
    7
 10
1045.7526391571664
 20
872.81601725031942
 11
1045.7526391571664
 21
874.19554610556952
  0
LINE
  8
_0-0_0
  6
CONTINUOUS
 62
    7
 10
1045.7526391571664
 20
874.19554610556952
 11
1045.7526391571664
 21
875.7721607186395
  0
LINE
  8
_0-0_0
  6
CONTINUOUS
 62
    7
 10
1045.7526391571664
 20
875.7721607186395
 11
1045.7526391571664
 21
877.46699985862142
  0
LINE
  8
_0-0_0
  6
CONTINUOUS
 62
    7
 10
1045.7526391571664
 20
877.46699985862142
 11
1045.5561312844147
 21
879.16186419178121
  0
LINE
  8
_0-0_0
  6
CONTINUOUS
 62
    7
 10
1045.5561312844147
 20
879.16186419178121
 11
1045.3596245317458
 21
880.89612775217029
  0
LINE
  8
_0-0_0
  6
CONTINUOUS
 62
    7
 10
1045.3596245317458
 20
880.89612775217029
 11
1045.0976136613754
 21
882.59096689214857
  0
LINE
  8
_0-0_0
  6
CONTINUOUS
 62
    7
 10
1045.0976136613754
 20
882.59096689214857
 11
1044.9011057886382
 21
885.83260818916096
  0
LINE
  8
_0-0_0
  6
CONTINUOUS
 62
    7
 10
1044.9011057886382
 20
885.83260818916096
 11
1044.2460797328022
 21
887.21214943449013
  0
LINE
  8
_0-0_0
  6
CONTINUOUS
 62
    7
 10
1046.3893722871726
 20
857.3810999540583
 11
1046.3893722871726
 21
858.12999502378079
  0
LINE
  8
_0-0_0
  6
CONTINUOUS
 62
    7
 10
1056.8225813486861
 20
869.65063668032963
 11
1055.5780327946632
 21
868.27109543498955
  0
LINE
  8
_0-0_0
  6
CONTINUOUS
 62
    7
 10
1055.5780327946632
 20
868.27109543498955
 11
1054.5299898732919
 21
866.37918292728136
  0
LINE
  8
_0-0_0
  6
CONTINUOUS
 62
    7
 10
1054.5299898732919
 20
866.37918292728136
 11
1054.267979002936
 21
865.43321407683834
  0
LINE
  8
_0-0_0
  6
CONTINUOUS
 62
    7
 10
1054.267979002936
 20
865.43321407683834
 11
1054.267979002936
 21
864.21134697199159
  0
LINE
  8
_0-0_0
  6
CONTINUOUS
 62
    7
 10
1054.267979002936
 20
864.21134697199159
 11
1054.0714711301916
 21
862.20115955103029
  0
LINE
  8
_0-0_0
  6
CONTINUOUS
 62
    7
 10
1054.0714711301916
 20
862.20115955103029
 11
1054.0714711301916
 21
861.57052617847876
  0
LINE
  8
_0-0_0
  6
CONTINUOUS
 62
    7
 10
1054.0714711301916
 20
861.57052617847876
 11
1054.5299898732919
 21
859.24502847278927
  0
LINE
  8
_0-0_0
  6
CONTINUOUS
 62
    7
 10
1054.5299898732919
 20
859.24502847278927
 11
1054.5299898732919
 21
858.61438271015868
  0
LINE
  8
_0-0_0
  6
CONTINUOUS
 62
    7
 10
1054.5299898732919
 20
858.61438271015868
 11
1055.5780327946632
 21
854.23931074635038
  0
LINE
  8
_0-0_0
  6
CONTINUOUS
 62
    7
 10
1055.5780327946632
 20
854.23931074635038
 11
1055.7745406674221
 21
851.03709428276125
  0
LINE
  8
_0-0_0
  6
CONTINUOUS
 62
    7
 10
1055.7745406674221
 20
851.03709428276125
 11
1056.4295672832741
 21
849.93346409489823
  0
LINE
  8
_0-0_0
  6
CONTINUOUS
 62
    7
 10
1056.4295672832741
 20
849.93346409489823
 11
1057.0190892214232
 21
848.98750763454882
  0
LINE
  8
_0-0_0
  6
CONTINUOUS
 62
    7
 10
1057.0190892214232
 20
848.98750763454882
 11
1057.4776079645453
 21
848.55393523965904
  0
LINE
  8
_0-0_0
  6
CONTINUOUS
 62
    7
 10
1046.1273625368849
 20
855.80449731806948
 11
1046.3893722871726
 21
857.3810999540583
  0
LINE
  8
_0-0_0
  6
CONTINUOUS
 62
    7
 10
1046.1273625368849
 20
855.05561505144942
 11
1046.1273625368849
 21
855.80449731806948
  0
LINE
  8
_0-0_0
  6
CONTINUOUS
 62
    7
 10
1045.9308546641478
 20
853.7943227001997
 11
1046.1273625368849
 21
855.05561505144942
  0
LINE
  8
_0-0_0
  6
CONTINUOUS
 62
    7
 10
1045.1631132987968
 20
852.37538222761941
 11
1045.9308546641478
 21
853.7943227001997
  0
LINE
  8
_0-0_0
  6
CONTINUOUS
 62
    7
 10
1045.1631132987968
 20
850.83819203496023
 11
1045.1631132987968
 21
852.37538222761941
  0
LINE
  8
_0-0_0
  6
CONTINUOUS
 62
    7
 10
1044.9666048659928
 20
849.73457423719083
 11
1045.1631132987968
 21
850.83819203496023
  0
LINE
  8
_0-0_0
  6
CONTINUOUS
 62
    7
 10
1044.3115782501554
 20
847.88206095673013
 11
1044.9666048659928
 21
849.73457423719083
  0
LINE
  8
_0-0_0
  6
CONTINUOUS
 62
    7
 10
1044.1150703774038
 20
846.62076901847104
 11
1044.3115782501554
 21
847.88206095673013
  0
LINE
  8
_0-0_0
  6
CONTINUOUS
 62
    7
 10
1057.4776079645453
 20
848.55393523965904
 11
1057.7105923874988
 21
848.34733307153147
  0
LINE
  8
_0-0_0
  6
CONTINUOUS
 62
    7
 10
1046.0829111111379
 20
860.89251014549882
 11
1044.985192479362
 21
861.71677186463057
  0
LINE
  8
_0-0_0
  6
CONTINUOUS
 62
    7
 10
1046.3893722871726
 20
859.7066100498414
 11
1046.0829111111379
 21
860.89251014549882
  0
LINE
  8
_0-0_0
  6
CONTINUOUS
 62
    7
 10
1046.3893722871726
 20
858.12999502378079
 11
1046.3893722871726
 21
859.7066100498414
  0
LINE
  8
_0-0_0
  6
CONTINUOUS
 62
    7
 10
1044.985192479362
 20
861.71677186463057
 11
1043.7097977762678
 21
862.32644534553037
  0
LINE
  8
_0-0_0
  6
CONTINUOUS
 62
    7
 10
1043.7097977762678
 20
868.65320683188111
 11
1044.1150703774038
 21
868.95334215505864
  0
LINE
  8
_0-0_0
  6
CONTINUOUS
 62
    7
 10
1057.7105923874988
 20
891.910555946979
 11
1055.9710463000447
 21
889.93801538242042
  0
LINE
  8
_0-0_0
  6
CONTINUOUS
 62
    7
 10
1055.9710463000447
 20
889.93801538242042
 11
1055.3815243618883
 21
888.04610287470132
  0
LINE
  8
_0-0_0
  6
CONTINUOUS
 62
    7
 10
1055.3815243618883
 20
888.04610287470132
 11
1055.3815243618883
 21
886.35123854154881
  0
LINE
  8
_0-0_0
  6
CONTINUOUS
 62
    7
 10
1055.3815243618883
 20
886.35123854154881
 11
1055.3815243618883
 21
885.24762074377941
  0
LINE
  8
_0-0_0
  6
CONTINUOUS
 62
    7
 10
1055.3815243618883
 20
885.24762074377941
 11
1055.5780327946632
 21
882.92212303808992
  0
LINE
  8
_0-0_0
  6
CONTINUOUS
 62
    7
 10
1055.5780327946632
 20
882.92212303808992
 11
1055.9710463000447
 21
881.81849285024146
  0
LINE
  8
_0-0_0
  6
CONTINUOUS
 62
    7
 10
1055.9710463000447
 20
881.81849285024146
 11
1055.9710463000447
 21
880.28130265758955
  0
LINE
  8
_0-0_0
  6
CONTINUOUS
 62
    7
 10
1055.9710463000447
 20
880.28130265758955
 11
1055.9710463000447
 21
878.86236177201135
  0
LINE
  8
_0-0_0
  6
CONTINUOUS
 62
    7
 10
1055.9710463000447
 20
878.86236177201135
 11
1056.1675569729559
 21
878.11347909238975
  0
LINE
  8
_0-0_0
  6
CONTINUOUS
 62
    7
 10
1056.1675569729559
 20
878.11347909238975
 11
1056.4295672832741
 21
877.48283332975916
  0
LINE
  8
_0-0_0
  6
CONTINUOUS
 62
    7
 10
1056.4295672832741
 20
877.48283332975916
 11
1056.8225813486861
 21
876.37920272890915
  0
LINE
  8
_0-0_0
  6
CONTINUOUS
 62
    7
 10
1056.8225813486861
 20
876.37920272890915
 11
1057.4776079645453
 21
875.31500976454845
  0
LINE
  8
_0-0_0
  6
CONTINUOUS
 62
    7
 10
1057.4776079645453
 20
875.31500976454845
 11
1057.7105923874988
 21
875.22153938592965
  0
LINE
  8
_0-0_0
  6
CONTINUOUS
 62
    7
 10
1044.2460797328022
 20
887.21214943449013
 11
1043.7097977762678
 21
888.28781189933943
  0
LINE
  8
_0-0_0
  6
CONTINUOUS
 62
    7
 10
1045.7526391571664
 20
821.51888661753037
 11
1045.7526391571664
 21
822.81601725031942
  0
LINE
  8
_0-0_0
  6
CONTINUOUS
 62
    7
 10
1045.7526391571664
 20
822.81601725031942
 11
1045.7526391571664
 21
824.19554610556952
  0
LINE
  8
_0-0_0
  6
CONTINUOUS
 62
    7
 10
1045.7526391571664
 20
824.19554610556952
 11
1045.7526391571664
 21
825.7721607186395
  0
LINE
  8
_0-0_0
  6
CONTINUOUS
 62
    7
 10
1045.7526391571664
 20
825.7721607186395
 11
1045.7526391571664
 21
827.46699985862142
  0
LINE
  8
_0-0_0
  6
CONTINUOUS
 62
    7
 10
1045.7526391571664
 20
827.46699985862142
 11
1045.5561312844147
 21
829.16186419177029
  0
LINE
  8
_0-0_0
  6
CONTINUOUS
 62
    7
 10
1045.5561312844147
 20
829.16186419177029
 11
1045.3596245317458
 21
830.89612775217029
  0
LINE
  8
_0-0_0
  6
CONTINUOUS
 62
    7
 10
1045.3596245317458
 20
830.89612775217029
 11
1045.0976136613754
 21
832.59096689214857
  0
LINE
  8
_0-0_0
  6
CONTINUOUS
 62
    7
 10
1045.0976136613754
 20
832.59096689214857
 11
1044.9011057886382
 21
835.83260818916096
  0
LINE
  8
_0-0_0
  6
CONTINUOUS
 62
    7
 10
1044.9011057886382
 20
835.83260818916096
 11
1044.2460797328022
 21
837.21214943449013
  0
LINE
  8
_0-0_0
  6
CONTINUOUS
 62
    7
 10
1057.7105923874988
 20
841.910555946979
 11
1055.9710463000447
 21
839.93801538242042
  0
LINE
  8
_0-0_0
  6
CONTINUOUS
 62
    7
 10
1055.9710463000447
 20
839.93801538242042
 11
1055.3815243618883
 21
838.04610287470132
  0
LINE
  8
_0-0_0
  6
CONTINUOUS
 62
    7
 10
1055.3815243618883
 20
838.04610287470132
 11
1055.3815243618883
 21
836.35123854154881
  0
LINE
  8
_0-0_0
  6
CONTINUOUS
 62
    7
 10
1055.3815243618883
 20
836.35123854154881
 11
1055.3815243618883
 21
835.24762074377941
  0
LINE
  8
_0-0_0
  6
CONTINUOUS
 62
    7
 10
1055.3815243618883
 20
835.24762074377941
 11
1055.5780327946632
 21
832.92212303808992
  0
LINE
  8
_0-0_0
  6
CONTINUOUS
 62
    7
 10
1055.5780327946632
 20
832.92212303808992
 11
1055.9710463000447
 21
831.81849285024146
  0
LINE
  8
_0-0_0
  6
CONTINUOUS
 62
    7
 10
1055.9710463000447
 20
831.81849285024146
 11
1055.9710463000447
 21
830.28130265758955
  0
LINE
  8
_0-0_0
  6
CONTINUOUS
 62
    7
 10
1055.9710463000447
 20
830.28130265758955
 11
1055.9710463000447
 21
828.86236177201135
  0
LINE
  8
_0-0_0
  6
CONTINUOUS
 62
    7
 10
1055.9710463000447
 20
828.86236177201135
 11
1056.1675569729559
 21
828.11347909238975
  0
LINE
  8
_0-0_0
  6
CONTINUOUS
 62
    7
 10
1056.1675569729559
 20
828.11347909238975
 11
1056.4295672832741
 21
827.48283332975916
  0
LINE
  8
_0-0_0
  6
CONTINUOUS
 62
    7
 10
1056.4295672832741
 20
827.48283332975916
 11
1056.8225813486861
 21
826.37920272890915
  0
LINE
  8
_0-0_0
  6
CONTINUOUS
 62
    7
 10
1056.8225813486861
 20
826.37920272890915
 11
1057.4776079645453
 21
825.31500976454845
  0
LINE
  8
_0-0_0
  6
CONTINUOUS
 62
    7
 10
1057.4776079645453
 20
825.31500976454845
 11
1057.7105923874988
 21
825.22153938592965
  0
LINE
  8
_0-0_0
  6
CONTINUOUS
 62
    7
 10
1044.2460797328022
 20
837.21214943449013
 11
1043.7097977762678
 21
838.28781189933943
  0
LINE
  8
_0-0_0
  6
CONTINUOUS
 62
    7
 10
1043.7097977762678
 20
616.4637525315411
 11
1044.1150703774038
 21
617.84328097378966
  0
LINE
  8
_0-0_0
  6
CONTINUOUS
 62
    7
 10
1057.7105923874988
 20
641.38906180996855
 11
1056.8225813486861
 21
640.87314863564097
  0
LINE
  8
_0-0_0
  6
CONTINUOUS
 62
    7
 10
1044.1150703774038
 20
640.17585411036998
 11
1045.7526391571664
 21
642.61957592996987
  0
LINE
  8
_0-0_0
  6
CONTINUOUS
 62
    7
 10
1045.7526391571664
 20
642.61957592996987
 11
1045.7526391571664
 21
644.03852920563077
  0
LINE
  8
_0-0_0
  6
CONTINUOUS
 62
    7
 10
1045.7526391571664
 20
644.03852920563077
 11
1045.7526391571664
 21
645.41805806088814
  0
LINE
  8
_0-0_0
  6
CONTINUOUS
 62
    7
 10
1045.7526391571664
 20
645.41805806088814
 11
1045.7526391571664
 21
646.99467267395084
  0
LINE
  8
_0-0_0
  6
CONTINUOUS
 62
    7
 10
1045.7526391571664
 20
646.99467267395084
 11
1045.7526391571664
 21
648.68951181394004
  0
LINE
  8
_0-0_0
  6
CONTINUOUS
 62
    7
 10
1045.7526391571664
 20
648.68951181394004
 11
1045.5561312844147
 21
650.38437614708891
  0
LINE
  8
_0-0_0
  6
CONTINUOUS
 62
    7
 10
1045.5561312844147
 20
650.38437614708891
 11
1045.3596245317458
 21
652.11863970748891
  0
LINE
  8
_0-0_0
  6
CONTINUOUS
 62
    7
 10
1045.3596245317458
 20
652.11863970748891
 11
1045.0976136613754
 21
653.81347884747083
  0
LINE
  8
_0-0_0
  6
CONTINUOUS
 62
    7
 10
1045.0976136613754
 20
653.81347884747083
 11
1044.9011057886382
 21
657.05512014446867
  0
LINE
  8
_0-0_0
  6
CONTINUOUS
 62
    7
 10
1044.9011057886382
 20
657.05512014446867
 11
1044.2460797328022
 21
658.43466138980875
  0
LINE
  8
_0-0_0
  6
CONTINUOUS
 62
    7
 10
1046.3893722871726
 20
628.60361190938056
 11
1046.3893722871726
 21
629.3525069790885
  0
LINE
  8
_0-0_0
  6
CONTINUOUS
 62
    7
 10
1056.8225813486861
 20
640.87314863564097
 11
1055.5780327946632
 21
639.49360739030089
  0
LINE
  8
_0-0_0
  6
CONTINUOUS
 62
    7
 10
1055.5780327946632
 20
639.49360739030089
 11
1054.5299898732919
 21
637.60169488258907
  0
LINE
  8
_0-0_0
  6
CONTINUOUS
 62
    7
 10
1054.5299898732919
 20
637.60169488258907
 11
1054.267979002936
 21
636.65572603214969
  0
LINE
  8
_0-0_0
  6
CONTINUOUS
 62
    7
 10
1054.267979002936
 20
636.65572603214969
 11
1054.267979002936
 21
635.43385892731021
  0
LINE
  8
_0-0_0
  6
CONTINUOUS
 62
    7
 10
1054.267979002936
 20
635.43385892731021
 11
1054.0714711301916
 21
633.42367150634163
  0
LINE
  8
_0-0_0
  6
CONTINUOUS
 62
    7
 10
1054.0714711301916
 20
633.42367150634163
 11
1054.0714711301916
 21
632.79303813379011
  0
LINE
  8
_0-0_0
  6
CONTINUOUS
 62
    7
 10
1054.0714711301916
 20
632.79303813379011
 11
1054.5299898732919
 21
630.46754042811153
  0
LINE
  8
_0-0_0
  6
CONTINUOUS
 62
    7
 10
1054.5299898732919
 20
630.46754042811153
 11
1054.5299898732919
 21
629.83689466547003
  0
LINE
  8
_0-0_0
  6
CONTINUOUS
 62
    7
 10
1054.5299898732919
 20
629.83689466547003
 11
1055.5780327946632
 21
625.46182270166901
  0
LINE
  8
_0-0_0
  6
CONTINUOUS
 62
    7
 10
1055.5780327946632
 20
625.46182270166901
 11
1055.7745406674221
 21
622.25960623806895
  0
LINE
  8
_0-0_0
  6
CONTINUOUS
 62
    7
 10
1055.7745406674221
 20
622.25960623806895
 11
1056.4295672832741
 21
621.15597605022049
  0
LINE
  8
_0-0_0
  6
CONTINUOUS
 62
    7
 10
1056.4295672832741
 20
621.15597605022049
 11
1057.0190892214232
 21
620.21001958987108
  0
LINE
  8
_0-0_0
  6
CONTINUOUS
 62
    7
 10
1057.0190892214232
 20
620.21001958987108
 11
1057.4776079645453
 21
619.77644719497039
  0
LINE
  8
_0-0_0
  6
CONTINUOUS
 62
    7
 10
1046.1273625368849
 20
627.0270092733881
 11
1046.3893722871726
 21
628.60361190938056
  0
LINE
  8
_0-0_0
  6
CONTINUOUS
 62
    7
 10
1046.1273625368849
 20
626.27812700677168
 11
1046.1273625368849
 21
627.0270092733881
  0
LINE
  8
_0-0_0
  6
CONTINUOUS
 62
    7
 10
1045.9308546641478
 20
625.01683465551832
 11
1046.1273625368849
 21
626.27812700677168
  0
LINE
  8
_0-0_0
  6
CONTINUOUS
 62
    7
 10
1045.1631132987968
 20
623.59789418294167
 11
1045.9308546641478
 21
625.01683465551832
  0
LINE
  8
_0-0_0
  6
CONTINUOUS
 62
    7
 10
1045.1631132987968
 20
622.06070399027885
 11
1045.1631132987968
 21
623.59789418294167
  0
LINE
  8
_0-0_0
  6
CONTINUOUS
 62
    7
 10
1044.9666048659928
 20
620.95708619250945
 11
1045.1631132987968
 21
622.06070399027885
  0
LINE
  8
_0-0_0
  6
CONTINUOUS
 62
    7
 10
1044.3115782501554
 20
619.10457291204148
 11
1044.9666048659928
 21
620.95708619250945
  0
LINE
  8
_0-0_0
  6
CONTINUOUS
 62
    7
 10
1044.1150703774038
 20
617.84328097378966
 11
1044.3115782501554
 21
619.10457291204148
  0
LINE
  8
_0-0_0
  6
CONTINUOUS
 62
    7
 10
1057.4776079645453
 20
619.77644719497039
 11
1057.7105923874988
 21
619.56984502685009
  0
LINE
  8
_0-0_0
  6
CONTINUOUS
 62
    7
 10
1046.0829111111379
 20
632.11502210082108
 11
1044.985192479362
 21
632.93928381993828
  0
LINE
  8
_0-0_0
  6
CONTINUOUS
 62
    7
 10
1046.3893722871726
 20
630.92912200516002
 11
1046.0829111111379
 21
632.11502210082108
  0
LINE
  8
_0-0_0
  6
CONTINUOUS
 62
    7
 10
1046.3893722871726
 20
629.3525069790885
 11
1046.3893722871726
 21
630.92912200516002
  0
LINE
  8
_0-0_0
  6
CONTINUOUS
 62
    7
 10
1044.985192479362
 20
632.93928381993828
 11
1043.7097977762678
 21
633.54895730083808
  0
LINE
  8
_0-0_0
  6
CONTINUOUS
 62
    7
 10
1043.7097977762678
 20
639.87571878718882
 11
1044.1150703774038
 21
640.17585411036998
  0
LINE
  8
_0-0_0
  6
CONTINUOUS
 62
    7
 10
1057.7105923874988
 20
663.13306790229035
 11
1055.9710463000447
 21
661.16052733773904
  0
LINE
  8
_0-0_0
  6
CONTINUOUS
 62
    7
 10
1055.9710463000447
 20
661.16052733773904
 11
1055.3815243618883
 21
659.26861483001994
  0
LINE
  8
_0-0_0
  6
CONTINUOUS
 62
    7
 10
1055.3815243618883
 20
659.26861483001994
 11
1055.3815243618883
 21
657.57375049687107
  0
LINE
  8
_0-0_0
  6
CONTINUOUS
 62
    7
 10
1055.3815243618883
 20
657.57375049687107
 11
1055.3815243618883
 21
656.47013269909075
  0
LINE
  8
_0-0_0
  6
CONTINUOUS
 62
    7
 10
1055.3815243618883
 20
656.47013269909075
 11
1055.5780327946632
 21
654.14463499340854
  0
LINE
  8
_0-0_0
  6
CONTINUOUS
 62
    7
 10
1055.5780327946632
 20
654.14463499340854
 11
1055.9710463000447
 21
653.04100480556008
  0
LINE
  8
_0-0_0
  6
CONTINUOUS
 62
    7
 10
1055.9710463000447
 20
653.04100480556008
 11
1055.9710463000447
 21
651.5038146129009
  0
LINE
  8
_0-0_0
  6
CONTINUOUS
 62
    7
 10
1055.9710463000447
 20
651.5038146129009
 11
1055.9710463000447
 21
650.08487372732998
  0
LINE
  8
_0-0_0
  6
CONTINUOUS
 62
    7
 10
1055.9710463000447
 20
650.08487372732998
 11
1056.1675569729559
 21
649.3359910477011
  0
LINE
  8
_0-0_0
  6
CONTINUOUS
 62
    7
 10
1056.1675569729559
 20
649.3359910477011
 11
1056.4295672832741
 21
648.70534528507051
  0
LINE
  8
_0-0_0
  6
CONTINUOUS
 62
    7
 10
1056.4295672832741
 20
648.70534528507051
 11
1056.8225813486861
 21
647.60171468423141
  0
LINE
  8
_0-0_0
  6
CONTINUOUS
 62
    7
 10
1056.8225813486861
 20
647.60171468423141
 11
1057.4776079645453
 21
646.53752171987071
  0
LINE
  8
_0-0_0
  6
CONTINUOUS
 62
    7
 10
1057.4776079645453
 20
646.53752171987071
 11
1057.7105923874988
 21
646.44405134124099
  0
LINE
  8
_0-0_0
  6
CONTINUOUS
 62
    7
 10
1044.2460797328022
 20
658.43466138980875
 11
1043.7097977762678
 21
659.51032385465078
  0
LINE
  8
_0-0_0
  6
CONTINUOUS
 62
    7
 10
1043.7097977762678
 20
566.46375253153019
 11
1044.1150703774038
 21
567.84328097378966
  0
LINE
  8
_0-0_0
  6
CONTINUOUS
 62
    7
 10
1057.7105923874988
 20
591.38906180996855
 11
1056.8225813486861
 21
590.87314863564097
  0
LINE
  8
_0-0_0
  6
CONTINUOUS
 62
    7
 10
1044.1150703774038
 20
590.17585411036998
 11
1045.7526391571664
 21
592.61957592996987
  0
LINE
  8
_0-0_0
  6
CONTINUOUS
 62
    7
 10
1045.7526391571664
 20
592.61957592996987
 11
1045.7526391571664
 21
594.03852920564168
  0
LINE
  8
_0-0_0
  6
CONTINUOUS
 62
    7
 10
1045.7526391571664
 20
594.03852920564168
 11
1045.7526391571664
 21
595.41805806088814
  0
LINE
  8
_0-0_0
  6
CONTINUOUS
 62
    7
 10
1045.7526391571664
 20
595.41805806088814
 11
1045.7526391571664
 21
596.99467267395812
  0
LINE
  8
_0-0_0
  6
CONTINUOUS
 62
    7
 10
1045.7526391571664
 20
596.99467267395812
 11
1045.7526391571664
 21
598.68951181394004
  0
LINE
  8
_0-0_0
  6
CONTINUOUS
 62
    7
 10
1045.7526391571664
 20
598.68951181394004
 11
1045.5561312844147
 21
600.38437614708891
  0
LINE
  8
_0-0_0
  6
CONTINUOUS
 62
    7
 10
1045.5561312844147
 20
600.38437614708891
 11
1045.3596245317458
 21
602.11863970748163
  0
LINE
  8
_0-0_0
  6
CONTINUOUS
 62
    7
 10
1045.3596245317458
 20
602.11863970748163
 11
1045.0976136613754
 21
603.81347884747083
  0
LINE
  8
_0-0_0
  6
CONTINUOUS
 62
    7
 10
1045.0976136613754
 20
603.81347884747083
 11
1044.9011057886382
 21
607.05512014446867
  0
LINE
  8
_0-0_0
  6
CONTINUOUS
 62
    7
 10
1044.9011057886382
 20
607.05512014446867
 11
1044.2460797328022
 21
608.43466138980148
  0
LINE
  8
_0-0_0
  6
CONTINUOUS
 62
    7
 10
1046.3893722871726
 20
578.60361190938056
 11
1046.3893722871726
 21
579.3525069790885
  0
LINE
  8
_0-0_0
  6
CONTINUOUS
 62
    7
 10
1056.8225813486861
 20
590.87314863564097
 11
1055.5780327946632
 21
589.49360739030817
  0
LINE
  8
_0-0_0
  6
CONTINUOUS
 62
    7
 10
1055.5780327946632
 20
589.49360739030817
 11
1054.5299898732919
 21
587.60169488258907
  0
LINE
  8
_0-0_0
  6
CONTINUOUS
 62
    7
 10
1054.5299898732919
 20
587.60169488258907
 11
1054.267979002936
 21
586.65572603214969
  0
LINE
  8
_0-0_0
  6
CONTINUOUS
 62
    7
 10
1054.267979002936
 20
586.65572603214969
 11
1054.267979002936
 21
585.43385892731021
  0
LINE
  8
_0-0_0
  6
CONTINUOUS
 62
    7
 10
1054.267979002936
 20
585.43385892731021
 11
1054.0714711301916
 21
583.42367150634163
  0
LINE
  8
_0-0_0
  6
CONTINUOUS
 62
    7
 10
1054.0714711301916
 20
583.42367150634163
 11
1054.0714711301916
 21
582.79303813380102
  0
LINE
  8
_0-0_0
  6
CONTINUOUS
 62
    7
 10
1054.0714711301916
 20
582.79303813380102
 11
1054.5299898732919
 21
580.46754042810062
  0
LINE
  8
_0-0_0
  6
CONTINUOUS
 62
    7
 10
1054.5299898732919
 20
580.46754042810062
 11
1054.5299898732919
 21
579.83689466547003
  0
LINE
  8
_0-0_0
  6
CONTINUOUS
 62
    7
 10
1054.5299898732919
 20
579.83689466547003
 11
1055.5780327946632
 21
575.46182270166901
  0
LINE
  8
_0-0_0
  6
CONTINUOUS
 62
    7
 10
1055.5780327946632
 20
575.46182270166901
 11
1055.7745406674221
 21
572.25960623806895
  0
LINE
  8
_0-0_0
  6
CONTINUOUS
 62
    7
 10
1055.7745406674221
 20
572.25960623806895
 11
1056.4295672832741
 21
571.15597605022049
  0
LINE
  8
_0-0_0
  6
CONTINUOUS
 62
    7
 10
1056.4295672832741
 20
571.15597605022049
 11
1057.0190892214232
 21
570.21001958987108
  0
LINE
  8
_0-0_0
  6
CONTINUOUS
 62
    7
 10
1057.0190892214232
 20
570.21001958987108
 11
1057.4776079645453
 21
569.77644719497039
  0
LINE
  8
_0-0_0
  6
CONTINUOUS
 62
    7
 10
1046.1273625368849
 20
577.0270092733881
 11
1046.3893722871726
 21
578.60361190938056
  0
LINE
  8
_0-0_0
  6
CONTINUOUS
 62
    7
 10
1046.1273625368849
 20
576.27812700677168
 11
1046.1273625368849
 21
577.0270092733881
  0
LINE
  8
_0-0_0
  6
CONTINUOUS
 62
    7
 10
1045.9308546641478
 20
575.01683465551832
 11
1046.1273625368849
 21
576.27812700677168
  0
LINE
  8
_0-0_0
  6
CONTINUOUS
 62
    7
 10
1045.1631132987968
 20
573.59789418294167
 11
1045.9308546641478
 21
575.01683465551832
  0
LINE
  8
_0-0_0
  6
CONTINUOUS
 62
    7
 10
1045.1631132987968
 20
572.06070399027885
 11
1045.1631132987968
 21
573.59789418294167
  0
LINE
  8
_0-0_0
  6
CONTINUOUS
 62
    7
 10
1044.9666048659928
 20
570.95708619250945
 11
1045.1631132987968
 21
572.06070399027885
  0
LINE
  8
_0-0_0
  6
CONTINUOUS
 62
    7
 10
1044.3115782501554
 20
569.10457291204148
 11
1044.9666048659928
 21
570.95708619250945
  0
LINE
  8
_0-0_0
  6
CONTINUOUS
 62
    7
 10
1044.1150703774038
 20
567.84328097378966
 11
1044.3115782501554
 21
569.10457291204148
  0
LINE
  8
_0-0_0
  6
CONTINUOUS
 62
    7
 10
1057.4776079645453
 20
569.77644719497039
 11
1057.7105923874988
 21
569.56984502683918
  0
LINE
  8
_0-0_0
  6
CONTINUOUS
 62
    7
 10
1046.0829111111379
 20
582.11502210082108
 11
1044.985192479362
 21
582.93928381993828
  0
LINE
  8
_0-0_0
  6
CONTINUOUS
 62
    7
 10
1046.3893722871726
 20
580.92912200516002
 11
1046.0829111111379
 21
582.11502210082108
  0
LINE
  8
_0-0_0
  6
CONTINUOUS
 62
    7
 10
1046.3893722871726
 20
579.3525069790885
 11
1046.3893722871726
 21
580.92912200516002
  0
LINE
  8
_0-0_0
  6
CONTINUOUS
 62
    7
 10
1044.985192479362
 20
582.93928381993828
 11
1043.7097977762678
 21
583.54895730083808
  0
LINE
  8
_0-0_0
  6
CONTINUOUS
 62
    7
 10
1043.7097977762678
 20
589.87571878719973
 11
1044.1150703774038
 21
590.17585411036998
  0
LINE
  8
_0-0_0
  6
CONTINUOUS
 62
    7
 10
1057.7105923874988
 20
613.13306790229035
 11
1055.9710463000447
 21
611.16052733772813
  0
LINE
  8
_0-0_0
  6
CONTINUOUS
 62
    7
 10
1055.9710463000447
 20
611.16052733772813
 11
1055.3815243618883
 21
609.26861483001994
  0
LINE
  8
_0-0_0
  6
CONTINUOUS
 62
    7
 10
1055.3815243618883
 20
609.26861483001994
 11
1055.3815243618883
 21
607.57375049687107
  0
LINE
  8
_0-0_0
  6
CONTINUOUS
 62
    7
 10
1055.3815243618883
 20
607.57375049687107
 11
1055.3815243618883
 21
606.47013269909075
  0
LINE
  8
_0-0_0
  6
CONTINUOUS
 62
    7
 10
1055.3815243618883
 20
606.47013269909075
 11
1055.5780327946632
 21
604.14463499340854
  0
LINE
  8
_0-0_0
  6
CONTINUOUS
 62
    7
 10
1055.5780327946632
 20
604.14463499340854
 11
1055.9710463000447
 21
603.04100480556008
  0
LINE
  8
_0-0_0
  6
CONTINUOUS
 62
    7
 10
1055.9710463000447
 20
603.04100480556008
 11
1055.9710463000447
 21
601.50381461290817
  0
LINE
  8
_0-0_0
  6
CONTINUOUS
 62
    7
 10
1055.9710463000447
 20
601.50381461290817
 11
1055.9710463000447
 21
600.08487372732998
  0
LINE
  8
_0-0_0
  6
CONTINUOUS
 62
    7
 10
1055.9710463000447
 20
600.08487372732998
 11
1056.1675569729559
 21
599.33599104770838
  0
LINE
  8
_0-0_0
  6
CONTINUOUS
 62
    7
 10
1056.1675569729559
 20
599.33599104770838
 11
1056.4295672832741
 21
598.70534528508142
  0
LINE
  8
_0-0_0
  6
CONTINUOUS
 62
    7
 10
1056.4295672832741
 20
598.70534528508142
 11
1056.8225813486861
 21
597.6017146842205
  0
LINE
  8
_0-0_0
  6
CONTINUOUS
 62
    7
 10
1056.8225813486861
 20
597.6017146842205
 11
1057.4776079645453
 21
596.53752171987071
  0
LINE
  8
_0-0_0
  6
CONTINUOUS
 62
    7
 10
1057.4776079645453
 20
596.53752171987071
 11
1057.7105923874988
 21
596.44405134124099
  0
LINE
  8
_0-0_0
  6
CONTINUOUS
 62
    7
 10
1044.2460797328022
 20
608.43466138980148
 11
1043.7097977762678
 21
609.51032385466169
  0
LINE
  8
_0-0_0
  6
CONTINUOUS
 62
    7
 10
1043.7097977762678
 20
516.4637525315411
 11
1044.1150703774038
 21
517.84328097378977
  0
LINE
  8
_0-0_0
  6
CONTINUOUS
 62
    7
 10
1057.7105923874988
 20
541.38906180996128
 11
1056.8225813486861
 21
540.87314863564097
  0
LINE
  8
_0-0_0
  6
CONTINUOUS
 62
    7
 10
1044.1150703774038
 20
540.17585411036998
 11
1045.7526391571664
 21
542.61957592996987
  0
LINE
  8
_0-0_0
  6
CONTINUOUS
 62
    7
 10
1045.7526391571664
 20
542.61957592996987
 11
1045.7526391571664
 21
544.03852920564179
  0
LINE
  8
_0-0_0
  6
CONTINUOUS
 62
    7
 10
1045.7526391571664
 20
544.03852920564179
 11
1045.7526391571664
 21
545.41805806088087
  0
LINE
  8
_0-0_0
  6
CONTINUOUS
 62
    7
 10
1045.7526391571664
 20
545.41805806088087
 11
1045.7526391571664
 21
546.99467267395812
  0
LINE
  8
_0-0_0
  6
CONTINUOUS
 62
    7
 10
1045.7526391571664
 20
546.99467267395812
 11
1045.7526391571664
 21
548.68951181394004
  0
LINE
  8
_0-0_0
  6
CONTINUOUS
 62
    7
 10
1045.7526391571664
 20
548.68951181394004
 11
1045.5561312844147
 21
550.38437614708891
  0
LINE
  8
_0-0_0
  6
CONTINUOUS
 62
    7
 10
1045.5561312844147
 20
550.38437614708891
 11
1045.3596245317458
 21
552.11863970748891
  0
LINE
  8
_0-0_0
  6
CONTINUOUS
 62
    7
 10
1045.3596245317458
 20
552.11863970748891
 11
1045.0976136613754
 21
553.81347884747083
  0
LINE
  8
_0-0_0
  6
CONTINUOUS
 62
    7
 10
1045.0976136613754
 20
553.81347884747083
 11
1044.9011057886382
 21
557.05512014446867
  0
LINE
  8
_0-0_0
  6
CONTINUOUS
 62
    7
 10
1044.9011057886382
 20
557.05512014446867
 11
1044.2460797328022
 21
558.43466138980875
  0
LINE
  8
_0-0_0
  6
CONTINUOUS
 62
    7
 10
1046.3893722871726
 20
528.60361190938056
 11
1046.3893722871726
 21
529.3525069790885
  0
LINE
  8
_0-0_0
  6
CONTINUOUS
 62
    7
 10
1056.8225813486861
 20
540.87314863564097
 11
1055.5780327946632
 21
539.49360739030101
  0
LINE
  8
_0-0_0
  6
CONTINUOUS
 62
    7
 10
1055.5780327946632
 20
539.49360739030101
 11
1054.5299898732919
 21
537.60169488258907
  0
LINE
  8
_0-0_0
  6
CONTINUOUS
 62
    7
 10
1054.5299898732919
 20
537.60169488258907
 11
1054.267979002936
 21
536.65572603214969
  0
LINE
  8
_0-0_0
  6
CONTINUOUS
 62
    7
 10
1054.267979002936
 20
536.65572603214969
 11
1054.267979002936
 21
535.43385892731021
  0
LINE
  8
_0-0_0
  6
CONTINUOUS
 62
    7
 10
1054.267979002936
 20
535.43385892731021
 11
1054.0714711301916
 21
533.42367150634163
  0
LINE
  8
_0-0_0
  6
CONTINUOUS
 62
    7
 10
1054.0714711301916
 20
533.42367150634163
 11
1054.0714711301916
 21
532.79303813379011
  0
LINE
  8
_0-0_0
  6
CONTINUOUS
 62
    7
 10
1054.0714711301916
 20
532.79303813379011
 11
1054.5299898732919
 21
530.46754042810062
  0
LINE
  8
_0-0_0
  6
CONTINUOUS
 62
    7
 10
1054.5299898732919
 20
530.46754042810062
 11
1054.5299898732919
 21
529.83689466548094
  0
LINE
  8
_0-0_0
  6
CONTINUOUS
 62
    7
 10
1054.5299898732919
 20
529.83689466548094
 11
1055.5780327946632
 21
525.46182270166901
  0
LINE
  8
_0-0_0
  6
CONTINUOUS
 62
    7
 10
1055.5780327946632
 20
525.46182270166901
 11
1055.7745406674221
 21
522.25960623806895
  0
LINE
  8
_0-0_0
  6
CONTINUOUS
 62
    7
 10
1055.7745406674221
 20
522.25960623806895
 11
1056.4295672832741
 21
521.15597605022049
  0
LINE
  8
_0-0_0
  6
CONTINUOUS
 62
    7
 10
1056.4295672832741
 20
521.15597605022049
 11
1057.0190892214232
 21
520.21001958987108
  0
LINE
  8
_0-0_0
  6
CONTINUOUS
 62
    7
 10
1057.0190892214232
 20
520.21001958987108
 11
1057.4776079645453
 21
519.77644719497039
  0
LINE
  8
_0-0_0
  6
CONTINUOUS
 62
    7
 10
1046.1273625368849
 20
527.02700927338083
 11
1046.3893722871726
 21
528.60361190938056
  0
LINE
  8
_0-0_0
  6
CONTINUOUS
 62
    7
 10
1046.1273625368849
 20
526.27812700677168
 11
1046.1273625368849
 21
527.02700927338083
  0
LINE
  8
_0-0_0
  6
CONTINUOUS
 62
    7
 10
1045.9308546641478
 20
525.01683465551832
 11
1046.1273625368849
 21
526.27812700677168
  0
LINE
  8
_0-0_0
  6
CONTINUOUS
 62
    7
 10
1045.1631132987968
 20
523.59789418293076
 11
1045.9308546641478
 21
525.01683465551832
  0
LINE
  8
_0-0_0
  6
CONTINUOUS
 62
    7
 10
1045.1631132987968
 20
522.06070399027897
 11
1045.1631132987968
 21
523.59789418293076
  0
LINE
  8
_0-0_0
  6
CONTINUOUS
 62
    7
 10
1044.9666048659928
 20
520.95708619250945
 11
1045.1631132987968
 21
522.06070399027897
  0
LINE
  8
_0-0_0
  6
CONTINUOUS
 62
    7
 10
1044.3115782501554
 20
519.10457291204148
 11
1044.9666048659928
 21
520.95708619250945
  0
LINE
  8
_0-0_0
  6
CONTINUOUS
 62
    7
 10
1044.1150703774038
 20
517.84328097378977
 11
1044.3115782501554
 21
519.10457291204148
  0
LINE
  8
_0-0_0
  6
CONTINUOUS
 62
    7
 10
1057.4776079645453
 20
519.77644719497039
 11
1057.7105923874988
 21
519.56984502683918
  0
LINE
  8
_0-0_0
  6
CONTINUOUS
 62
    7
 10
1046.0829111111379
 20
532.11502210082119
 11
1044.985192479362
 21
532.93928381993828
  0
LINE
  8
_0-0_0
  6
CONTINUOUS
 62
    7
 10
1046.3893722871726
 20
530.92912200516014
 11
1046.0829111111379
 21
532.11502210082119
  0
LINE
  8
_0-0_0
  6
CONTINUOUS
 62
    7
 10
1046.3893722871726
 20
529.3525069790885
 11
1046.3893722871726
 21
530.92912200516014
  0
LINE
  8
_0-0_0
  6
CONTINUOUS
 62
    7
 10
1044.985192479362
 20
532.93928381993828
 11
1043.7097977762678
 21
533.54895730083808
  0
LINE
  8
_0-0_0
  6
CONTINUOUS
 62
    7
 10
1043.7097977762678
 20
539.87571878718882
 11
1044.1150703774038
 21
540.17585411036998
  0
LINE
  8
_0-0_0
  6
CONTINUOUS
 62
    7
 10
1057.7105923874988
 20
563.13306790229035
 11
1055.9710463000447
 21
561.16052733773904
  0
LINE
  8
_0-0_0
  6
CONTINUOUS
 62
    7
 10
1055.9710463000447
 20
561.16052733773904
 11
1055.3815243618883
 21
559.26861483001994
  0
LINE
  8
_0-0_0
  6
CONTINUOUS
 62
    7
 10
1055.3815243618883
 20
559.26861483001994
 11
1055.3815243618883
 21
557.57375049687107
  0
LINE
  8
_0-0_0
  6
CONTINUOUS
 62
    7
 10
1055.3815243618883
 20
557.57375049687107
 11
1055.3815243618883
 21
556.47013269909075
  0
LINE
  8
_0-0_0
  6
CONTINUOUS
 62
    7
 10
1055.3815243618883
 20
556.47013269909075
 11
1055.5780327946632
 21
554.14463499340127
  0
LINE
  8
_0-0_0
  6
CONTINUOUS
 62
    7
 10
1055.5780327946632
 20
554.14463499340127
 11
1055.9710463000447
 21
553.04100480556008
  0
LINE
  8
_0-0_0
  6
CONTINUOUS
 62
    7
 10
1055.9710463000447
 20
553.04100480556008
 11
1055.9710463000447
 21
551.50381461290817
  0
LINE
  8
_0-0_0
  6
CONTINUOUS
 62
    7
 10
1055.9710463000447
 20
551.50381461290817
 11
1055.9710463000447
 21
550.08487372732998
  0
LINE
  8
_0-0_0
  6
CONTINUOUS
 62
    7
 10
1055.9710463000447
 20
550.08487372732998
 11
1056.1675569729559
 21
549.33599104770838
  0
LINE
  8
_0-0_0
  6
CONTINUOUS
 62
    7
 10
1056.1675569729559
 20
549.33599104770838
 11
1056.4295672832741
 21
548.70534528507051
  0
LINE
  8
_0-0_0
  6
CONTINUOUS
 62
    7
 10
1056.4295672832741
 20
548.70534528507051
 11
1056.8225813486861
 21
547.60171468422061
  0
LINE
  8
_0-0_0
  6
CONTINUOUS
 62
    7
 10
1056.8225813486861
 20
547.60171468422061
 11
1057.4776079645453
 21
546.53752171987071
  0
LINE
  8
_0-0_0
  6
CONTINUOUS
 62
    7
 10
1057.4776079645453
 20
546.53752171987071
 11
1057.7105923874988
 21
546.44405134124099
  0
LINE
  8
_0-0_0
  6
CONTINUOUS
 62
    7
 10
1044.2460797328022
 20
558.43466138980875
 11
1043.7097977762678
 21
559.51032385466169
  0
LINE
  8
_0-0_0
  6
CONTINUOUS
 62
    7
 10
1043.7097977762678
 20
466.46375253153019
 11
1044.1150703774038
 21
467.84328097378966
  0
LINE
  8
_0-0_0
  6
CONTINUOUS
 62
    7
 10
1057.7105923874988
 20
491.38906180996128
 11
1056.8225813486861
 21
490.87314863564103
  0
LINE
  8
_0-0_0
  6
CONTINUOUS
 62
    7
 10
1044.1150703774038
 20
490.17585411037004
 11
1045.7526391571664
 21
492.61957592996993
  0
LINE
  8
_0-0_0
  6
CONTINUOUS
 62
    7
 10
1045.7526391571664
 20
492.61957592996993
 11
1045.7526391571664
 21
494.03852920564168
  0
LINE
  8
_0-0_0
  6
CONTINUOUS
 62
    7
 10
1045.7526391571664
 20
494.03852920564168
 11
1045.7526391571664
 21
495.41805806088092
  0
LINE
  8
_0-0_0
  6
CONTINUOUS
 62
    7
 10
1045.7526391571664
 20
495.41805806088092
 11
1045.7526391571664
 21
496.99467267395818
  0
LINE
  8
_0-0_0
  6
CONTINUOUS
 62
    7
 10
1045.7526391571664
 20
496.99467267395818
 11
1045.7526391571664
 21
498.6895118139401
  0
LINE
  8
_0-0_0
  6
CONTINUOUS
 62
    7
 10
1045.7526391571664
 20
498.6895118139401
 11
1045.5561312844147
 21
500.38437614708897
  0
LINE
  8
_0-0_0
  6
CONTINUOUS
 62
    7
 10
1045.5561312844147
 20
500.38437614708897
 11
1045.3596245317458
 21
502.11863970748891
  0
LINE
  8
_0-0_0
  6
CONTINUOUS
 62
    7
 10
1045.3596245317458
 20
502.11863970748891
 11
1045.0976136613754
 21
503.81347884747083
  0
LINE
  8
_0-0_0
  6
CONTINUOUS
 62
    7
 10
1045.0976136613754
 20
503.81347884747083
 11
1044.9011057886382
 21
507.05512014446867
  0
LINE
  8
_0-0_0
  6
CONTINUOUS
 62
    7
 10
1044.9011057886382
 20
507.05512014446867
 11
1044.2460797328022
 21
508.43466138980881
  0
LINE
  8
_0-0_0
  6
CONTINUOUS
 62
    7
 10
1046.3893722871726
 20
478.60361190938056
 11
1046.3893722871726
 21
479.3525069790885
  0
LINE
  8
_0-0_0
  6
CONTINUOUS
 62
    7
 10
1056.8225813486861
 20
490.87314863564103
 11
1055.5780327946632
 21
489.49360739030089
  0
LINE
  8
_0-0_0
  6
CONTINUOUS
 62
    7
 10
1055.5780327946632
 20
489.49360739030089
 11
1054.5299898732919
 21
487.60169488258907
  0
LINE
  8
_0-0_0
  6
CONTINUOUS
 62
    7
 10
1054.5299898732919
 20
487.60169488258907
 11
1054.267979002936
 21
486.6557260321606
  0
LINE
  8
_0-0_0
  6
CONTINUOUS
 62
    7
 10
1054.267979002936
 20
486.6557260321606
 11
1054.267979002936
 21
485.43385892731021
  0
LINE
  8
_0-0_0
  6
CONTINUOUS
 62
    7
 10
1054.267979002936
 20
485.43385892731021
 11
1054.0714711301916
 21
483.42367150634163
  0
LINE
  8
_0-0_0
  6
CONTINUOUS
 62
    7
 10
1054.0714711301916
 20
483.42367150634163
 11
1054.0714711301916
 21
482.79303813380096
  0
LINE
  8
_0-0_0
  6
CONTINUOUS
 62
    7
 10
1054.0714711301916
 20
482.79303813380096
 11
1054.5299898732919
 21
480.46754042811159
  0
LINE
  8
_0-0_0
  6
CONTINUOUS
 62
    7
 10
1054.5299898732919
 20
480.46754042811159
 11
1054.5299898732919
 21
479.836894665481
  0
LINE
  8
_0-0_0
  6
CONTINUOUS
 62
    7
 10
1054.5299898732919
 20
479.836894665481
 11
1055.5780327946632
 21
475.46182270166895
  0
LINE
  8
_0-0_0
  6
CONTINUOUS
 62
    7
 10
1055.5780327946632
 20
475.46182270166895
 11
1055.7745406674221
 21
472.25960623806895
  0
LINE
  8
_0-0_0
  6
CONTINUOUS
 62
    7
 10
1055.7745406674221
 20
472.25960623806895
 11
1056.4295672832741
 21
471.15597605022049
  0
LINE
  8
_0-0_0
  6
CONTINUOUS
 62
    7
 10
1056.4295672832741
 20
471.15597605022049
 11
1057.0190892214232
 21
470.21001958987114
  0
LINE
  8
_0-0_0
  6
CONTINUOUS
 62
    7
 10
1057.0190892214232
 20
470.21001958987114
 11
1057.4776079645453
 21
469.77644719497039
  0
LINE
  8
_0-0_0
  6
CONTINUOUS
 62
    7
 10
1046.1273625368849
 20
477.02700927338083
 11
1046.3893722871726
 21
478.60361190938056
  0
LINE
  8
_0-0_0
  6
CONTINUOUS
 62
    7
 10
1046.1273625368849
 20
476.27812700677168
 11
1046.1273625368849
 21
477.02700927338083
  0
LINE
  8
_0-0_0
  6
CONTINUOUS
 62
    7
 10
1045.9308546641478
 20
475.01683465551832
 11
1046.1273625368849
 21
476.27812700677168
  0
LINE
  8
_0-0_0
  6
CONTINUOUS
 62
    7
 10
1045.1631132987968
 20
473.59789418294167
 11
1045.9308546641478
 21
475.01683465551832
  0
LINE
  8
_0-0_0
  6
CONTINUOUS
 62
    7
 10
1045.1631132987968
 20
472.06070399027158
 11
1045.1631132987968
 21
473.59789418294167
  0
LINE
  8
_0-0_0
  6
CONTINUOUS
 62
    7
 10
1044.9666048659928
 20
470.95708619250945
 11
1045.1631132987968
 21
472.06070399027158
  0
LINE
  8
_0-0_0
  6
CONTINUOUS
 62
    7
 10
1044.3115782501554
 20
469.10457291204148
 11
1044.9666048659928
 21
470.95708619250945
  0
LINE
  8
_0-0_0
  6
CONTINUOUS
 62
    7
 10
1044.1150703774038
 20
467.84328097378966
 11
1044.3115782501554
 21
469.10457291204148
  0
LINE
  8
_0-0_0
  6
CONTINUOUS
 62
    7
 10
1057.4776079645453
 20
469.77644719497039
 11
1057.7105923874988
 21
469.56984502683923
  0
LINE
  8
_0-0_0
  6
CONTINUOUS
 62
    7
 10
1046.0829111111379
 20
482.11502210082108
 11
1044.985192479362
 21
482.93928381993828
  0
LINE
  8
_0-0_0
  6
CONTINUOUS
 62
    7
 10
1046.3893722871726
 20
480.92912200516002
 11
1046.0829111111379
 21
482.11502210082108
  0
LINE
  8
_0-0_0
  6
CONTINUOUS
 62
    7
 10
1046.3893722871726
 20
479.3525069790885
 11
1046.3893722871726
 21
480.92912200516002
  0
LINE
  8
_0-0_0
  6
CONTINUOUS
 62
    7
 10
1044.985192479362
 20
482.93928381993828
 11
1043.7097977762678
 21
483.54895730084905
  0
LINE
  8
_0-0_0
  6
CONTINUOUS
 62
    7
 10
1043.7097977762678
 20
489.87571878718882
 11
1044.1150703774038
 21
490.17585411037004
  0
LINE
  8
_0-0_0
  6
CONTINUOUS
 62
    7
 10
1057.7105923874988
 20
513.13306790229035
 11
1055.9710463000447
 21
511.16052733773904
  0
LINE
  8
_0-0_0
  6
CONTINUOUS
 62
    7
 10
1055.9710463000447
 20
511.16052733773904
 11
1055.3815243618883
 21
509.26861483002
  0
LINE
  8
_0-0_0
  6
CONTINUOUS
 62
    7
 10
1055.3815243618883
 20
509.26861483002
 11
1055.3815243618883
 21
507.57375049687113
  0
LINE
  8
_0-0_0
  6
CONTINUOUS
 62
    7
 10
1055.3815243618883
 20
507.57375049687113
 11
1055.3815243618883
 21
506.47013269909081
  0
LINE
  8
_0-0_0
  6
CONTINUOUS
 62
    7
 10
1055.3815243618883
 20
506.47013269909081
 11
1055.5780327946632
 21
504.14463499340854
  0
LINE
  8
_0-0_0
  6
CONTINUOUS
 62
    7
 10
1055.5780327946632
 20
504.14463499340854
 11
1055.9710463000447
 21
503.04100480556008
  0
LINE
  8
_0-0_0
  6
CONTINUOUS
 62
    7
 10
1055.9710463000447
 20
503.04100480556008
 11
1055.9710463000447
 21
501.50381461290095
  0
LINE
  8
_0-0_0
  6
CONTINUOUS
 62
    7
 10
1055.9710463000447
 20
501.50381461290095
 11
1055.9710463000447
 21
500.08487372732998
  0
LINE
  8
_0-0_0
  6
CONTINUOUS
 62
    7
 10
1055.9710463000447
 20
500.08487372732998
 11
1056.1675569729559
 21
499.3359910477011
  0
LINE
  8
_0-0_0
  6
CONTINUOUS
 62
    7
 10
1056.1675569729559
 20
499.3359910477011
 11
1056.4295672832741
 21
498.70534528507051
  0
LINE
  8
_0-0_0
  6
CONTINUOUS
 62
    7
 10
1056.4295672832741
 20
498.70534528507051
 11
1056.8225813486861
 21
497.6017146842205
  0
LINE
  8
_0-0_0
  6
CONTINUOUS
 62
    7
 10
1056.8225813486861
 20
497.6017146842205
 11
1057.4776079645453
 21
496.53752171987071
  0
LINE
  8
_0-0_0
  6
CONTINUOUS
 62
    7
 10
1057.4776079645453
 20
496.53752171987071
 11
1057.7105923874988
 21
496.44405134124099
  0
LINE
  8
_0-0_0
  6
CONTINUOUS
 62
    7
 10
1044.2460797328022
 20
508.43466138980881
 11
1043.7097977762678
 21
509.51032385466181
  0
LINE
  8
_0-0_0
  6
CONTINUOUS
 62
    7
 10
1043.7097977762678
 20
416.46375253153025
 11
1044.1150703774038
 21
417.84328097378966
  0
LINE
  8
_0-0_0
  6
CONTINUOUS
 62
    7
 10
1057.7105923874988
 20
441.38906180996855
 11
1056.8225813486861
 21
440.87314863564103
  0
LINE
  8
_0-0_0
  6
CONTINUOUS
 62
    7
 10
1044.1150703774038
 20
440.17585411037004
 11
1045.7526391571664
 21
442.61957592996987
  0
LINE
  8
_0-0_0
  6
CONTINUOUS
 62
    7
 10
1045.7526391571664
 20
442.61957592996987
 11
1045.7526391571664
 21
444.03852920563082
  0
LINE
  8
_0-0_0
  6
CONTINUOUS
 62
    7
 10
1045.7526391571664
 20
444.03852920563082
 11
1045.7526391571664
 21
445.41805806088814
  0
LINE
  8
_0-0_0
  6
CONTINUOUS
 62
    7
 10
1045.7526391571664
 20
445.41805806088814
 11
1045.7526391571664
 21
446.99467267395084
  0
LINE
  8
_0-0_0
  6
CONTINUOUS
 62
    7
 10
1045.7526391571664
 20
446.99467267395084
 11
1045.7526391571664
 21
448.6895118139401
  0
LINE
  8
_0-0_0
  6
CONTINUOUS
 62
    7
 10
1045.7526391571664
 20
448.6895118139401
 11
1045.5561312844147
 21
450.38437614708891
  0
LINE
  8
_0-0_0
  6
CONTINUOUS
 62
    7
 10
1045.5561312844147
 20
450.38437614708891
 11
1045.3596245317458
 21
452.11863970748891
  0
LINE
  8
_0-0_0
  6
CONTINUOUS
 62
    7
 10
1045.3596245317458
 20
452.11863970748891
 11
1045.0976136613754
 21
453.81347884747083
  0
LINE
  8
_0-0_0
  6
CONTINUOUS
 62
    7
 10
1045.0976136613754
 20
453.81347884747083
 11
1044.9011057886382
 21
457.05512014446867
  0
LINE
  8
_0-0_0
  6
CONTINUOUS
 62
    7
 10
1044.9011057886382
 20
457.05512014446867
 11
1044.2460797328022
 21
458.43466138980875
  0
LINE
  8
_0-0_0
  6
CONTINUOUS
 62
    7
 10
1046.3893722871726
 20
428.60361190938056
 11
1046.3893722871726
 21
429.35250697908856
  0
LINE
  8
_0-0_0
  6
CONTINUOUS
 62
    7
 10
1056.8225813486861
 20
440.87314863564103
 11
1055.5780327946632
 21
439.49360739030823
  0
LINE
  8
_0-0_0
  6
CONTINUOUS
 62
    7
 10
1055.5780327946632
 20
439.49360739030823
 11
1054.5299898732919
 21
437.60169488260004
  0
LINE
  8
_0-0_0
  6
CONTINUOUS
 62
    7
 10
1054.5299898732919
 20
437.60169488260004
 11
1054.267979002936
 21
436.65572603214969
  0
LINE
  8
_0-0_0
  6
CONTINUOUS
 62
    7
 10
1054.267979002936
 20
436.65572603214969
 11
1054.267979002936
 21
435.43385892731021
  0
LINE
  8
_0-0_0
  6
CONTINUOUS
 62
    7
 10
1054.267979002936
 20
435.43385892731021
 11
1054.0714711301916
 21
433.42367150634169
  0
LINE
  8
_0-0_0
  6
CONTINUOUS
 62
    7
 10
1054.0714711301916
 20
433.42367150634169
 11
1054.0714711301916
 21
432.79303813379016
  0
LINE
  8
_0-0_0
  6
CONTINUOUS
 62
    7
 10
1054.0714711301916
 20
432.79303813379016
 11
1054.5299898732919
 21
430.46754042811159
  0
LINE
  8
_0-0_0
  6
CONTINUOUS
 62
    7
 10
1054.5299898732919
 20
430.46754042811159
 11
1054.5299898732919
 21
429.83689466547003
  0
LINE
  8
_0-0_0
  6
CONTINUOUS
 62
    7
 10
1054.5299898732919
 20
429.83689466547003
 11
1055.5780327946632
 21
425.46182270166901
  0
LINE
  8
_0-0_0
  6
CONTINUOUS
 62
    7
 10
1055.5780327946632
 20
425.46182270166901
 11
1055.7745406674221
 21
422.25960623806895
  0
LINE
  8
_0-0_0
  6
CONTINUOUS
 62
    7
 10
1055.7745406674221
 20
422.25960623806895
 11
1056.4295672832741
 21
421.15597605022054
  0
LINE
  8
_0-0_0
  6
CONTINUOUS
 62
    7
 10
1056.4295672832741
 20
421.15597605022054
 11
1057.0190892214232
 21
420.21001958987108
  0
LINE
  8
_0-0_0
  6
CONTINUOUS
 62
    7
 10
1057.0190892214232
 20
420.21001958987108
 11
1057.4776079645453
 21
419.77644719497044
  0
LINE
  8
_0-0_0
  6
CONTINUOUS
 62
    7
 10
1046.1273625368849
 20
427.0270092733881
 11
1046.3893722871726
 21
428.60361190938056
  0
LINE
  8
_0-0_0
  6
CONTINUOUS
 62
    7
 10
1046.1273625368849
 20
426.27812700677168
 11
1046.1273625368849
 21
427.0270092733881
  0
LINE
  8
_0-0_0
  6
CONTINUOUS
 62
    7
 10
1045.9308546641478
 20
425.01683465551832
 11
1046.1273625368849
 21
426.27812700677168
  0
LINE
  8
_0-0_0
  6
CONTINUOUS
 62
    7
 10
1045.1631132987968
 20
423.59789418293076
 11
1045.9308546641478
 21
425.01683465551832
  0
LINE
  8
_0-0_0
  6
CONTINUOUS
 62
    7
 10
1045.1631132987968
 20
422.06070399027885
 11
1045.1631132987968
 21
423.59789418293076
  0
LINE
  8
_0-0_0
  6
CONTINUOUS
 62
    7
 10
1044.9666048659928
 20
420.95708619250945
 11
1045.1631132987968
 21
422.06070399027885
  0
LINE
  8
_0-0_0
  6
CONTINUOUS
 62
    7
 10
1044.3115782501554
 20
419.10457291204153
 11
1044.9666048659928
 21
420.95708619250945
  0
LINE
  8
_0-0_0
  6
CONTINUOUS
 62
    7
 10
1044.1150703774038
 20
417.84328097378966
 11
1044.3115782501554
 21
419.10457291204153
  0
LINE
  8
_0-0_0
  6
CONTINUOUS
 62
    7
 10
1057.4776079645453
 20
419.77644719497044
 11
1057.7105923874988
 21
419.56984502683918
  0
LINE
  8
_0-0_0
  6
CONTINUOUS
 62
    7
 10
1046.0829111111379
 20
432.11502210082108
 11
1044.985192479362
 21
432.93928381993828
  0
LINE
  8
_0-0_0
  6
CONTINUOUS
 62
    7
 10
1046.3893722871726
 20
430.92912200516002
 11
1046.0829111111379
 21
432.11502210082108
  0
LINE
  8
_0-0_0
  6
CONTINUOUS
 62
    7
 10
1046.3893722871726
 20
429.35250697908856
 11
1046.3893722871726
 21
430.92912200516002
  0
LINE
  8
_0-0_0
  6
CONTINUOUS
 62
    7
 10
1044.985192479362
 20
432.93928381993828
 11
1043.7097977762678
 21
433.54895730083808
  0
LINE
  8
_0-0_0
  6
CONTINUOUS
 62
    7
 10
1043.7097977762678
 20
439.87571878718882
 11
1044.1150703774038
 21
440.17585411037004
  0
LINE
  8
_0-0_0
  6
CONTINUOUS
 62
    7
 10
1057.7105923874988
 20
463.13306790229035
 11
1055.9710463000447
 21
461.16052733773904
  0
LINE
  8
_0-0_0
  6
CONTINUOUS
 62
    7
 10
1055.9710463000447
 20
461.16052733773904
 11
1055.3815243618883
 21
459.26861483001994
  0
LINE
  8
_0-0_0
  6
CONTINUOUS
 62
    7
 10
1055.3815243618883
 20
459.26861483001994
 11
1055.3815243618883
 21
457.57375049687113
  0
LINE
  8
_0-0_0
  6
CONTINUOUS
 62
    7
 10
1055.3815243618883
 20
457.57375049687113
 11
1055.3815243618883
 21
456.47013269909081
  0
LINE
  8
_0-0_0
  6
CONTINUOUS
 62
    7
 10
1055.3815243618883
 20
456.47013269909081
 11
1055.5780327946632
 21
454.14463499340854
  0
LINE
  8
_0-0_0
  6
CONTINUOUS
 62
    7
 10
1055.5780327946632
 20
454.14463499340854
 11
1055.9710463000447
 21
453.04100480556008
  0
LINE
  8
_0-0_0
  6
CONTINUOUS
 62
    7
 10
1055.9710463000447
 20
453.04100480556008
 11
1055.9710463000447
 21
451.5038146129009
  0
LINE
  8
_0-0_0
  6
CONTINUOUS
 62
    7
 10
1055.9710463000447
 20
451.5038146129009
 11
1055.9710463000447
 21
450.08487372732998
  0
LINE
  8
_0-0_0
  6
CONTINUOUS
 62
    7
 10
1055.9710463000447
 20
450.08487372732998
 11
1056.1675569729559
 21
449.33599104770838
  0
LINE
  8
_0-0_0
  6
CONTINUOUS
 62
    7
 10
1056.1675569729559
 20
449.33599104770838
 11
1056.4295672832741
 21
448.70534528508142
  0
LINE
  8
_0-0_0
  6
CONTINUOUS
 62
    7
 10
1056.4295672832741
 20
448.70534528508142
 11
1056.8225813486861
 21
447.60171468423141
  0
LINE
  8
_0-0_0
  6
CONTINUOUS
 62
    7
 10
1056.8225813486861
 20
447.60171468423141
 11
1057.4776079645453
 21
446.53752171987071
  0
LINE
  8
_0-0_0
  6
CONTINUOUS
 62
    7
 10
1057.4776079645453
 20
446.53752171987071
 11
1057.7105923874988
 21
446.44405134124099
  0
LINE
  8
_0-0_0
  6
CONTINUOUS
 62
    7
 10
1044.2460797328022
 20
458.43466138980875
 11
1043.7097977762678
 21
459.51032385465084
  0
LINE
  8
_0-0_0
  6
CONTINUOUS
 62
    7
 10
1043.7097977762678
 20
366.4637525315411
 11
1044.1150703774038
 21
367.84328097378966
  0
LINE
  8
_0-0_0
  6
CONTINUOUS
 62
    7
 10
1057.7105923874988
 20
391.38906180996855
 11
1056.8225813486861
 21
390.87314863564097
  0
LINE
  8
_0-0_0
  6
CONTINUOUS
 62
    7
 10
1044.1150703774038
 20
390.17585411036998
 11
1045.7526391571664
 21
392.61957592996993
  0
LINE
  8
_0-0_0
  6
CONTINUOUS
 62
    7
 10
1045.7526391571664
 20
392.61957592996993
 11
1045.7526391571664
 21
394.03852920564168
  0
LINE
  8
_0-0_0
  6
CONTINUOUS
 62
    7
 10
1045.7526391571664
 20
394.03852920564168
 11
1045.7526391571664
 21
395.41805806088814
  0
LINE
  8
_0-0_0
  6
CONTINUOUS
 62
    7
 10
1045.7526391571664
 20
395.41805806088814
 11
1045.7526391571664
 21
396.99467267395084
  0
LINE
  8
_0-0_0
  6
CONTINUOUS
 62
    7
 10
1045.7526391571664
 20
396.99467267395084
 11
1045.7526391571664
 21
398.68951181394004
  0
LINE
  8
_0-0_0
  6
CONTINUOUS
 62
    7
 10
1045.7526391571664
 20
398.68951181394004
 11
1045.5561312844147
 21
400.38437614708897
  0
LINE
  8
_0-0_0
  6
CONTINUOUS
 62
    7
 10
1045.5561312844147
 20
400.38437614708897
 11
1045.3596245317458
 21
402.11863970748891
  0
LINE
  8
_0-0_0
  6
CONTINUOUS
 62
    7
 10
1045.3596245317458
 20
402.11863970748891
 11
1045.0976136613754
 21
403.81347884747083
  0
LINE
  8
_0-0_0
  6
CONTINUOUS
 62
    7
 10
1045.0976136613754
 20
403.81347884747083
 11
1044.9011057886382
 21
407.05512014446867
  0
LINE
  8
_0-0_0
  6
CONTINUOUS
 62
    7
 10
1044.9011057886382
 20
407.05512014446867
 11
1044.2460797328022
 21
408.43466138980148
  0
LINE
  8
_0-0_0
  6
CONTINUOUS
 62
    7
 10
1046.3893722871726
 20
378.60361190938056
 11
1046.3893722871726
 21
379.3525069790885
  0
LINE
  8
_0-0_0
  6
CONTINUOUS
 62
    7
 10
1056.8225813486861
 20
390.87314863564097
 11
1055.5780327946632
 21
389.49360739030817
  0
LINE
  8
_0-0_0
  6
CONTINUOUS
 62
    7
 10
1055.5780327946632
 20
389.49360739030817
 11
1054.5299898732919
 21
387.60169488258907
  0
LINE
  8
_0-0_0
  6
CONTINUOUS
 62
    7
 10
1054.5299898732919
 20
387.60169488258907
 11
1054.267979002936
 21
386.65572603214969
  0
LINE
  8
_0-0_0
  6
CONTINUOUS
 62
    7
 10
1054.267979002936
 20
386.65572603214969
 11
1054.267979002936
 21
385.43385892731021
  0
LINE
  8
_0-0_0
  6
CONTINUOUS
 62
    7
 10
1054.267979002936
 20
385.43385892731021
 11
1054.0714711301916
 21
383.42367150634169
  0
LINE
  8
_0-0_0
  6
CONTINUOUS
 62
    7
 10
1054.0714711301916
 20
383.42367150634169
 11
1054.0714711301916
 21
382.79303813379011
  0
LINE
  8
_0-0_0
  6
CONTINUOUS
 62
    7
 10
1054.0714711301916
 20
382.79303813379011
 11
1054.5299898732919
 21
380.46754042810062
  0
LINE
  8
_0-0_0
  6
CONTINUOUS
 62
    7
 10
1054.5299898732919
 20
380.46754042810062
 11
1054.5299898732919
 21
379.83689466547003
  0
LINE
  8
_0-0_0
  6
CONTINUOUS
 62
    7
 10
1054.5299898732919
 20
379.83689466547003
 11
1055.5780327946632
 21
375.46182270166901
  0
LINE
  8
_0-0_0
  6
CONTINUOUS
 62
    7
 10
1055.5780327946632
 20
375.46182270166901
 11
1055.7745406674221
 21
372.25960623806895
  0
LINE
  8
_0-0_0
  6
CONTINUOUS
 62
    7
 10
1055.7745406674221
 20
372.25960623806895
 11
1056.4295672832741
 21
371.15597605022054
  0
LINE
  8
_0-0_0
  6
CONTINUOUS
 62
    7
 10
1056.4295672832741
 20
371.15597605022054
 11
1057.0190892214232
 21
370.21001958987108
  0
LINE
  8
_0-0_0
  6
CONTINUOUS
 62
    7
 10
1057.0190892214232
 20
370.21001958987108
 11
1057.4776079645453
 21
369.77644719497044
  0
LINE
  8
_0-0_0
  6
CONTINUOUS
 62
    7
 10
1046.1273625368849
 20
377.0270092733881
 11
1046.3893722871726
 21
378.60361190938056
  0
LINE
  8
_0-0_0
  6
CONTINUOUS
 62
    7
 10
1046.1273625368849
 20
376.27812700677168
 11
1046.1273625368849
 21
377.0270092733881
  0
LINE
  8
_0-0_0
  6
CONTINUOUS
 62
    7
 10
1045.9308546641478
 20
375.01683465551832
 11
1046.1273625368849
 21
376.27812700677168
  0
LINE
  8
_0-0_0
  6
CONTINUOUS
 62
    7
 10
1045.1631132987968
 20
373.59789418294167
 11
1045.9308546641478
 21
375.01683465551832
  0
LINE
  8
_0-0_0
  6
CONTINUOUS
 62
    7
 10
1045.1631132987968
 20
372.06070399027885
 11
1045.1631132987968
 21
373.59789418294167
  0
LINE
  8
_0-0_0
  6
CONTINUOUS
 62
    7
 10
1044.9666048659928
 20
370.95708619250951
 11
1045.1631132987968
 21
372.06070399027885
  0
LINE
  8
_0-0_0
  6
CONTINUOUS
 62
    7
 10
1044.3115782501554
 20
369.10457291204148
 11
1044.9666048659928
 21
370.95708619250951
  0
LINE
  8
_0-0_0
  6
CONTINUOUS
 62
    7
 10
1044.1150703774038
 20
367.84328097378966
 11
1044.3115782501554
 21
369.10457291204148
  0
LINE
  8
_0-0_0
  6
CONTINUOUS
 62
    7
 10
1057.4776079645453
 20
369.77644719497044
 11
1057.7105923874988
 21
369.56984502683918
  0
LINE
  8
_0-0_0
  6
CONTINUOUS
 62
    7
 10
1046.0829111111379
 20
382.11502210082108
 11
1044.985192479362
 21
382.93928381993828
  0
LINE
  8
_0-0_0
  6
CONTINUOUS
 62
    7
 10
1046.3893722871726
 20
380.92912200516002
 11
1046.0829111111379
 21
382.11502210082108
  0
LINE
  8
_0-0_0
  6
CONTINUOUS
 62
    7
 10
1046.3893722871726
 20
379.3525069790885
 11
1046.3893722871726
 21
380.92912200516002
  0
LINE
  8
_0-0_0
  6
CONTINUOUS
 62
    7
 10
1044.985192479362
 20
382.93928381993828
 11
1043.7097977762678
 21
383.54895730083808
  0
LINE
  8
_0-0_0
  6
CONTINUOUS
 62
    7
 10
1043.7097977762678
 20
389.87571878718882
 11
1044.1150703774038
 21
390.17585411036998
  0
LINE
  8
_0-0_0
  6
CONTINUOUS
 62
    7
 10
1057.7105923874988
 20
413.13306790229035
 11
1055.9710463000447
 21
411.16052733773904
  0
LINE
  8
_0-0_0
  6
CONTINUOUS
 62
    7
 10
1055.9710463000447
 20
411.16052733773904
 11
1055.3815243618883
 21
409.26861483002
  0
LINE
  8
_0-0_0
  6
CONTINUOUS
 62
    7
 10
1055.3815243618883
 20
409.26861483002
 11
1055.3815243618883
 21
407.57375049687107
  0
LINE
  8
_0-0_0
  6
CONTINUOUS
 62
    7
 10
1055.3815243618883
 20
407.57375049687107
 11
1055.3815243618883
 21
406.47013269909075
  0
LINE
  8
_0-0_0
  6
CONTINUOUS
 62
    7
 10
1055.3815243618883
 20
406.47013269909075
 11
1055.5780327946632
 21
404.14463499340854
  0
LINE
  8
_0-0_0
  6
CONTINUOUS
 62
    7
 10
1055.5780327946632
 20
404.14463499340854
 11
1055.9710463000447
 21
403.04100480556008
  0
LINE
  8
_0-0_0
  6
CONTINUOUS
 62
    7
 10
1055.9710463000447
 20
403.04100480556008
 11
1055.9710463000447
 21
401.50381461290817
  0
LINE
  8
_0-0_0
  6
CONTINUOUS
 62
    7
 10
1055.9710463000447
 20
401.50381461290817
 11
1055.9710463000447
 21
400.08487372731906
  0
LINE
  8
_0-0_0
  6
CONTINUOUS
 62
    7
 10
1055.9710463000447
 20
400.08487372731906
 11
1056.1675569729559
 21
399.3359910477011
  0
LINE
  8
_0-0_0
  6
CONTINUOUS
 62
    7
 10
1056.1675569729559
 20
399.3359910477011
 11
1056.4295672832741
 21
398.70534528508142
  0
LINE
  8
_0-0_0
  6
CONTINUOUS
 62
    7
 10
1056.4295672832741
 20
398.70534528508142
 11
1056.8225813486861
 21
397.60171468423141
  0
LINE
  8
_0-0_0
  6
CONTINUOUS
 62
    7
 10
1056.8225813486861
 20
397.60171468423141
 11
1057.4776079645453
 21
396.53752171987071
  0
LINE
  8
_0-0_0
  6
CONTINUOUS
 62
    7
 10
1057.4776079645453
 20
396.53752171987071
 11
1057.7105923874988
 21
396.44405134124099
  0
LINE
  8
_0-0_0
  6
CONTINUOUS
 62
    7
 10
1044.2460797328022
 20
408.43466138980148
 11
1043.7097977762678
 21
409.51032385466169
  0
LINE
  8
_0-0_0
  6
CONTINUOUS
 62
    7
 10
1043.7097977762678
 20
316.4637525315411
 11
1044.1150703774038
 21
317.8432809737788
  0
LINE
  8
_0-0_0
  6
CONTINUOUS
 62
    7
 10
1057.7105923874988
 20
341.38906180996128
 11
1056.8225813486861
 21
340.87314863564103
  0
LINE
  8
_0-0_0
  6
CONTINUOUS
 62
    7
 10
1044.1150703774038
 20
340.17585411037004
 11
1045.7526391571664
 21
342.61957592996987
  0
LINE
  8
_0-0_0
  6
CONTINUOUS
 62
    7
 10
1045.7526391571664
 20
342.61957592996987
 11
1045.7526391571664
 21
344.03852920564179
  0
LINE
  8
_0-0_0
  6
CONTINUOUS
 62
    7
 10
1045.7526391571664
 20
344.03852920564179
 11
1045.7526391571664
 21
345.41805806088092
  0
LINE
  8
_0-0_0
  6
CONTINUOUS
 62
    7
 10
1045.7526391571664
 20
345.41805806088092
 11
1045.7526391571664
 21
346.99467267395812
  0
LINE
  8
_0-0_0
  6
CONTINUOUS
 62
    7
 10
1045.7526391571664
 20
346.99467267395812
 11
1045.7526391571664
 21
348.6895118139401
  0
LINE
  8
_0-0_0
  6
CONTINUOUS
 62
    7
 10
1045.7526391571664
 20
348.6895118139401
 11
1045.5561312844147
 21
350.38437614708891
  0
LINE
  8
_0-0_0
  6
CONTINUOUS
 62
    7
 10
1045.5561312844147
 20
350.38437614708891
 11
1045.3596245317458
 21
352.11863970748902
  0
LINE
  8
_0-0_0
  6
CONTINUOUS
 62
    7
 10
1045.3596245317458
 20
352.11863970748902
 11
1045.0976136613754
 21
353.81347884747083
  0
LINE
  8
_0-0_0
  6
CONTINUOUS
 62
    7
 10
1045.0976136613754
 20
353.81347884747083
 11
1044.9011057886382
 21
357.05512014446873
  0
LINE
  8
_0-0_0
  6
CONTINUOUS
 62
    7
 10
1044.9011057886382
 20
357.05512014446873
 11
1044.2460797328022
 21
358.43466138980881
  0
LINE
  8
_0-0_0
  6
CONTINUOUS
 62
    7
 10
1046.3893722871726
 20
328.60361190938056
 11
1046.3893722871726
 21
329.35250697908856
  0
LINE
  8
_0-0_0
  6
CONTINUOUS
 62
    7
 10
1056.8225813486861
 20
340.87314863564103
 11
1055.5780327946632
 21
339.49360739030101
  0
LINE
  8
_0-0_0
  6
CONTINUOUS
 62
    7
 10
1055.5780327946632
 20
339.49360739030101
 11
1054.5299898732919
 21
337.60169488258919
  0
LINE
  8
_0-0_0
  6
CONTINUOUS
 62
    7
 10
1054.5299898732919
 20
337.60169488258919
 11
1054.267979002936
 21
336.65572603214969
  0
LINE
  8
_0-0_0
  6
CONTINUOUS
 62
    7
 10
1054.267979002936
 20
336.65572603214969
 11
1054.267979002936
 21
335.43385892731033
  0
LINE
  8
_0-0_0
  6
CONTINUOUS
 62
    7
 10
1054.267979002936
 20
335.43385892731033
 11
1054.0714711301916
 21
333.42367150634169
  0
LINE
  8
_0-0_0
  6
CONTINUOUS
 62
    7
 10
1054.0714711301916
 20
333.42367150634169
 11
1054.0714711301916
 21
332.79303813380102
  0
LINE
  8
_0-0_0
  6
CONTINUOUS
 62
    7
 10
1054.0714711301916
 20
332.79303813380102
 11
1054.5299898732919
 21
330.46754042810073
  0
LINE
  8
_0-0_0
  6
CONTINUOUS
 62
    7
 10
1054.5299898732919
 20
330.46754042810073
 11
1054.5299898732919
 21
329.83689466547014
  0
LINE
  8
_0-0_0
  6
CONTINUOUS
 62
    7
 10
1054.5299898732919
 20
329.83689466547014
 11
1055.5780327946632
 21
325.46182270166901
  0
LINE
  8
_0-0_0
  6
CONTINUOUS
 62
    7
 10
1055.5780327946632
 20
325.46182270166901
 11
1055.7745406674221
 21
322.25960623807987
  0
LINE
  8
_0-0_0
  6
CONTINUOUS
 62
    7
 10
1055.7745406674221
 20
322.25960623807987
 11
1056.4295672832741
 21
321.15597605022054
  0
LINE
  8
_0-0_0
  6
CONTINUOUS
 62
    7
 10
1056.4295672832741
 20
321.15597605022054
 11
1057.0190892214232
 21
320.21001958987114
  0
LINE
  8
_0-0_0
  6
CONTINUOUS
 62
    7
 10
1057.0190892214232
 20
320.21001958987114
 11
1057.4776079645453
 21
319.77644719497044
  0
LINE
  8
_0-0_0
  6
CONTINUOUS
 62
    7
 10
1046.1273625368849
 20
327.02700927338816
 11
1046.3893722871726
 21
328.60361190938056
  0
LINE
  8
_0-0_0
  6
CONTINUOUS
 62
    7
 10
1046.1273625368849
 20
326.27812700677168
 11
1046.1273625368849
 21
327.02700927338816
  0
LINE
  8
_0-0_0
  6
CONTINUOUS
 62
    7
 10
1045.9308546641478
 20
325.01683465551844
 11
1046.1273625368849
 21
326.27812700677168
  0
LINE
  8
_0-0_0
  6
CONTINUOUS
 62
    7
 10
1045.1631132987968
 20
323.59789418293076
 11
1045.9308546641478
 21
325.01683465551844
  0
LINE
  8
_0-0_0
  6
CONTINUOUS
 62
    7
 10
1045.1631132987968
 20
322.06070399027897
 11
1045.1631132987968
 21
323.59789418293076
  0
LINE
  8
_0-0_0
  6
CONTINUOUS
 62
    7
 10
1044.9666048659928
 20
320.95708619250951
 11
1045.1631132987968
 21
322.06070399027897
  0
LINE
  8
_0-0_0
  6
CONTINUOUS
 62
    7
 10
1044.3115782501554
 20
319.10457291204153
 11
1044.9666048659928
 21
320.95708619250951
  0
LINE
  8
_0-0_0
  6
CONTINUOUS
 62
    7
 10
1044.1150703774038
 20
317.8432809737788
 11
1044.3115782501554
 21
319.10457291204153
  0
LINE
  8
_0-0_0
  6
CONTINUOUS
 62
    7
 10
1057.4776079645453
 20
319.77644719497044
 11
1057.7105923874988
 21
319.56984502683923
  0
LINE
  8
_0-0_0
  6
CONTINUOUS
 62
    7
 10
1046.0829111111379
 20
332.11502210082119
 11
1044.985192479362
 21
332.93928381993828
  0
LINE
  8
_0-0_0
  6
CONTINUOUS
 62
    7
 10
1046.3893722871726
 20
330.92912200516014
 11
1046.0829111111379
 21
332.11502210082119
  0
LINE
  8
_0-0_0
  6
CONTINUOUS
 62
    7
 10
1046.3893722871726
 20
329.35250697908856
 11
1046.3893722871726
 21
330.92912200516014
  0
LINE
  8
_0-0_0
  6
CONTINUOUS
 62
    7
 10
1044.985192479362
 20
332.93928381993828
 11
1043.7097977762678
 21
333.5489573008382
  0
LINE
  8
_0-0_0
  6
CONTINUOUS
 62
    7
 10
1043.7097977762678
 20
339.87571878718887
 11
1044.1150703774038
 21
340.17585411037004
  0
LINE
  8
_0-0_0
  6
CONTINUOUS
 62
    7
 10
1057.7105923874988
 20
363.13306790229035
 11
1055.9710463000447
 21
361.16052733773904
  0
LINE
  8
_0-0_0
  6
CONTINUOUS
 62
    7
 10
1055.9710463000447
 20
361.16052733773904
 11
1055.3815243618883
 21
359.26861483001994
  0
LINE
  8
_0-0_0
  6
CONTINUOUS
 62
    7
 10
1055.3815243618883
 20
359.26861483001994
 11
1055.3815243618883
 21
357.57375049687113
  0
LINE
  8
_0-0_0
  6
CONTINUOUS
 62
    7
 10
1055.3815243618883
 20
357.57375049687113
 11
1055.3815243618883
 21
356.47013269909081
  0
LINE
  8
_0-0_0
  6
CONTINUOUS
 62
    7
 10
1055.3815243618883
 20
356.47013269909081
 11
1055.5780327946632
 21
354.1446349934086
  0
LINE
  8
_0-0_0
  6
CONTINUOUS
 62
    7
 10
1055.5780327946632
 20
354.1446349934086
 11
1055.9710463000447
 21
353.04100480556008
  0
LINE
  8
_0-0_0
  6
CONTINUOUS
 62
    7
 10
1055.9710463000447
 20
353.04100480556008
 11
1055.9710463000447
 21
351.50381461290829
  0
LINE
  8
_0-0_0
  6
CONTINUOUS
 62
    7
 10
1055.9710463000447
 20
351.50381461290829
 11
1055.9710463000447
 21
350.08487372732998
  0
LINE
  8
_0-0_0
  6
CONTINUOUS
 62
    7
 10
1055.9710463000447
 20
350.08487372732998
 11
1056.1675569729559
 21
349.33599104770843
  0
LINE
  8
_0-0_0
  6
CONTINUOUS
 62
    7
 10
1056.1675569729559
 20
349.33599104770843
 11
1056.4295672832741
 21
348.70534528507051
  0
LINE
  8
_0-0_0
  6
CONTINUOUS
 62
    7
 10
1056.4295672832741
 20
348.70534528507051
 11
1056.8225813486861
 21
347.60171468422061
  0
LINE
  8
_0-0_0
  6
CONTINUOUS
 62
    7
 10
1056.8225813486861
 20
347.60171468422061
 11
1057.4776079645453
 21
346.53752171987071
  0
LINE
  8
_0-0_0
  6
CONTINUOUS
 62
    7
 10
1057.4776079645453
 20
346.53752171987071
 11
1057.7105923874988
 21
346.44405134124099
  0
LINE
  8
_0-0_0
  6
CONTINUOUS
 62
    7
 10
1044.2460797328022
 20
358.43466138980881
 11
1043.7097977762678
 21
359.51032385466169
  0
LINE
  8
_0-0_0
  6
CONTINUOUS
 62
    7
 10
1045.7526391571664
 20
292.51891061753849
 11
1045.7526391571664
 21
294.03852920564168
  0
LINE
  8
_0-0_0
  6
CONTINUOUS
 62
    7
 10
1045.7526391571664
 20
294.03852920564168
 11
1045.7526391571664
 21
295.41805806088087
  0
LINE
  8
_0-0_0
  6
CONTINUOUS
 62
    7
 10
1045.7526391571664
 20
295.41805806088087
 11
1045.7526391571664
 21
296.99467267395818
  0
LINE
  8
_0-0_0
  6
CONTINUOUS
 62
    7
 10
1045.7526391571664
 20
296.99467267395818
 11
1045.7526391571664
 21
298.6895118139401
  0
LINE
  8
_0-0_0
  6
CONTINUOUS
 62
    7
 10
1045.7526391571664
 20
298.6895118139401
 11
1045.5561312844147
 21
300.38437614708897
  0
LINE
  8
_0-0_0
  6
CONTINUOUS
 62
    7
 10
1045.5561312844147
 20
300.38437614708897
 11
1045.3596245317458
 21
302.11863970748891
  0
LINE
  8
_0-0_0
  6
CONTINUOUS
 62
    7
 10
1045.3596245317458
 20
302.11863970748891
 11
1045.0976136613754
 21
303.81347884747083
  0
LINE
  8
_0-0_0
  6
CONTINUOUS
 62
    7
 10
1045.0976136613754
 20
303.81347884747083
 11
1044.9011057886382
 21
307.05512014446873
  0
LINE
  8
_0-0_0
  6
CONTINUOUS
 62
    7
 10
1044.9011057886382
 20
307.05512014446873
 11
1044.2460797328022
 21
308.43466138980881
  0
LINE
  8
_0-0_0
  6
CONTINUOUS
 62
    7
 10
1057.7105923874988
 20
313.13306790229035
 11
1055.9710463000447
 21
311.16052733773904
  0
LINE
  8
_0-0_0
  6
CONTINUOUS
 62
    7
 10
1055.9710463000447
 20
311.16052733773904
 11
1055.3815243618883
 21
309.26861483002
  0
LINE
  8
_0-0_0
  6
CONTINUOUS
 62
    7
 10
1055.3815243618883
 20
309.26861483002
 11
1055.3815243618883
 21
307.57375049687113
  0
LINE
  8
_0-0_0
  6
CONTINUOUS
 62
    7
 10
1055.3815243618883
 20
307.57375049687113
 11
1055.3815243618883
 21
306.47013269909075
  0
LINE
  8
_0-0_0
  6
CONTINUOUS
 62
    7
 10
1055.3815243618883
 20
306.47013269909075
 11
1055.5780327946632
 21
304.14463499340854
  0
LINE
  8
_0-0_0
  6
CONTINUOUS
 62
    7
 10
1055.5780327946632
 20
304.14463499340854
 11
1055.9710463000447
 21
303.04100480556008
  0
LINE
  8
_0-0_0
  6
CONTINUOUS
 62
    7
 10
1055.9710463000447
 20
303.04100480556008
 11
1055.9710463000447
 21
301.50381461290095
  0
LINE
  8
_0-0_0
  6
CONTINUOUS
 62
    7
 10
1055.9710463000447
 20
301.50381461290095
 11
1055.9710463000447
 21
300.08487372733009
  0
LINE
  8
_0-0_0
  6
CONTINUOUS
 62
    7
 10
1055.9710463000447
 20
300.08487372733009
 11
1056.1675569729559
 21
299.33599104770116
  0
LINE
  8
_0-0_0
  6
CONTINUOUS
 62
    7
 10
1056.1675569729559
 20
299.33599104770116
 11
1056.4295672832741
 21
298.70534528507056
  0
LINE
  8
_0-0_0
  6
CONTINUOUS
 62
    7
 10
1056.4295672832741
 20
298.70534528507056
 11
1056.8225813486861
 21
297.6017146842205
  0
LINE
  8
_0-0_0
  6
CONTINUOUS
 62
    7
 10
1056.8225813486861
 20
297.6017146842205
 11
1057.4776079645453
 21
296.53752171987071
  0
LINE
  8
_0-0_0
  6
CONTINUOUS
 62
    7
 10
1057.4776079645453
 20
296.53752171987071
 11
1057.7105923874988
 21
296.44405134124105
  0
LINE
  8
_0-0_0
  6
CONTINUOUS
 62
    7
 10
1044.2460797328022
 20
308.43466138980881
 11
1043.7097977762678
 21
309.51032385466181
  0
ENDSEC
  0
EOF
