  0
SECTION
  2
HEADER
  9
$ACADVER
  1
AC1009
  9
$INSBASE
 10
0
 20
0
 30
0
  9
$EXTMIN
 10
0
 20
0
  9
$EXTMAX
 10
2100
 20
1485
  9
$LIMMIN
 10
0
 20
0
  9
$LIMMAX
 10
2100
 20
1485
  9
$LTSCALE
 40
5
  0
ENDSEC
  0
SECTION
  2
TABLES
  0
TABLE
  2
LTYPE
 70
     9
  0
LTYPE
  2
CONTINUOUS
 70
    64
  3
実線
 72
    65
 73
     0
 40
0.0
  0
LTYPE
  2
DASHED1
 70
    64
  3
--  --  --  --  --  --  --  --  
 72
    65
 73
     2
 40
2.5
 49
1.25
 49
-1.25
  0
LTYPE
  2
DASHED2
 70
    64
  3
----    ----    ----    ----    
 72
    65
 73
     2
 40
5.0
 49
2.5
 49
-2.5
  0
LTYPE
  2
DASHED3
 70
    64
  3
------  ------  ------  ------  
 72
    65
 73
     2
 40
5.0
 49
3.75
 49
-1.25
  0
LTYPE
  2
CENTER1
 70
    64
  3
----- - ----- - ----- - ----- - 
 72
    65
 73
     4
 40
10.0
 49
6.25
 49
-1.25
 49
1.25
 49
-1.25
  0
LTYPE
  2
CENTER2
 70
    64
  3
----------  --  ----------  --  
 72
    65
 73
     4
 40
20.0
 49
12.5
 49
-2.5
 49
2.5
 49
-2.5
  0
LTYPE
  2
PHANTOM1
 70
    64
  3
--- - - --- - - --- - - --- - - 
 72
    65
 73
     6
 40
10.0
 49
3.25
 49
-1.25
 49
1.25
 49
-1.25
 49
1.25
 49
-1.25
  0
LTYPE
  2
PHANTOM2
 70
    64
  3
--------  -  -  --------  -  -  
 72
    65
 73
     6
 40
20.0
 49
10.0
 49
-2.5
 49
1.25
 49
-2.5
 49
1.25
 49
-2.5
  0
LTYPE
  2
DOT
 70
    64
  3
-   -   -   -   -   -   -   -   
 72
    65
 73
     2
 40
2.5
 49
0.625
 49
-1.875
  0
LTYPE
  2
DUMMY
 70
    64
  3
ダミー
 72
    65
 73
     0
 40
0.0
  0
LTYPE
  2
RAND1
 70
    64
  3
ランダム線1
 72
    65
 73
     4
 40
10.0
 49
1.0
 49
-2.0
 49
3.0
 49
-4.0
  0
LTYPE
  2
RAND2
 70
    64
  3
ランダム線2
 72
    65
 73
     4
 40
14.0
 49
2.0
 49
-3.0
 49
4.0
 49
-5.0
  0
LTYPE
  2
RAND3
 70
    64
  3
ランダム線3
 72
    65
 73
     4
 40
18.0
 49
3.0
 49
-4.0
 49
5.0
 49
-6.0
  0
LTYPE
  2
RAND4
 70
    64
  3
ランダム線4
 72
    65
 73
     4
 40
22.0
 49
4.0
 49
-5.0
 49
6.0
 49
-7.0
  0
LTYPE
  2
RAND5
 70
    64
  3
ランダム線5
 72
    65
 73
     4
 40
26.0
 49
5.0
 49
-6.0
 49
7.0
 49
-8.0
  0
LTYPE
  2
LONG1
 70
    64
  3
----------  --  ----------  --  
 72
    65
 73
     4
 40
40.0
 49
32.5
 49
-2.5
 49
2.5
 49
-2.5
  0
LTYPE
  2
LONG2
 70
    64
  3
--------  -  -  --------  -  -  
 72
    65
 73
     6
 40
40.0
 49
30.0
 49
-2.5
 49
1.25
 49
-2.5
 49
1.25
 49
-2.5
  0
LTYPE
  2
LONG3
 70
    64
  3
+++++++++++++++..+++++++++++++++
 72
    65
 73
     2
 40
40.0
 49
37.5
 49
-2.5
  0
LTYPE
  2
LONG4
 70
    64
  3
+++++++++++++++..+++++++++++++++
 72
    65
 73
     2
 40
80.0
 49
75.0
 49
-5.0
  0
LTYPE
  2
LONG5
 70
    64
  3
----------  --  ----------  --  
 72
    65
 73
     4
 40
60.0
 49
37.5
 49
-7.5
 49
7.5
 49
-7.5
  0
LTYPE
  2
dashed
 70
   64
  3
-------   -------------   ------
 72
   65
 73
    2
 40
7.5
 49
6
 49
-1.5
  0
LTYPE
  2
dashed_spaced
 70
   64
  3
----        --------        ----
 72
   65
 73
    2
 40
12
 49
6
 49
-6
  0
LTYPE
  2
long_dashed_dotted
 70
   64
  3
------------- --- --------------
 72
   65
 73
    4
 40
15.25
 49
12
 49
-1.5
 49
0.25
 49
-1.5
  0
LTYPE
  2
long_dashed_double-dotted
 70
   64
  3
----------- --- --- ------------
 72
   65
 73
    6
 40
17
 49
12
 49
-1.5
 49
0.25
 49
-1.5
 49
0.25
 49
-1.5
  0
LTYPE
  2
long_dashed_triplicate-dotted
 70
   64
  3
--------- --- --- --- ----------
 72
   65
 73
    8
 40
18.75
 49
12
 49
-1.5
 49
0.25
 49
-1.5
 49
0.25
 49
-1.5
 49
0.25
 49
-1.5
  0
LTYPE
  2
dotted
 70
   64
  3
   -       -       -       -    
 72
   65
 73
    2
 40
1.75
 49
0.25
 49
-1.5
  0
LTYPE
  2
chain
 70
   64
  3
-------------- -- --------------
 72
   65
 73
    4
 40
18.5
 49
12
 49
-1.5
 49
3.5
 49
-1.5
  0
LTYPE
  2
chain_double_dash
 70
   64
  3
------------ -- -- -------------
 72
   65
 73
    6
 40
23.5
 49
12
 49
-1.5
 49
3.5
 49
-1.5
 49
3.5
 49
-1.5
  0
LTYPE
  2
dashed_dotted
 70
   64
  3
-----------     -     ----------
 72
   65
 73
    4
 40
9.25
 49
6
 49
-1.5
 49
0.25
 49
-1.5
  0
LTYPE
  2
double-dashed_dotted
 70
   64
  3
------   -----------   -   -----
 72
   65
 73
    6
 40
16.75
 49
6
 49
-1.5
 49
6
 49
-1.5
 49
0.25
 49
-1.5
  0
LTYPE
  2
dashed_double-dotted
 70
   64
  3
---------    -    -    ---------
 72
   65
 73
    6
 40
11
 49
6
 49
-1.5
 49
0.25
 49
-1.5
 49
0.25
 49
-1.5
  0
LTYPE
  2
double-dashed_double-dotted
 70
   64
  3
-----   ---------   -   -   ----
 72
   65
 73
    8
 40
18.5
 49
6
 49
-1.5
 49
6
 49
-1.5
 49
0.25
 49
-1.5
 49
0.25
 49
-1.5
  0
LTYPE
  2
dashed_triplicate-dotted
 70
   64
  3
-------    -    -    -    ------
 72
   65
 73
    8
 40
12.75
 49
6
 49
-1.5
 49
0.25
 49
-1.5
 49
0.25
 49
-1.5
 49
0.25
 49
-1.5
  0
LTYPE
  2
double-dashed_triplicate-dotted
 70
   64
  3
-----  ---------  -  -  -  -----
 72
   65
 73
   10
 40
20.25
 49
6
 49
-1.5
 49
6
 49
-1.5
 49
0.25
 49
-1.5
 49
0.25
 49
-1.5
 49
0.25
 49
-1.5
  0
LTYPE
  2
undefined
 70
   64
  3
--------------------------------
 72
   65
 73
    0
 40
0
  0
LTYPE
  2
BORDER
 70
   64
  3
----     --------     -     ----
 72
   65
 73
    6
 40
1.76
 49
0.5
 49
-0.25
 49
0.5
 49
-0.25
 49
0.01
 49
-0.25
  0
LTYPE
  2
BORDER2
 70
   64
  3
----     --------     -     ----
 72
   65
 73
    6
 40
0.885
 49
0.25
 49
-0.125
 49
0.25
 49
-0.125
 49
0.01
 49
-0.125
  0
LTYPE
  2
BORDERX2
 70
   64
  3
----     --------     -     ----
 72
   65
 73
    6
 40
3.5099999999999998
 49
1
 49
-0.5
 49
1
 49
-0.5
 49
0.01
 49
-0.5
  0
LTYPE
  2
CENTER
 70
   64
  3
----------    ----    ----------
 72
   65
 73
    4
 40
2
 49
1.25
 49
-0.25
 49
0.25
 49
-0.25
  0
LTYPE
  2
CENTER2_21
 70
   64
  3
----------    ----    ----------
 72
   65
 73
    4
 40
1.125
 49
0.75
 49
-0.125
 49
0.125
 49
-0.125
  0
LTYPE
  2
CENTERX2
 70
   64
  3
----------    ----    ----------
 72
   65
 73
    4
 40
4
 49
2.5
 49
-0.5
 49
0.5
 49
-0.5
  0
LTYPE
  2
DASHDOT
 70
   64
  3
--------        -        -------
 72
   65
 73
    4
 40
1.01
 49
0.5
 49
-0.25
 49
0.01
 49
-0.25
  0
LTYPE
  2
DASHDOT2
 70
   64
  3
--------        -        -------
 72
   65
 73
    4
 40
0.51
 49
0.25
 49
-0.125
 49
0.01
 49
-0.125
  0
LTYPE
  2
DASHDOTX2
 70
   64
  3
--------        -        -------
 72
   65
 73
    4
 40
2.0099999999999998
 49
1
 49
-0.5
 49
0.01
 49
-0.5
  0
LTYPE
  2
DASHED
 70
   64
  3
------     -----------     -----
 72
   65
 73
    2
 40
0.75
 49
0.5
 49
-0.25
  0
LTYPE
  2
DASHED2_27
 70
   64
  3
------     -----------     -----
 72
   65
 73
    2
 40
0.375
 49
0.25
 49
-0.125
  0
LTYPE
  2
DASHEDX2
 70
   64
  3
------     -----------     -----
 72
   65
 73
    2
 40
1.5
 49
1
 49
-0.5
  0
LTYPE
  2
DIVIDE
 70
   64
  3
------      -      -      ------
 72
   65
 73
    6
 40
1.27
 49
0.5
 49
-0.25
 49
0.01
 49
-0.25
 49
0.01
 49
-0.25
  0
LTYPE
  2
DIVIDE2
 70
   64
  3
------      -      -      ------
 72
   65
 73
    6
 40
0.645
 49
0.25
 49
-0.125
 49
0.01
 49
-0.125
 49
0.01
 49
-0.125
  0
LTYPE
  2
DIVIDEX2
 70
   64
  3
------      -      -      ------
 72
   65
 73
    6
 40
2.5199999999999996
 49
1
 49
-0.5
 49
0.01
 49
-0.5
 49
0.01
 49
-0.5
  0
LTYPE
  2
DOT_32
 70
   64
  3
-               -               
 72
   65
 73
    2
 40
0.26
 49
0.01
 49
-0.25
  0
ENDTAB
  0
TABLE
  2
STYLE
  5
3
100
AcDbSymbolTable
 70
     1
  0
STYLE
  5
10
100
AcDbSymbolTableRecord
100
AcDbTextStyleTableRecord
  2
STANDARD
 70
     0
 40
0.0
 41
1.0
 50
0.0
 71
     0
 42
0.2
  3
txt
  4
bigfont.shx
  0
STYLE
  5
26
100
AcDbSymbolTableRecord
100
AcDbTextStyleTableRecord
  2
TATEGAKI
 70
    68
 40
0.0
 41
1.0
 50
0.0
 71
     0
 42
1.0
  3
txt
  4
bigfont.shx
  0
ENDTAB
  0
TABLE
  2
LAYER
 70
    3
  0
LAYER
  2
_0-0_0
 70
   64
 62
    7
  6
CONTINUOUS
  0
LAYER
  2
_0-2_P-0000
 70
   64
 62
    7
  6
CONTINUOUS
  0
LAYER
  2
ADD_LINE
 70
   64
 62
    7
  6
CONTINUOUS
  0
ENDTAB
  0
ENDSEC
  0
SECTION
  2
BLOCKS
  0
BLOCK
  2
-000-OBJ73
 70
   64
 10
0
 20
0
 30
0
  0
ARC
  8
_0-4__0-4__0-1_LAYER_10
  6
CONTINUOUS
 62
    7
 10
-2110.0156800000004
 20
-2935.4863999999998
 40
1462.95028
 50
357.52218099999999
 51
0.5443050000000084
  0
ARC
  8
_0-4__0-4__0-1_LAYER_10
  6
CONTINUOUS
 62
    7
 10
-2367.9368400000003
 20
-2987.2051600000004
 40
1959.537
 50
359.66292700000008
 51
1.9189480000000572
  0
ARC
  8
_0-4__0-4__0-1_LAYER_10
  6
CONTINUOUS
 62
    7
 10
-2272.7854399999992
 20
-3020.9600399999995
 40
1864.4852800000001
 50
0.68304
 51
3.0551370000000002
  0
ARC
  8
_0-4__0-4__0-1_LAYER_10
  6
CONTINUOUS
 62
    7
 10
-1969.84112
 20
-2912.5762400000003
 40
1803.4666000000002
 50
357.26175999999998
 51
359.71368799999999
  0
ENDBLK
  0
BLOCK
  2
-001-OBJ74
 70
   64
 10
0
 20
0
 30
0
  0
ARC
  8
_0-4__0-4__0-1_LAYER_10
  6
CONTINUOUS
 62
    7
 10
-2031.6636400000002
 20
-3923.6309200000001
 40
1959.537
 50
359.66292700000008
 51
1.9189480000000572
  0
ARC
  8
_0-4__0-4__0-1_LAYER_10
  6
CONTINUOUS
 62
    7
 10
-1633.5679199999995
 20
-3849.002
 40
1803.4666000000002
 50
357.26175999999998
 51
359.71368799999999
  0
ARC
  8
_0-4__0-4__0-1_LAYER_10
  6
CONTINUOUS
 62
    7
 10
-1773.7424799999997
 20
-3871.9121599999999
 40
1462.95028
 50
357.52218099999999
 51
0.5443050000000084
  0
ARC
  8
_0-4__0-4__0-1_LAYER_10
  6
CONTINUOUS
 62
    7
 10
-1936.5122800000004
 20
-3957.3858
 40
1864.4852800000001
 50
0.68304
 51
3.0551370000000002
  0
ENDBLK
  0
ENDSEC
  0
SECTION
  2
ENTITIES
  0
LINE
  8
_0-0_0
  6
CONTINUOUS
 62
    7
 10
1042.4338731391035
 20
427.57756660320592
 11
1042.4338731391035
 21
434.43470946034358
  0
LINE
  8
_0-0_0
  6
CONTINUOUS
 62
    7
 10
1042.4338731391035
 20
437.0061380317639
 11
1056.1481588533934
 21
437.0061380317639
  0
LINE
  8
_0-0_0
  6
CONTINUOUS
 62
    7
 10
1056.1481588533934
 20
434.43470946034358
 11
1056.1481588533934
 21
427.57756660320592
  0
LINE
  8
_0-0_0
  6
CONTINUOUS
 62
    7
 10
1056.1481588533934
 20
425.00613803176384
 11
1042.4338731391035
 21
425.00613803176384
  0
LINE
  8
_0-0_0
  6
CONTINUOUS
 62
    7
 10
1042.4338731391035
 20
434.43470946034358
 11
1056.1481588533934
 21
434.43470946034358
  0
LINE
  8
_0-0_0
  6
CONTINUOUS
 62
    7
 10
1042.4338731391035
 20
427.57756660320592
 11
1056.1481588533934
 21
427.57756660320592
  0
ARC
  8
_0-0_0
  6
CONTINUOUS
 62
    7
 10
1042.4338731391035
 20
435.72042374605371
 40
1.2857142857142845
 50
90.000003000002025
 51
270.00000100002092
  0
ARC
  8
_0-0_0
  6
CONTINUOUS
 62
    7
 10
1056.1481588533934
 20
435.72042374605371
 40
1.2857142857142845
 50
270.00000100002092
 51
90.000003000002152
  0
ARC
  8
_0-0_0
  6
CONTINUOUS
 62
    7
 10
1042.4338731391035
 20
426.29185231748494
 40
1.2857142857142845
 50
90.000003000002025
 51
270.00000100002092
  0
ARC
  8
_0-0_0
  6
CONTINUOUS
 62
    7
 10
1056.1481588533934
 20
426.29185231748494
 40
1.2857142857142845
 50
270.00000100002092
 51
90.000003000002152
  0
LINE
  8
_0-0_0
  6
CONTINUOUS
 62
    7
 10
1042.4338731391035
 20
551.00614917462372
 11
1042.4338731391035
 21
557.86329203176501
  0
LINE
  8
_0-0_0
  6
CONTINUOUS
 62
    7
 10
1042.4338731391035
 20
560.43472060320346
 11
1056.1481588533934
 21
560.43472060320346
  0
LINE
  8
_0-0_0
  6
CONTINUOUS
 62
    7
 10
1056.1481588533934
 20
557.86329203176501
 11
1056.1481588533934
 21
551.00614917462372
  0
LINE
  8
_0-0_0
  6
CONTINUOUS
 62
    7
 10
1056.1481588533934
 20
548.43472060319618
 11
1042.4338731391035
 21
548.43472060319618
  0
LINE
  8
_0-0_0
  6
CONTINUOUS
 62
    7
 10
1042.4338731391035
 20
557.86329203176501
 11
1056.1481588533934
 21
557.86329203176501
  0
LINE
  8
_0-0_0
  6
CONTINUOUS
 62
    7
 10
1042.4338731391035
 20
551.00614917462372
 11
1056.1481588533934
 21
551.00614917462372
  0
ARC
  8
_0-0_0
  6
CONTINUOUS
 62
    7
 10
1042.4338731391035
 20
559.14900631748606
 40
1.2857142857142845
 50
90.000003000002025
 51
270.00000100002092
  0
ARC
  8
_0-0_0
  6
CONTINUOUS
 62
    7
 10
1056.1481588533934
 20
559.14900631748606
 40
1.2857142857142845
 50
270.00000100002092
 51
90.000003000002152
  0
ARC
  8
_0-0_0
  6
CONTINUOUS
 62
    7
 10
1042.4338731391035
 20
549.72043488891359
 40
1.2857142857142845
 50
90.000003000002025
 51
270.00000100002092
  0
ARC
  8
_0-0_0
  6
CONTINUOUS
 62
    7
 10
1056.1481588533934
 20
549.72043488891359
 40
1.2857142857142845
 50
270.00000100002092
 51
90.000003000002152
  0
ARC
  8
_0-0_0
  6
CONTINUOUS
 62
    7
 10
1012.8285342819581
 20
547.07940031748524
 40
31.348934571428565
 50
321.60161499996786
 51
2.4778389999999839
  0
ARC
  8
_0-0_0
  6
CONTINUOUS
 62
    7
 10
1055.7213497105331
 20
508.00856517462307
 40
26.831122285714283
 50
133.07458400000829
 51
150.3214939999753
  0
ARC
  8
_0-0_0
  6
CONTINUOUS
 62
    7
 10
1055.7213497105331
 20
508.00856517462307
 40
26.831122285714283
 50
133.07458400000829
 51
150.3214939999753
  0
ARC
  8
_0-0_0
  6
CONTINUOUS
 62
    7
 10
1056.6118242819575
 20
509.87233060320432
 40
26.761390285714278
 50
154.73666500000741
 51
178.03032900002569
  0
ARC
  8
_0-0_0
  6
CONTINUOUS
 62
    7
 10
1056.6118242819575
 20
509.87233060320432
 40
26.761390285714278
 50
154.73666500000741
 51
178.03032900002569
  0
ARC
  8
_0-0_0
  6
CONTINUOUS
 62
    7
 10
1048.7856351391019
 20
514.16950146034287
 40
17.858136857142842
 50
156.4891009999767
 51
187.1974529999913
  0
ARC
  8
_0-0_0
  6
CONTINUOUS
 62
    7
 10
1007.3016659962377
 20
548.18771174605354
 40
41.990081999999987
 50
319.11646499999478
 51
0.3370299999877202
  0
ARC
  8
_0-0_0
  6
CONTINUOUS
 62
    7
 10
1050.2980894248103
 20
514.81602117462535
 40
13.428425142857138
 50
149.36178399998951
 51
163.73575399998819
  0
ARC
  8
_0-0_0
  6
CONTINUOUS
 62
    7
 10
1009.3405979962408
 20
548.91099117462363
 40
39.95325600000001
 50
324.33292599999078
 51
359.31696400001579
  0
ARC
  8
_0-0_0
  6
CONTINUOUS
 62
    7
 10
449.83961228196137
 20
996.30999717462328
 40
756.28694142857148
 50
321.22349599996767
 51
321.51014600000917
  0
LINE
  8
_0-0_0
  6
CONTINUOUS
 62
    7
 10
1044.1481588533934
 20
548.43470774605521
 11
1054.4338731391035
 21
548.43470774605521
  0
ARC
  8
_0-0_0
  6
CONTINUOUS
 62
    7
 10
1115.6651914248068
 20
547.37677660320333
 40
61.240460571428564
 50
181.89461800001831
 51
195.15342199998423
  0
ARC
  8
_0-0_0
  6
CONTINUOUS
 62
    7
 10
995.43856371052971
 20
544.13265803176546
 40
59.151971999999979
 50
341.81424900000536
 51
358.92053999999354
  0
ARC
  8
_0-0_0
  6
CONTINUOUS
 62
    7
 10
1015.8322748533828
 20
546.58852060319259
 40
38.645712857142854
 50
320.09889200001976
 51
2.7381819999698367
  0
ARC
  8
_0-0_0
  6
CONTINUOUS
 62
    7
 10
449.83961228196137
 20
996.30999717462328
 40
756.28694142857148
 50
321.22349599996767
 51
321.51014600000917
  0
ARC
  8
_0-0_0
  6
CONTINUOUS
 62
    7
 10
992.06988085339253
 20
555.24277831748259
 40
58.308221999999994
 50
312.70909200000233
 51
323.67643599999724
  0
ARC
  8
_0-0_0
  6
CONTINUOUS
 62
    7
 10
1044.7396748533938
 20
496.31296488891536
 40
20.757288857142846
 50
129.205335999981
 51
179.36845800000231
  0
ARC
  8
_0-0_0
  6
CONTINUOUS
 62
    7
 10
1035.1606722819633
 20
497.04834288891288
 40
11.188498285714278
 50
182.59509400001801
 51
233.40021299999529
  0
ARC
  8
_0-0_0
  6
CONTINUOUS
 62
    7
 10
1038.2057099962403
 20
496.73336260319417
 40
11.924633999999996
 50
151.4358260000125
 51
218.7495119999833
  0
ARC
  8
_0-0_0
  6
CONTINUOUS
 62
    7
 10
1048.1636811390999
 20
490.52963174605611
 40
23.646805714285705
 50
127.97382599998231
 51
149.77028399997945
  0
ARC
  8
_0-0_0
  6
CONTINUOUS
 62
    7
 10
673.86381342481036
 20
859.0795391746251
 40
501.85315971428571
 50
315.79445200001038
 51
317.77291199997848
  0
ARC
  8
_0-0_0
  6
CONTINUOUS
 62
    7
 10
1041.220877996253
 20
498.32872060319278
 40
9.4134574285714265
 50
139.84177099997169
 51
199.7673239999769
  0
ARC
  8
_0-0_0
  6
CONTINUOUS
 62
    7
 10
1045.5594505676636
 20
509.6401391746258
 40
14.809927714285706
 50
209.66633099998
 51
227.56355700002669
  0
ARC
  8
_0-0_0
  6
CONTINUOUS
 62
    7
 10
1059.303500567672
 20
529.89930803177413
 40
35.777993999999993
 50
229.21587600001538
 51
233.66331200000576
  0
ARC
  8
_0-0_0
  6
CONTINUOUS
 62
    7
 10
1364.8927251390996
 20
210.64925174605378
 40
442.44971828571414
 50
136.47130499998849
 51
138.40064200003059
  0
ARC
  8
_0-0_0
  6
CONTINUOUS
 62
    7
 10
1050.2980894248103
 20
514.81602117462535
 40
13.428425142857138
 50
205.57810700002403
 51
232.37186000000023
  0
ARC
  8
_0-0_0
  6
CONTINUOUS
 62
    7
 10
1059.303500567672
 20
529.89930803177413
 40
35.777993999999993
 50
229.21587600001538
 51
233.66331200000576
  0
ARC
  8
_0-0_0
  6
CONTINUOUS
 62
    7
 10
1069.4875799962392
 20
531.09042203176432
 40
26.88911914285714
 50
210.61053599999954
 51
231.23176500000892
  0
ARC
  8
_0-0_0
  6
CONTINUOUS
 62
    7
 10
1072.5130791390911
 20
529.85092831748261
 40
27.587581714285715
 50
204.27401900000254
 51
225.02071899998063
  0
ARC
  8
_0-0_0
  6
CONTINUOUS
 62
    7
 10
1072.680767996244
 20
530.37021546034521
 40
22.12107085714285
 50
194.62839900001285
 51
229.07182699999237
  0
ARC
  8
_0-0_0
  6
CONTINUOUS
 62
    7
 10
1029.0360231390878
 20
534.29552603176489
 40
24.189420857142849
 50
308.5285510000287
 51
339.11307299997969
  0
ARC
  8
_0-0_0
  6
CONTINUOUS
 62
    7
 10
1080.8277137105179
 20
545.1960817460531
 40
34.431926571428562
 50
212.86139700000862
 51
230.35351199998013
  0
ARC
  8
_0-0_0
  6
CONTINUOUS
 62
    7
 10
1072.5130791390911
 20
529.85092831748261
 40
27.587581714285715
 50
204.27401900000254
 51
225.02071899998063
  0
ARC
  8
_0-0_0
  6
CONTINUOUS
 62
    7
 10
1080.8277137105179
 20
545.1960817460531
 40
34.431926571428562
 50
212.86139700000862
 51
230.35351199998013
  0
ARC
  8
_0-0_0
  6
CONTINUOUS
 62
    7
 10
1080.8277137105179
 20
545.1960817460531
 40
34.431926571428562
 50
212.86139700000862
 51
230.35351199998013
  0
ARC
  8
_0-0_0
  6
CONTINUOUS
 62
    7
 10
1072.680767996244
 20
530.37021546034521
 40
22.12107085714285
 50
194.62839900001285
 51
229.07182699999237
  0
ARC
  8
_0-0_0
  6
CONTINUOUS
 62
    7
 10
1072.680767996244
 20
530.37021546034521
 40
22.12107085714285
 50
194.62839900001285
 51
229.07182699999237
  0
ARC
  8
_0-0_0
  6
CONTINUOUS
 62
    7
 10
992.06988085339253
 20
555.24277831748259
 40
58.308221999999994
 50
312.70909200000233
 51
323.67643599999724
  0
ARC
  8
_0-0_0
  6
CONTINUOUS
 62
    7
 10
673.86381342481036
 20
859.0795391746251
 40
501.85315971428571
 50
315.79445200001038
 51
317.77291199997848
  0
ARC
  8
_0-0_0
  6
CONTINUOUS
 62
    7
 10
1056.1179102819515
 20
515.13196917462483
 40
9.3958619999999975
 50
309.20520499996735
 51
39.493547000010018
  0
ARC
  8
_0-0_0
  6
CONTINUOUS
 62
    7
 10
1056.1179102819515
 20
515.13196917462483
 40
9.3958619999999975
 50
309.20520499996735
 51
39.493547000010018
  0
ARC
  8
_0-0_0
  6
CONTINUOUS
 62
    7
 10
1057.3951268533783
 20
517.99023288891476
 40
6.738047142857142
 50
298.85541899999419
 51
43.313822000005317
  0
ARC
  8
_0-0_0
  6
CONTINUOUS
 62
    7
 10
1056.5480417105209
 20
517.39825317462601
 40
4.0661768571428567
 50
295.11337700001718
 51
46.52267900000377
  0
ARC
  8
_0-0_0
  6
CONTINUOUS
 62
    7
 10
1080.8277137105179
 20
545.1960817460531
 40
34.431926571428562
 50
212.86139700000862
 51
230.35351199998013
  0
ARC
  8
_0-0_0
  6
CONTINUOUS
 62
    7
 10
1103.6967179962376
 20
556.03159660319579
 40
53.204386285714271
 50
207.61697299998823
 51
218.912044000013
  0
ARC
  8
_0-0_0
  6
CONTINUOUS
 62
    7
 10
1092.7818977105271
 20
549.01086203177329
 40
44.09621657142857
 50
205.30548699997539
 51
219.178092999987
  0
ARC
  8
_0-0_0
  6
CONTINUOUS
 62
    7
 10
1014.1952339962518
 20
576.54188688891372
 40
76.746007714285696
 50
295.38483599999267
 51
305.05362400001428
  0
ARC
  8
_0-0_0
  6
CONTINUOUS
 62
    7
 10
1014.1952339962518
 20
576.54188688891372
 40
76.746007714285696
 50
295.38483599999267
 51
305.05362400001428
  0
ARC
  8
_0-0_0
  6
CONTINUOUS
 62
    7
 10
1068.9318711391024
 20
465.50012088891526
 40
47.076215999999988
 50
117.63530999999561
 51
143.40163800000602
  0
ARC
  8
_0-0_0
  6
CONTINUOUS
 62
    7
 10
1069.9525962819534
 20
455.8892557460531
 40
54.004341428571429
 50
113.95644000002081
 51
131.79893699998453
  0
ARC
  8
_0-0_0
  6
CONTINUOUS
 62
    7
 10
1033.8955114248092
 20
546.34394431748296
 40
43.463227714285708
 50
288.97044099998431
 51
307.9878739999815
  0
ARC
  8
_0-0_0
  6
CONTINUOUS
 62
    7
 10
1042.2265782819522
 20
530.34664746033377
 40
29.988166285714275
 50
287.59566100001609
 51
311.39725799996825
  0
ARC
  8
_0-0_0
  6
CONTINUOUS
 62
    7
 10
1079.3124239962417
 20
540.5176331746261
 40
50.550040285714275
 50
232.60946899996259
 51
246.79861299998009
  0
ARC
  8
_0-0_0
  6
CONTINUOUS
 62
    7
 10
1102.3654885676733
 20
587.54977574605437
 40
107.40176657142848
 50
236.99057099999482
 51
243.46370499997454
  0
ARC
  8
_0-0_0
  6
CONTINUOUS
 62
    7
 10
1101.4665557105327
 20
600.45204717462548
 40
121.33006285714279
 50
240.00325799997836
 51
245.77741800000916
  0
ARC
  8
_0-0_0
  6
CONTINUOUS
 62
    7
 10
1084.0621191391037
 20
436.17755946034595
 40
73.315369714285708
 50
116.5498150000024
 51
129.04500400001311
  0
ARC
  8
_0-0_0
  6
CONTINUOUS
 62
    7
 10
1059.2483991390982
 20
515.17302460319479
 40
34.012320857142861
 50
225.8586460000042
 51
244.71832899996457
  0
ARC
  8
_0-0_0
  6
CONTINUOUS
 62
    7
 10
1046.0044199962431
 20
485.0940671746248
 40
12.076217142857137
 50
157.50205899997451
 51
230.2192579999776
  0
ARC
  8
_0-0_0
  6
CONTINUOUS
 62
    7
 10
1045.6799245676739
 20
483.11732603176279
 40
12.683677714285706
 50
127.9571869999799
 51
227.4749560000034
  0
ARC
  8
_0-0_0
  6
CONTINUOUS
 62
    7
 10
1044.2588948533812
 20
483.2894977460528
 40
16.476591428571432
 50
128.6970060000211
 51
238.37065100002346
  0
ARC
  8
_0-0_0
  6
CONTINUOUS
 62
    7
 10
1075.6865271390925
 20
551.35796003176438
 40
78.754367142857134
 50
237.98807899998479
 51
244.25786499999111
  0
ARC
  8
_0-0_0
  6
CONTINUOUS
 62
    7
 10
1075.6865271390925
 20
551.35796003176438
 40
78.754367142857134
 50
237.98807899998479
 51
244.25786499999111
  0
ARC
  8
_0-0_0
  6
CONTINUOUS
 62
    7
 10
1075.6865271390925
 20
551.35796003176438
 40
78.754367142857134
 50
237.98807899998479
 51
244.25786499999111
  0
ARC
  8
_0-0_0
  6
CONTINUOUS
 62
    7
 10
1076.3513828533905
 20
452.74245717462327
 40
44.518520571428567
 50
114.39484999999929
 51
151.13823499999623
  0
ARC
  8
_0-0_0
  6
CONTINUOUS
 62
    7
 10
1089.1316031391034
 20
428.02097003176465
 40
65.323300285714282
 50
118.2920459999917
 51
130.96603599998511
  0
ARC
  8
_0-0_0
  6
CONTINUOUS
 62
    7
 10
1009.5954805676738
 20
576.49590803177489
 40
100.05212228571418
 50
297.5463719999733
 51
307.98369399998938
  0
ARC
  8
_0-0_0
  6
CONTINUOUS
 62
    7
 10
1009.5954805676738
 20
576.49590803177489
 40
100.05212228571418
 50
297.5463719999733
 51
307.98369399998938
  0
ARC
  8
_0-0_0
  6
CONTINUOUS
 62
    7
 10
928.41814456767327
 20
281.0003068889128
 40
259.56076114285702
 50
57.701144000001733
 51
59.829410999997116
  0
ARC
  8
_0-0_0
  6
CONTINUOUS
 62
    7
 10
928.41814456767327
 20
281.0003068889128
 40
259.56076114285702
 50
57.701144000001733
 51
59.829410999997116
  0
ARC
  8
_0-0_0
  6
CONTINUOUS
 62
    7
 10
1009.5954805676738
 20
576.49590803177489
 40
100.05212228571418
 50
297.5463719999733
 51
307.98369399998938
  0
ARC
  8
_0-0_0
  6
CONTINUOUS
 62
    7
 10
1036.8615454248138
 20
534.31888488891491
 40
46.140952285714278
 50
297.21639200002897
 51
305.76363600000491
  0
ARC
  8
_0-0_0
  6
CONTINUOUS
 62
    7
 10
1086.9124414248072
 20
547.10268117462329
 40
49.64372057142856
 50
238.33688299997556
 51
245.57524399999829
  0
ARC
  8
_0-0_0
  6
CONTINUOUS
 62
    7
 10
1064.6880111391001
 20
496.96262346034564
 40
9.9844637142857131
 50
38.401580999989427
 51
72.870537000007801
  0
ARC
  8
_0-0_0
  6
CONTINUOUS
 62
    7
 10
1068.9364851390928
 20
501.10537146034403
 40
4.1266551428571416
 50
302.7890070000164
 51
29.93537699999791
  0
ARC
  8
_0-0_0
  6
CONTINUOUS
 62
    7
 10
1066.442050281963
 20
496.60072831748408
 40
8.6315074285714282
 50
14.64001200000253
 51
19.545047000016389
  0
ARC
  8
_0-0_0
  6
CONTINUOUS
 62
    7
 10
1066.5741317105203
 20
500.6359940317634
 40
8.7639711428571427
 50
295.49059500000823
 51
318.70635300001669
  0
ARC
  8
_0-0_0
  6
CONTINUOUS
 62
    7
 10
1019.4156488533918
 20
565.12887803177364
 40
88.522213714285698
 50
295.96354399999137
 51
305.12329200001523
  0
ARC
  8
_0-0_0
  6
CONTINUOUS
 62
    7
 10
1019.4156488533918
 20
565.12887803177364
 40
88.522213714285698
 50
295.96354399999137
 51
305.12329200001523
  0
ARC
  8
_0-0_0
  6
CONTINUOUS
 62
    7
 10
1089.1316031391034
 20
428.02097003176465
 40
65.323300285714282
 50
118.2920459999917
 51
130.96603599998511
  0
ARC
  8
_0-0_0
  6
CONTINUOUS
 62
    7
 10
1016.4423437105215
 20
410.63717174605335
 40
77.957015142857131
 50
57.60078200001923
 51
64.05196400003328
  0
ARC
  8
_0-0_0
  6
CONTINUOUS
 62
    7
 10
1033.4356422819619
 20
447.13317803177415
 40
33.00227828571429
 50
49.739039000019609
 51
66.790945000018709
  0
ARC
  8
_0-0_0
  6
CONTINUOUS
 62
    7
 10
1033.4356422819619
 20
447.13317803177415
 40
33.00227828571429
 50
49.739039000019609
 51
66.790945000018709
  0
ARC
  8
_0-0_0
  6
CONTINUOUS
 62
    7
 10
1079.631467109939
 20
455.05959422272281
 40
30.266999930287728
 50
124.7315645941046
 51
173.28216208508789
  0
ARC
  8
_0-0_0
  6
CONTINUOUS
 62
    7
 10
1036.8261797105297
 20
455.67251088891499
 40
23.311456285714275
 50
42.17025000000784
 51
66.787167000015813
  0
ARC
  8
_0-0_0
  6
CONTINUOUS
 62
    7
 10
1027.1641619962393
 20
450.04395374605519
 40
26.75536114285714
 50
29.393353999984051
 51
55.088418999974401
  0
ARC
  8
_0-0_0
  6
CONTINUOUS
 62
    7
 10
1006.3701428533823
 20
439.08569260319564
 40
42.97121657142857
 50
357.22613400002592
 51
31.106341000003891
  0
ARC
  8
_0-0_0
  6
CONTINUOUS
 62
    7
 10
1006.3701428533823
 20
439.08569260319564
 40
42.97121657142857
 50
357.22613400002592
 51
31.106341000003891
  0
ARC
  8
_0-0_0
  6
CONTINUOUS
 62
    7
 10
1054.6470599962413
 20
467.34285546034516
 40
13.02551742857143
 50
129.82518899996219
 51
201.44970900003349
  0
ARC
  8
_0-0_0
  6
CONTINUOUS
 62
    7
 10
1078.7187925676699
 20
445.43006174605398
 40
48.12760714285713
 50
118.34844999997992
 51
145.29973399997542
  0
ARC
  8
_0-0_0
  6
CONTINUOUS
 62
    7
 10
1048.5260339962406
 20
465.07863888891364
 40
12.163329428571428
 50
140.42168199999119
 51
220.89065400001709
  0
ARC
  8
_0-0_0
  6
CONTINUOUS
 62
    7
 10
1048.5260339962406
 20
465.07863888891364
 40
12.163329428571428
 50
140.42168199999119
 51
220.89065400001709
  0
ARC
  8
_0-0_0
  6
CONTINUOUS
 62
    7
 10
1049.6293945676734
 20
467.13522717462547
 40
14.17143428571428
 50
149.95087500001461
 51
219.34226300002888
  0
ARC
  8
_0-0_0
  6
CONTINUOUS
 62
    7
 10
1006.3701428533823
 20
439.08569260319564
 40
42.97121657142857
 50
357.22613400002592
 51
31.106341000003891
  0
ARC
  8
_0-0_0
  6
CONTINUOUS
 62
    7
 10
1006.3701428533823
 20
439.08569260319564
 40
42.97121657142857
 50
357.22613400002592
 51
31.106341000003891
  0
ARC
  8
_0-0_0
  6
CONTINUOUS
 62
    7
 10
1013.7484825676729
 20
440.5291914603331
 40
30.603145714285716
 50
6.6105350000075891
 51
29.880766000008219
  0
ARC
  8
_0-0_0
  6
CONTINUOUS
 62
    7
 10
1013.7484825676729
 20
440.5291914603331
 40
30.603145714285716
 50
6.6105350000075891
 51
29.880766000008219
  0
ARC
  8
_0-0_0
  6
CONTINUOUS
 62
    7
 10
1013.7484825676729
 20
440.5291914603331
 40
30.603145714285716
 50
6.6105350000075891
 51
29.880766000008219
  0
ARC
  8
_0-0_0
  6
CONTINUOUS
 62
    7
 10
1013.7484825676729
 20
440.5291914603331
 40
30.603145714285716
 50
6.6105350000075891
 51
29.880766000008219
  0
ARC
  8
_0-0_0
  6
CONTINUOUS
 62
    7
 10
1013.7484825676729
 20
440.5291914603331
 40
30.603145714285716
 50
6.6105350000075891
 51
29.880766000008219
  0
ARC
  8
_0-0_0
  6
CONTINUOUS
 62
    7
 10
1013.7484825676729
 20
440.5291914603331
 40
30.603145714285716
 50
6.6105350000075891
 51
29.880766000008219
  0
ARC
  8
_0-0_0
  6
CONTINUOUS
 62
    7
 10
1013.7484825676729
 20
440.5291914603331
 40
30.603145714285716
 50
6.6105350000075891
 51
29.880766000008219
  0
ARC
  8
_0-0_0
  6
CONTINUOUS
 62
    7
 10
1013.7484825676729
 20
440.5291914603331
 40
30.603145714285716
 50
6.6105350000075891
 51
29.880766000008219
  0
ARC
  8
_0-0_0
  6
CONTINUOUS
 62
    7
 10
1013.7484825676729
 20
440.5291914603331
 40
30.603145714285716
 50
6.6105350000075891
 51
29.880766000008219
  0
ARC
  8
_0-0_0
  6
CONTINUOUS
 62
    7
 10
1006.3701428533823
 20
439.08569260319564
 40
42.97121657142857
 50
357.22613400002592
 51
31.106341000003891
  0
ARC
  8
_0-0_0
  6
CONTINUOUS
 62
    7
 10
1006.3701428533823
 20
439.08569260319564
 40
42.97121657142857
 50
357.22613400002592
 51
31.106341000003891
  0
ARC
  8
_0-0_0
  6
CONTINUOUS
 62
    7
 10
1006.3701428533823
 20
439.08569260319564
 40
42.97121657142857
 50
357.22613400002592
 51
31.106341000003891
  0
ARC
  8
_0-0_0
  6
CONTINUOUS
 62
    7
 10
1006.3701428533823
 20
439.08569260319564
 40
42.97121657142857
 50
357.22613400002592
 51
31.106341000003891
  0
ARC
  8
_0-0_0
  6
CONTINUOUS
 62
    7
 10
1006.3701428533823
 20
439.08569260319564
 40
42.97121657142857
 50
357.22613400002592
 51
31.106341000003891
  0
ARC
  8
_0-0_0
  6
CONTINUOUS
 62
    7
 10
1006.3701428533823
 20
439.08569260319564
 40
42.97121657142857
 50
357.22613400002592
 51
31.106341000003891
  0
ARC
  8
_0-0_0
  6
CONTINUOUS
 62
    7
 10
1006.3701428533823
 20
439.08569260319564
 40
42.97121657142857
 50
357.22613400002592
 51
31.106341000003891
  0
ARC
  8
_0-0_0
  6
CONTINUOUS
 62
    7
 10
1006.3701428533823
 20
439.08569260319564
 40
42.97121657142857
 50
357.22613400002592
 51
31.106341000003891
  0
ARC
  8
_0-0_0
  6
CONTINUOUS
 62
    7
 10
1013.7484825676729
 20
440.5291914603331
 40
30.603145714285716
 50
6.6105350000075891
 51
29.880766000008219
  0
ARC
  8
_0-0_0
  6
CONTINUOUS
 62
    7
 10
1013.7484825676729
 20
440.5291914603331
 40
30.603145714285716
 50
6.6105350000075891
 51
29.880766000008219
  0
LINE
  8
_0-0_0
  6
CONTINUOUS
 62
    7
 10
1044.1481588533934
 20
444.05221917462404
 11
1044.1481588533934
 21
437.0061380317639
  0
LINE
  8
_0-0_0
  6
CONTINUOUS
 62
    7
 10
1044.1481588533934
 20
444.05221917462404
 11
1044.1481588533934
 21
437.0061380317639
  0
LINE
  8
_0-0_0
  6
CONTINUOUS
 62
    7
 10
1044.1481588533934
 20
444.05221917462404
 11
1044.1481588533934
 21
437.0061380317639
  0
LINE
  8
_0-0_0
  6
CONTINUOUS
 62
    7
 10
1044.1481588533934
 20
444.05221917462404
 11
1044.1481588533934
 21
437.0061380317639
  0
LINE
  8
_0-0_0
  6
CONTINUOUS
 62
    7
 10
1044.1481588533934
 20
444.05221917462404
 11
1044.1481588533934
 21
437.0061380317639
  0
LINE
  8
_0-0_0
  6
CONTINUOUS
 62
    7
 10
1044.1481588533934
 20
444.05221917462404
 11
1044.1481588533934
 21
437.0061380317639
  0
ARC
  8
_0-0_0
  6
CONTINUOUS
 62
    7
 10
1006.3701428533823
 20
439.08569260319564
 40
42.97121657142857
 50
357.22613400002592
 51
31.106341000003891
  0
ARC
  8
_0-0_0
  6
CONTINUOUS
 62
    7
 10
1006.3701428533823
 20
439.08569260319564
 40
42.97121657142857
 50
357.22613400002592
 51
31.106341000003891
  0
ARC
  8
_0-0_0
  6
CONTINUOUS
 62
    7
 10
1006.3701428533823
 20
439.08569260319564
 40
42.97121657142857
 50
357.22613400002592
 51
31.106341000003891
  0
ARC
  8
_0-0_0
  6
CONTINUOUS
 62
    7
 10
1006.3701428533823
 20
439.08569260319564
 40
42.97121657142857
 50
357.22613400002592
 51
31.106341000003891
  0
ARC
  8
_0-0_0
  6
CONTINUOUS
 62
    7
 10
1006.3701428533823
 20
439.08569260319564
 40
42.97121657142857
 50
357.22613400002592
 51
31.106341000003891
  0
ARC
  8
_0-0_0
  6
CONTINUOUS
 62
    7
 10
1006.3701428533823
 20
439.08569260319564
 40
42.97121657142857
 50
357.22613400002592
 51
31.106341000003891
  0
ARC
  8
_0-0_0
  6
CONTINUOUS
 62
    7
 10
1006.3701428533823
 20
439.08569260319564
 40
42.97121657142857
 50
357.22613400002592
 51
31.106341000003891
  0
ARC
  8
_0-0_0
  6
CONTINUOUS
 62
    7
 10
1006.3701428533823
 20
439.08569260319564
 40
42.97121657142857
 50
357.22613400002592
 51
31.106341000003891
  0
ARC
  8
_0-0_0
  6
CONTINUOUS
 62
    7
 10
1006.3701428533823
 20
439.08569260319564
 40
42.97121657142857
 50
357.22613400002592
 51
31.106341000003891
  0
LINE
  8
_0-0_0
  6
CONTINUOUS
 62
    7
 10
1044.1481588533934
 20
444.05221917462404
 11
1044.1481588533934
 21
437.0061380317639
  0
LINE
  8
_0-0_0
  6
CONTINUOUS
 62
    7
 10
1044.1481588533934
 20
437.0061380317639
 11
1054.4338731391035
 21
437.0061380317639
  0
LINE
  8
_0-0_0
  6
CONTINUOUS
 62
    7
 10
1044.1481588533934
 20
437.0061380317639
 11
1054.4338731391035
 21
437.0061380317639
  0
LINE
  8
_0-0_0
  6
CONTINUOUS
 62
    7
 10
1044.1481588533934
 20
437.0061380317639
 11
1054.4338731391035
 21
437.0061380317639
  0
ARC
  8
_0-0_0
  6
CONTINUOUS
 62
    7
 10
1061.2722248533901
 20
482.79389603177333
 40
8.7828925714285706
 50
309.32164599999618
 51
25.328046000012201
  0
ARC
  8
_0-0_0
  6
CONTINUOUS
 62
    7
 10
1062.3207908533805
 20
483.34293803176479
 40
3.0091679999999981
 50
322.68469200003187
 51
41.694340000003017
  0
ARC
  8
_0-0_0
  6
CONTINUOUS
 62
    7
 10
1047.3371168533922
 20
504.52886860319268
 40
28.834376571428567
 50
301.46351299998048
 51
307.05959599998823
  0
ARC
  8
_0-0_0
  6
CONTINUOUS
 62
    7
 10
1062.9990985676704
 20
482.28685146033604
 40
1.8790637142857138
 50
335.87348700000558
 51
65.554489000010193
  0
ARC
  8
_0-0_0
  6
CONTINUOUS
 62
    7
 10
1055.558098281952
 20
508.37370374605598
 40
14.161069714285707
 50
305.73303699998178
 51
322.91454199999708
  0
ARC
  8
_0-0_0
  6
CONTINUOUS
 62
    7
 10
1065.7565759962381
 20
500.67186888891598
 40
1.381127999999999
 50
322.6779170000159
 51
62.941155999977639
  0
ARC
  8
_0-0_0
  6
CONTINUOUS
 62
    7
 10
1085.7459308533798
 20
539.97169060319368
 40
38.05660114285714
 50
234.01632399999843
 51
241.57168800001023
  0
ARC
  8
_0-0_0
  6
CONTINUOUS
 62
    7
 10
1086.9124414248072
 20
547.10268117462329
 40
49.64372057142856
 50
238.33688299997556
 51
245.57524399999829
  0
ARC
  8
_0-0_0
  6
CONTINUOUS
 62
    7
 10
1072.5130791390911
 20
529.85092831748261
 40
27.587581714285715
 50
241.2686460000196
 51
244.99817500002086
  0
ARC
  8
_0-0_0
  6
CONTINUOUS
 62
    7
 10
1072.680767996244
 20
530.37021546034521
 40
22.12107085714285
 50
194.62839900001285
 51
229.07182699999237
  0
ARC
  8
_0-0_0
  6
CONTINUOUS
 62
    7
 10
1057.4943565676804
 20
515.81851060319605
 40
3.1732859999999992
 50
15.678562999978681
 51
64.540615999974349
  0
ARC
  8
_0-0_0
  6
CONTINUOUS
 62
    7
 10
1080.8277137105179
 20
545.1960817460531
 40
34.431926571428562
 50
212.86139700000862
 51
230.35351199998013
  0
ARC
  8
_0-0_0
  6
CONTINUOUS
 62
    7
 10
1103.6967179962376
 20
556.03159660319579
 40
53.204386285714271
 50
207.61697299998823
 51
218.912044000013
  0
ARC
  8
_0-0_0
  6
CONTINUOUS
 62
    7
 10
1056.1179102819515
 20
515.13196917462483
 40
9.3958619999999975
 50
309.20520499996735
 51
39.493547000010018
  0
ARC
  8
_0-0_0
  6
CONTINUOUS
 62
    7
 10
1063.3726928533797
 20
495.58841688890607
 40
11.862894857142859
 50
19.193116999985023
 51
38.908559000036661
  0
ARC
  8
_0-0_0
  6
CONTINUOUS
 62
    7
 10
1064.8721365676683
 20
502.03847688891619
 40
10.968490285714278
 50
319.06909099998182
 51
332.2785120000018
  0
ARC
  8
_0-0_0
  6
CONTINUOUS
 62
    7
 10
1066.442050281963
 20
496.60072831748408
 40
8.6315074285714282
 50
14.64001200000253
 51
19.545047000016389
  0
ARC
  8
_0-0_0
  6
CONTINUOUS
 62
    7
 10
1049.8539668533776
 20
471.42580660320527
 40
24.565565142857139
 50
38.003975000011813
 51
48.73343699998798
  0
ARC
  8
_0-0_0
  6
CONTINUOUS
 62
    7
 10
1065.2435725676696
 20
526.56868488891268
 40
8.5714285714285694
 50
219.17809299998706
 51
226.52262299996505
  0
ARC
  8
_0-0_0
  6
CONTINUOUS
 62
    7
 10
1046.11911599624
 20
517.29121488891542
 40
8.5714285714285694
 50
141.22346399997821
 51
149.36172999996487
  0
ARC
  8
_0-0_0
  6
CONTINUOUS
 62
    7
 10
1044.1781297105335
 20
512.91768803176456
 40
13.044829714285708
 50
219.86579700000422
 51
230.79725599999642
  0
ARC
  8
_0-0_0
  6
CONTINUOUS
 62
    7
 10
1072.3053754248103
 20
498.13237917462544
 40
2.5714285714285712
 50
332.27854000002992
 51
14.640091999998811
  0
ARC
  8
_0-0_0
  6
CONTINUOUS
 62
    7
 10
1067.6755482819572
 20
535.48673174605574
 40
60.583942285714286
 50
236.14930999999083
 51
244.6493439999827
  0
ARC
  8
_0-0_0
  6
CONTINUOUS
 62
    7
 10
1044.5008199962394
 20
484.08226574605578
 40
16.38720857142857
 50
144.63437799999542
 51
158.27795400000213
  0
ARC
  8
_0-0_0
  6
CONTINUOUS
 62
    7
 10
1084.4813759962271
 20
445.93360231748375
 40
34.860488571428561
 50
120.40586700001171
 51
161.9964190000112
  0
ARC
  8
_0-0_0
  6
CONTINUOUS
 62
    7
 10
1094.6456811391035
 20
464.93790888891454
 40
29.232640285714275
 50
154.7751330000001
 51
167.94879199998769
  0
ARC
  8
_0-0_0
  6
CONTINUOUS
 62
    7
 10
1086.0075677105269
 20
444.27974088891278
 40
32.789523428571428
 50
128.9085919999975
 51
153.97665600000673
  0
ARC
  8
_0-0_0
  6
CONTINUOUS
 62
    7
 10
1063.4111974248226
 20
471.61912660319285
 40
2.7084445714285712
 50
317.65887500000389
 51
347.68110799998811
  0
ARC
  8
_0-0_0
  6
CONTINUOUS
 62
    7
 10
1186.4964308533818
 20
433.43461317462425
 40
137.25192085714281
 50
170.77711900002029
 51
178.50889299999841
  0
ARC
  8
_0-0_0
  6
CONTINUOUS
 62
    7
 10
1112.9014594248074
 20
450.11497231748587
 40
63.895116857142852
 50
172.36859400000549
 51
187.24096200002148
  0
ARC
  8
_0-0_0
  6
CONTINUOUS
 62
    7
 10
1150.1188551390878
 20
439.9880891746252
 40
95.731454571428543
 50
170.14558600001416
 51
181.78500699999776
  0
ARC
  8
_0-0_0
  6
CONTINUOUS
 62
    7
 10
1050.5014671391036
 20
465.71406717462378
 40
8.5714285714285694
 50
201.44970900003349
 51
211.10632599999701
  0
ARC
  8
_0-0_0
  6
CONTINUOUS
 62
    7
 10
1032.8513785676696
 20
451.50531803177364
 40
8.5714285714285694
 50
29.88074599997454
 51
40.890638000009062
  0
ARC
  8
_0-0_0
  6
CONTINUOUS
 62
    7
 10
1084.4111159962413
 20
442.24146288891279
 40
29.820487714285704
 50
140.078245999996
 51
168.27578000002649
  0
ARC
  8
_0-0_0
  6
CONTINUOUS
 62
    7
 10
1110.1875977105228
 20
438.83562288890607
 40
55.783733999999995
 50
170.23077200000418
 51
178.12058300001246
  0
LINE
  8
_0-0_0
  6
CONTINUOUS
 62
    7
 10
1054.4338731391035
 20
437.0061380317639
 11
1054.4338731391035
 21
440.66510860320341
  0
ARC
  8
_0-0_0
  6
CONTINUOUS
 62
    7
 10
1054.3638419962372
 20
467.65133603177304
 40
9.5321691428571391
 50
318.84708199998272
 51
4.8695189999738329
  0
ARC
  8
_0-0_0
  6
CONTINUOUS
 62
    7
 10
1064.244821139102
 20
454.90511603177583
 40
8.5714285714285694
 50
153.97665600000673
 51
170.14557199999342
  0
ARC
  8
_0-0_0
  6
CONTINUOUS
 62
    7
 10
1059.4795045676728
 20
454.05893346034281
 40
8.5714285714285694
 50
161.99644600003001
 51
170.7771320000094
  0
ARC
  8
_0-0_0
  6
CONTINUOUS
 62
    7
 10
1020.4608677105207
 20
448.92405460319424
 40
29.479129714285705
 50
12.65520700000291
 51
43.712900000037102
  0
ARC
  8
_0-0_0
  6
CONTINUOUS
 62
    7
 10
1049.6293945676734
 20
467.13522717462547
 40
14.17143428571428
 50
149.95087500001461
 51
213.64707399999392
  0
LINE
  8
_0-0_0
  6
CONTINUOUS
 62
    7
 10
1044.1481588533934
 20
437.0061380317639
 11
1054.4338731391035
 21
437.0061380317639
  0
ARC
  8
_0-0_0
  6
CONTINUOUS
 62
    7
 10
1057.1974414248107
 20
478.73430460320378
 40
9.9003042857142844
 50
41.887952000001995
 51
61.41094099998756
  0
ARC
  8
_0-0_0
  6
CONTINUOUS
 62
    7
 10
1047.2346111391016
 20
462.4667703174855
 40
27.151640571428565
 50
52.464824000011859
 51
61.814106999989178
  0
INSERT
  2
-000-OBJ73
  8
_0-0_0
 10
1058.0431568533822
 20
1001.2647186031936
 41
0.0214285714285778
 42
0.0214285714285778
 50
0
  0
INSERT
  2
-001-OBJ74
  8
_0-0_0
 10
1050.8373025676628
 20
1021.3309857460554
 41
0.0214285714285778
 42
0.0214285714285778
 50
0
  0
LINE
  8
_0-0_0
  6
CONTINUOUS
 62
    7
 10
1042.4338731391035
 20
925.0061448889137
 11
1056.1481588533934
 21
925.0061448889137
  0
LINE
  8
_0-0_0
  6
CONTINUOUS
 62
    7
 10
1042.4338731391035
 20
927.57757346034487
 11
1056.1481588533934
 21
927.57757346034487
  0
LINE
  8
_0-0_0
  6
CONTINUOUS
 62
    7
 10
1042.4338731391035
 20
934.43471631748616
 11
1056.1481588533934
 21
934.43471631748616
  0
LINE
  8
_0-0_0
  6
CONTINUOUS
 62
    7
 10
1042.4338731391035
 20
934.43471631748616
 11
1042.4338731391035
 21
927.57757346034487
  0
LINE
  8
_0-0_0
  6
CONTINUOUS
 62
    7
 10
1056.1481588533934
 20
927.57757346034487
 11
1056.1481588533934
 21
934.43471631748616
  0
ARC
  8
_0-0_0
  6
CONTINUOUS
 62
    7
 10
1042.4338731391035
 20
926.29185917462382
 40
1.2857142857142845
 50
90.000003000002025
 51
270.00000100002092
  0
ARC
  8
_0-0_0
  6
CONTINUOUS
 62
    7
 10
1056.1481588533934
 20
926.29185917462382
 40
1.2857142857142845
 50
270.00000100002092
 51
90.000003000002152
  0
ARC
  8
_0-0_0
  6
CONTINUOUS
 62
    7
 10
1056.1481588533934
 20
935.72043060319265
 40
1.2857142857142845
 50
270.00000100002092
 51
90.000003000002152
  0
ARC
  8
_0-0_0
  6
CONTINUOUS
 62
    7
 10
1042.4338731391035
 20
935.72043060319265
 40
1.2857142857142845
 50
90.000003000002025
 51
270.00000100002092
  0
ARC
  8
_0-0_0
  6
CONTINUOUS
 62
    7
 10
1056.1481588533934
 20
1059.1489608889133
 40
1.2857142857142845
 50
270.00000100002092
 51
90.000003000002152
  0
LINE
  8
_0-0_0
  6
CONTINUOUS
 62
    7
 10
1056.1481588533934
 20
1051.0061037460546
 11
1056.1481588533934
 21
1057.8632466032032
  0
ARC
  8
_0-0_0
  6
CONTINUOUS
 62
    7
 10
1056.1481588533934
 20
1049.7203894603444
 40
1.2857142857142845
 50
270.00000100002092
 51
90.000003000002152
  0
LINE
  8
_0-0_0
  6
CONTINUOUS
 62
    7
 10
1042.4338731391035
 20
1051.0061037460546
 11
1056.1481588533934
 21
1051.0061037460546
  0
ARC
  8
_0-0_0
  6
CONTINUOUS
 62
    7
 10
1042.4338731391035
 20
1049.7203894603444
 40
1.2857142857142845
 50
90.000003000002025
 51
270.00000100002092
  0
LINE
  8
_0-0_0
  6
CONTINUOUS
 62
    7
 10
1042.4338731391035
 20
1057.8632466032032
 11
1042.4338731391035
 21
1051.0061037460546
  0
LINE
  8
_0-0_0
  6
CONTINUOUS
 62
    7
 10
1042.4338731391035
 20
1057.8632466032032
 11
1056.1481588533934
 21
1057.8632466032032
  0
ARC
  8
_0-0_0
  6
CONTINUOUS
 62
    7
 10
1042.4338731391035
 20
1059.1489608889133
 40
1.2857142857142845
 50
90.000003000002025
 51
270.00000100002092
  0
LINE
  8
_0-0_0
  6
CONTINUOUS
 62
    7
 10
1042.4338731391035
 20
1048.4346751746343
 11
1056.1481588533934
 21
1048.4346751746343
  0
LINE
  8
_0-0_0
  6
CONTINUOUS
 62
    7
 10
1056.1481588533934
 20
1060.4346751746234
 11
1042.4338731391035
 21
1060.4346751746234
  0
ARC
  8
_0-0_0
  6
CONTINUOUS
 62
    7
 10
1012.8285342819581
 20
938.36143946033553
 40
31.348934571428565
 50
357.5221810000304
 51
0.5443050000130628
  0
ARC
  8
_0-0_0
  6
CONTINUOUS
 62
    7
 10
1007.301653139104
 20
937.25318031748611
 40
41.990078571428562
 50
359.6629270000094
 51
1.9189480000106072
  0
ARC
  8
_0-0_0
  6
CONTINUOUS
 62
    7
 10
1009.3406108533818
 20
936.52986146034527
 40
39.95325600000001
 50
0.683039999987198
 51
3.0551369999722993
  0
ARC
  8
_0-0_0
  6
CONTINUOUS
 62
    7
 10
1015.8322748533828
 20
938.85237146033614
 40
38.645712857142854
 50
357.2617600000155
 51
359.71368800000602
  0
ARC
  8
_0-0_0
  6
CONTINUOUS
 62
    7
 10
1007.301653139104
 20
937.25318031748611
 40
41.990078571428562
 50
359.6629270000094
 51
1.9189480000106072
  0
ARC
  8
_0-0_0
  6
CONTINUOUS
 62
    7
 10
1015.8322748533828
 20
938.85237146033614
 40
38.645712857142854
 50
357.2617600000155
 51
359.71368800000602
  0
ARC
  8
_0-0_0
  6
CONTINUOUS
 62
    7
 10
1012.8285342819581
 20
938.36143946033553
 40
31.348934571428565
 50
357.5221810000304
 51
0.5443050000130628
  0
ARC
  8
_0-0_0
  6
CONTINUOUS
 62
    7
 10
1009.3406108533818
 20
936.52986146034527
 40
39.95325600000001
 50
0.683039999987198
 51
3.0551369999722993
  0
LINE
  8
_0-0_0
  6
CONTINUOUS
 62
    7
 10
1056.1481588533934
 20
937.0061448889137
 11
1042.4338731391035
 21
937.0061448889137
  0
LINE
  8
_0-0_0
  6
CONTINUOUS
 62
    7
 10
1044.1481588533934
 20
937.0061448889137
 11
1054.4338731391035
 21
937.0061448889137
  0
ARC
  8
_0-0_0
  6
CONTINUOUS
 62
    7
 10
1012.8285342819581
 20
1047.0793806031943
 40
31.348934571428565
 50
321.60161499996786
 51
2.4778389999999839
  0
ARC
  8
_0-0_0
  6
CONTINUOUS
 62
    7
 10
1055.7213497105331
 20
1008.0085463174837
 40
26.831122285714283
 50
133.07458400000829
 51
150.3214939999753
  0
ARC
  8
_0-0_0
  6
CONTINUOUS
 62
    7
 10
1055.7213497105331
 20
1008.0085463174837
 40
26.831122285714283
 50
133.07458400000829
 51
150.3214939999753
  0
ARC
  8
_0-0_0
  6
CONTINUOUS
 62
    7
 10
1056.6118242819575
 20
1009.8723237460545
 40
26.761390285714278
 50
154.73666500000741
 51
178.03032900002569
  0
ARC
  8
_0-0_0
  6
CONTINUOUS
 62
    7
 10
1056.6118242819575
 20
1009.8723237460545
 40
26.761390285714278
 50
154.73666500000741
 51
178.03032900002569
  0
ARC
  8
_0-0_0
  6
CONTINUOUS
 62
    7
 10
1048.7856351391019
 20
1014.1694954603336
 40
17.858136857142842
 50
156.4891009999767
 51
187.1974529999913
  0
ARC
  8
_0-0_0
  6
CONTINUOUS
 62
    7
 10
1007.3016659962377
 20
1048.1876920317736
 40
41.990081999999987
 50
319.11646499999478
 51
0.3370299999877202
  0
ARC
  8
_0-0_0
  6
CONTINUOUS
 62
    7
 10
1050.2980894248103
 20
1014.8160151746342
 40
13.428425142857138
 50
149.36178399998951
 51
163.73575399998819
  0
ARC
  8
_0-0_0
  6
CONTINUOUS
 62
    7
 10
1009.3405979962408
 20
1048.9109851746252
 40
39.95325600000001
 50
324.33292599999078
 51
359.31696400001579
  0
ARC
  8
_0-0_0
  6
CONTINUOUS
 62
    7
 10
449.83961228196137
 20
1496.3100177460547
 40
756.28694142857148
 50
321.22349599996767
 51
321.51014600000917
  0
LINE
  8
_0-0_0
  6
CONTINUOUS
 62
    7
 10
1044.1481588533934
 20
1048.4347017460532
 11
1054.4338731391035
 21
1048.4347017460532
  0
ARC
  8
_0-0_0
  6
CONTINUOUS
 62
    7
 10
1115.6651914248068
 20
1047.376770603194
 40
61.240460571428564
 50
181.89461800001831
 51
195.15342199998423
  0
ARC
  8
_0-0_0
  6
CONTINUOUS
 62
    7
 10
995.43856371052971
 20
1044.1326383174855
 40
59.151971999999979
 50
341.81424900000536
 51
358.92053999999354
  0
ARC
  8
_0-0_0
  6
CONTINUOUS
 62
    7
 10
1015.8322748533828
 20
1046.5885017460532
 40
38.645712857142854
 50
320.09889200001976
 51
2.7381819999698367
  0
ARC
  8
_0-0_0
  6
CONTINUOUS
 62
    7
 10
449.83961228196137
 20
1496.3100177460547
 40
756.28694142857148
 50
321.22349599996767
 51
321.51014600000917
  0
ARC
  8
_0-0_0
  6
CONTINUOUS
 62
    7
 10
992.06988085339253
 20
1055.2427723174842
 40
58.308221999999994
 50
312.70909200000233
 51
323.67643599999724
  0
ARC
  8
_0-0_0
  6
CONTINUOUS
 62
    7
 10
1044.7396748533938
 20
996.31297174605425
 40
20.757288857142846
 50
129.205335999981
 51
179.36845800000231
  0
ARC
  8
_0-0_0
  6
CONTINUOUS
 62
    7
 10
1035.1606722819633
 20
997.04832317462569
 40
11.188498285714278
 50
182.59509400001801
 51
233.40021299999529
  0
ARC
  8
_0-0_0
  6
CONTINUOUS
 62
    7
 10
1038.2057099962403
 20
996.73335574605517
 40
11.924633999999996
 50
151.4358260000125
 51
218.7495119999833
  0
ARC
  8
_0-0_0
  6
CONTINUOUS
 62
    7
 10
1048.1636811390999
 20
990.5296120317762
 40
23.646805714285705
 50
127.97382599998231
 51
149.77028399997945
  0
ARC
  8
_0-0_0
  6
CONTINUOUS
 62
    7
 10
673.86381342481036
 20
1359.079533174634
 40
501.85315971428571
 50
315.79445200001038
 51
317.77291199997848
  0
ARC
  8
_0-0_0
  6
CONTINUOUS
 62
    7
 10
1041.220877996253
 20
998.32870174605341
 40
9.4134574285714265
 50
139.84177099997169
 51
199.7673239999769
  0
ARC
  8
_0-0_0
  6
CONTINUOUS
 62
    7
 10
1045.5594505676636
 20
1009.6401203174828
 40
14.809927714285706
 50
209.66633099998
 51
227.56355700002669
  0
ARC
  8
_0-0_0
  6
CONTINUOUS
 62
    7
 10
1059.303500567672
 20
1029.8993011746243
 40
35.777993999999993
 50
229.21587600001538
 51
233.66331200000576
  0
ARC
  8
_0-0_0
  6
CONTINUOUS
 62
    7
 10
1364.8927251390996
 20
710.64924488891484
 40
442.44971828571414
 50
136.47130499998849
 51
138.40064200003059
  0
ARC
  8
_0-0_0
  6
CONTINUOUS
 62
    7
 10
1050.2980894248103
 20
1014.8160151746342
 40
13.428425142857138
 50
205.57810700002403
 51
232.37186000000023
  0
ARC
  8
_0-0_0
  6
CONTINUOUS
 62
    7
 10
1059.303500567672
 20
1029.8993011746243
 40
35.777993999999993
 50
229.21587600001538
 51
233.66331200000576
  0
ARC
  8
_0-0_0
  6
CONTINUOUS
 62
    7
 10
1069.4875799962392
 20
1031.0904023174844
 40
26.88911914285714
 50
210.61053599999954
 51
231.23176500000892
  0
ARC
  8
_0-0_0
  6
CONTINUOUS
 62
    7
 10
1072.5130791390911
 20
1029.8509351746252
 40
27.587581714285715
 50
204.27401900000254
 51
225.02071899998063
  0
ARC
  8
_0-0_0
  6
CONTINUOUS
 62
    7
 10
1072.680767996244
 20
1030.3702223174841
 40
22.12107085714285
 50
194.62839900001285
 51
229.07182699999237
  0
ARC
  8
_0-0_0
  6
CONTINUOUS
 62
    7
 10
1029.0360231390878
 20
1034.2955328889147
 40
24.189420857142849
 50
308.5285510000287
 51
339.11307299997969
  0
ARC
  8
_0-0_0
  6
CONTINUOUS
 62
    7
 10
1080.8277137105179
 20
1045.1960628889137
 40
34.431926571428562
 50
212.86139700000862
 51
230.35351199998013
  0
ARC
  8
_0-0_0
  6
CONTINUOUS
 62
    7
 10
1072.5130791390911
 20
1029.8509351746252
 40
27.587581714285715
 50
204.27401900000254
 51
225.02071899998063
  0
ARC
  8
_0-0_0
  6
CONTINUOUS
 62
    7
 10
1080.8277137105179
 20
1045.1960628889137
 40
34.431926571428562
 50
212.86139700000862
 51
230.35351199998013
  0
ARC
  8
_0-0_0
  6
CONTINUOUS
 62
    7
 10
1080.8277137105179
 20
1045.1960628889137
 40
34.431926571428562
 50
212.86139700000862
 51
230.35351199998013
  0
ARC
  8
_0-0_0
  6
CONTINUOUS
 62
    7
 10
1072.680767996244
 20
1030.3702223174841
 40
22.12107085714285
 50
194.62839900001285
 51
229.07182699999237
  0
ARC
  8
_0-0_0
  6
CONTINUOUS
 62
    7
 10
1072.680767996244
 20
1030.3702223174841
 40
22.12107085714285
 50
194.62839900001285
 51
229.07182699999237
  0
ARC
  8
_0-0_0
  6
CONTINUOUS
 62
    7
 10
992.06988085339253
 20
1055.2427723174842
 40
58.308221999999994
 50
312.70909200000233
 51
323.67643599999724
  0
ARC
  8
_0-0_0
  6
CONTINUOUS
 62
    7
 10
673.86381342481036
 20
1359.079533174634
 40
501.85315971428571
 50
315.79445200001038
 51
317.77291199997848
  0
ARC
  8
_0-0_0
  6
CONTINUOUS
 62
    7
 10
1056.1179102819515
 20
1015.1319760317747
 40
9.3958619999999975
 50
309.20520499996735
 51
39.493547000010018
  0
ARC
  8
_0-0_0
  6
CONTINUOUS
 62
    7
 10
1056.1179102819515
 20
1015.1319760317747
 40
9.3958619999999975
 50
309.20520499996735
 51
39.493547000010018
  0
ARC
  8
_0-0_0
  6
CONTINUOUS
 62
    7
 10
1057.3951268533783
 20
1017.9902268889127
 40
6.738047142857142
 50
298.85541899999419
 51
43.313822000005317
  0
ARC
  8
_0-0_0
  6
CONTINUOUS
 62
    7
 10
1056.5480417105209
 20
1017.3982463174834
 40
4.0661768571428567
 50
295.11337700001718
 51
46.52267900000377
  0
ARC
  8
_0-0_0
  6
CONTINUOUS
 62
    7
 10
1080.8277137105179
 20
1045.1960628889137
 40
34.431926571428562
 50
212.86139700000862
 51
230.35351199998013
  0
ARC
  8
_0-0_0
  6
CONTINUOUS
 62
    7
 10
1103.6967179962376
 20
1056.0315906031938
 40
53.204386285714271
 50
207.61697299998823
 51
218.912044000013
  0
ARC
  8
_0-0_0
  6
CONTINUOUS
 62
    7
 10
1092.7818977105271
 20
1049.010856031764
 40
44.09621657142857
 50
205.30548699997539
 51
219.178092999987
  0
ARC
  8
_0-0_0
  6
CONTINUOUS
 62
    7
 10
1014.1952339962518
 20
1076.5418877460543
 40
76.746007714285696
 50
295.38483599999267
 51
305.05362400001428
  0
ARC
  8
_0-0_0
  6
CONTINUOUS
 62
    7
 10
1014.1952339962518
 20
1076.5418877460543
 40
76.746007714285696
 50
295.38483599999267
 51
305.05362400001428
  0
ARC
  8
_0-0_0
  6
CONTINUOUS
 62
    7
 10
1068.9318711391024
 20
965.50011488891323
 40
47.076215999999988
 50
117.63530999999561
 51
143.40163800000602
  0
ARC
  8
_0-0_0
  6
CONTINUOUS
 62
    7
 10
1069.9525962819534
 20
955.88924888891415
 40
54.004341428571429
 50
113.95644000002081
 51
131.79893699998453
  0
ARC
  8
_0-0_0
  6
CONTINUOUS
 62
    7
 10
1033.8955114248092
 20
1046.3439246031958
 40
43.463227714285708
 50
288.97044099998431
 51
307.9878739999815
  0
ARC
  8
_0-0_0
  6
CONTINUOUS
 62
    7
 10
1042.2265782819522
 20
1030.3466277460539
 40
29.988166285714275
 50
287.59566100001609
 51
311.39725799996825
  0
ARC
  8
_0-0_0
  6
CONTINUOUS
 62
    7
 10
1079.3124239962417
 20
1040.5176134603462
 40
50.550040285714275
 50
232.60946899996259
 51
246.79861299998009
  0
ARC
  8
_0-0_0
  6
CONTINUOUS
 62
    7
 10
1102.3654885676733
 20
1087.549769746056
 40
107.40176657142848
 50
236.99057099999482
 51
243.46370499997454
  0
ARC
  8
_0-0_0
  6
CONTINUOUS
 62
    7
 10
1101.4665557105327
 20
1100.4520343174845
 40
121.33006285714279
 50
240.00325799997836
 51
245.77741800000916
  0
ARC
  8
_0-0_0
  6
CONTINUOUS
 62
    7
 10
1084.0621191391037
 20
936.17755346034392
 40
73.315369714285708
 50
116.5498150000024
 51
129.04500400001311
  0
ARC
  8
_0-0_0
  6
CONTINUOUS
 62
    7
 10
1059.2483991390982
 20
1015.1730177460558
 40
34.012320857142861
 50
225.8586460000042
 51
244.71832899996457
  0
ARC
  8
_0-0_0
  6
CONTINUOUS
 62
    7
 10
1046.0044199962431
 20
985.09404746034488
 40
12.076217142857137
 50
157.50205899997451
 51
230.2192579999776
  0
ARC
  8
_0-0_0
  6
CONTINUOUS
 62
    7
 10
1045.6799245676739
 20
983.11732003176439
 40
12.683677714285706
 50
127.9571869999799
 51
227.4749560000034
  0
ARC
  8
_0-0_0
  6
CONTINUOUS
 62
    7
 10
1044.2588948533812
 20
983.28949088891386
 40
16.476591428571432
 50
128.6970060000211
 51
238.37065100002346
  0
ARC
  8
_0-0_0
  6
CONTINUOUS
 62
    7
 10
1075.6865271390925
 20
1051.3579540317733
 40
78.754367142857134
 50
237.98807899998479
 51
244.25786499999111
  0
ARC
  8
_0-0_0
  6
CONTINUOUS
 62
    7
 10
1075.6865271390925
 20
1051.3579540317733
 40
78.754367142857134
 50
237.98807899998479
 51
244.25786499999111
  0
ARC
  8
_0-0_0
  6
CONTINUOUS
 62
    7
 10
1075.6865271390925
 20
1051.3579540317733
 40
78.754367142857134
 50
237.98807899998479
 51
244.25786499999111
  0
ARC
  8
_0-0_0
  6
CONTINUOUS
 62
    7
 10
1076.3513828533905
 20
952.74245117462488
 40
44.518520571428567
 50
114.39484999999929
 51
151.13823499999623
  0
ARC
  8
_0-0_0
  6
CONTINUOUS
 62
    7
 10
1089.1316031391034
 20
928.02096317463293
 40
65.323300285714282
 50
118.2920459999917
 51
130.96603599998511
  0
ARC
  8
_0-0_0
  6
CONTINUOUS
 62
    7
 10
1009.5954805676738
 20
1076.4959020317726
 40
100.05212228571418
 50
297.5463719999733
 51
307.98369399998938
  0
ARC
  8
_0-0_0
  6
CONTINUOUS
 62
    7
 10
1009.5954805676738
 20
1076.4959020317726
 40
100.05212228571418
 50
297.5463719999733
 51
307.98369399998938
  0
ARC
  8
_0-0_0
  6
CONTINUOUS
 62
    7
 10
928.41814456767327
 20
781.00030088891435
 40
259.56076114285702
 50
57.701144000001733
 51
59.829410999997116
  0
ARC
  8
_0-0_0
  6
CONTINUOUS
 62
    7
 10
928.41814456767327
 20
781.00030088891435
 40
259.56076114285702
 50
57.701144000001733
 51
59.829410999997116
  0
ARC
  8
_0-0_0
  6
CONTINUOUS
 62
    7
 10
1009.5954805676738
 20
1076.4959020317726
 40
100.05212228571418
 50
297.5463719999733
 51
307.98369399998938
  0
ARC
  8
_0-0_0
  6
CONTINUOUS
 62
    7
 10
1036.8615454248138
 20
1034.3188660317755
 40
46.140952285714278
 50
297.21639200002897
 51
305.76363600000491
  0
ARC
  8
_0-0_0
  6
CONTINUOUS
 62
    7
 10
1086.9124414248072
 20
1047.1026614603434
 40
49.64372057142856
 50
238.33688299997556
 51
245.57524399999829
  0
ARC
  8
_0-0_0
  6
CONTINUOUS
 62
    7
 10
1064.6880111391001
 20
996.96263031748458
 40
9.9844637142857131
 50
38.401580999989427
 51
72.870537000007801
  0
ARC
  8
_0-0_0
  6
CONTINUOUS
 62
    7
 10
1068.9364851390928
 20
1001.1053654603456
 40
4.1266551428571416
 50
302.7890070000164
 51
29.93537699999791
  0
ARC
  8
_0-0_0
  6
CONTINUOUS
 62
    7
 10
1066.442050281963
 20
996.60070946034466
 40
8.6315074285714282
 50
14.64001200000253
 51
19.545047000016389
  0
ARC
  8
_0-0_0
  6
CONTINUOUS
 62
    7
 10
1066.5741317105203
 20
1000.6359871746245
 40
8.7639711428571427
 50
295.49059500000823
 51
318.70635300001669
  0
ARC
  8
_0-0_0
  6
CONTINUOUS
 62
    7
 10
1019.4156488533918
 20
1065.1288711746236
 40
88.522213714285698
 50
295.96354399999137
 51
305.12329200001523
  0
ARC
  8
_0-0_0
  6
CONTINUOUS
 62
    7
 10
1019.4156488533918
 20
1065.1288711746236
 40
88.522213714285698
 50
295.96354399999137
 51
305.12329200001523
  0
ARC
  8
_0-0_0
  6
CONTINUOUS
 62
    7
 10
1089.1316031391034
 20
928.02096317463293
 40
65.323300285714282
 50
118.2920459999917
 51
130.96603599998511
  0
ARC
  8
_0-0_0
  6
CONTINUOUS
 62
    7
 10
1016.4423437105215
 20
910.63716574605496
 40
77.957015142857131
 50
57.60078200001923
 51
64.05196400003328
  0
ARC
  8
_0-0_0
  6
CONTINUOUS
 62
    7
 10
1033.4356422819619
 20
947.13317203176484
 40
33.00227828571429
 50
49.739039000019609
 51
66.790945000018709
  0
ARC
  8
_0-0_0
  6
CONTINUOUS
 62
    7
 10
1033.4356422819619
 20
947.13317203176484
 40
33.00227828571429
 50
49.739039000019609
 51
66.790945000018709
  0
ARC
  8
_0-0_0
  6
CONTINUOUS
 62
    7
 10
1079.6314671099608
 20
955.05958736557295
 40
30.266999930304511
 50
124.7315645941046
 51
173.28216208508789
  0
ARC
  8
_0-0_0
  6
CONTINUOUS
 62
    7
 10
1036.8261797105297
 20
955.67251774605393
 40
23.311456285714275
 50
42.17025000000784
 51
66.787167000015813
  0
ARC
  8
_0-0_0
  6
CONTINUOUS
 62
    7
 10
1027.1641619962393
 20
950.04394688891261
 40
26.75536114285714
 50
29.393353999984051
 51
55.088418999974401
  0
ARC
  8
_0-0_0
  6
CONTINUOUS
 62
    7
 10
1006.3701428533823
 20
939.08568660319361
 40
42.97121657142857
 50
357.22613400002592
 51
31.106341000003891
  0
ARC
  8
_0-0_0
  6
CONTINUOUS
 62
    7
 10
1006.3701428533823
 20
939.08568660319361
 40
42.97121657142857
 50
357.22613400002592
 51
31.106341000003891
  0
ARC
  8
_0-0_0
  6
CONTINUOUS
 62
    7
 10
1054.6470599962413
 20
967.34284946034313
 40
13.02551742857143
 50
129.82518899996219
 51
201.44970900003349
  0
ARC
  8
_0-0_0
  6
CONTINUOUS
 62
    7
 10
1078.7187925676699
 20
945.43005574605559
 40
48.12760714285713
 50
118.34844999997992
 51
145.29973399997542
  0
ARC
  8
_0-0_0
  6
CONTINUOUS
 62
    7
 10
1048.5260339962406
 20
965.07864574605264
 40
12.163329428571428
 50
140.42168199999119
 51
220.89065400001709
  0
ARC
  8
_0-0_0
  6
CONTINUOUS
 62
    7
 10
1048.5260339962406
 20
965.07864574605264
 40
12.163329428571428
 50
140.42168199999119
 51
220.89065400001709
  0
ARC
  8
_0-0_0
  6
CONTINUOUS
 62
    7
 10
1049.6293945676734
 20
967.13522031748289
 40
14.17143428571428
 50
149.95087500001461
 51
219.34226300002888
  0
ARC
  8
_0-0_0
  6
CONTINUOUS
 62
    7
 10
1006.3701428533823
 20
939.08568660319361
 40
42.97121657142857
 50
357.22613400002592
 51
31.106341000003891
  0
ARC
  8
_0-0_0
  6
CONTINUOUS
 62
    7
 10
1006.3701428533823
 20
939.08568660319361
 40
42.97121657142857
 50
357.22613400002592
 51
31.106341000003891
  0
ARC
  8
_0-0_0
  6
CONTINUOUS
 62
    7
 10
1013.7484825676729
 20
940.5291854603347
 40
30.603145714285716
 50
6.6105350000075891
 51
29.880766000008219
  0
ARC
  8
_0-0_0
  6
CONTINUOUS
 62
    7
 10
1013.7484825676729
 20
940.5291854603347
 40
30.603145714285716
 50
6.6105350000075891
 51
29.880766000008219
  0
ARC
  8
_0-0_0
  6
CONTINUOUS
 62
    7
 10
1013.7484825676729
 20
940.5291854603347
 40
30.603145714285716
 50
6.6105350000075891
 51
29.880766000008219
  0
ARC
  8
_0-0_0
  6
CONTINUOUS
 62
    7
 10
1013.7484825676729
 20
940.5291854603347
 40
30.603145714285716
 50
6.6105350000075891
 51
29.880766000008219
  0
ARC
  8
_0-0_0
  6
CONTINUOUS
 62
    7
 10
1013.7484825676729
 20
940.5291854603347
 40
30.603145714285716
 50
6.6105350000075891
 51
29.880766000008219
  0
ARC
  8
_0-0_0
  6
CONTINUOUS
 62
    7
 10
1013.7484825676729
 20
940.5291854603347
 40
30.603145714285716
 50
6.6105350000075891
 51
29.880766000008219
  0
ARC
  8
_0-0_0
  6
CONTINUOUS
 62
    7
 10
1013.7484825676729
 20
940.5291854603347
 40
30.603145714285716
 50
6.6105350000075891
 51
29.880766000008219
  0
ARC
  8
_0-0_0
  6
CONTINUOUS
 62
    7
 10
1013.7484825676729
 20
940.5291854603347
 40
30.603145714285716
 50
6.6105350000075891
 51
29.880766000008219
  0
ARC
  8
_0-0_0
  6
CONTINUOUS
 62
    7
 10
1013.7484825676729
 20
940.5291854603347
 40
30.603145714285716
 50
6.6105350000075891
 51
29.880766000008219
  0
ARC
  8
_0-0_0
  6
CONTINUOUS
 62
    7
 10
1006.3701428533823
 20
939.08568660319361
 40
42.97121657142857
 50
357.22613400002592
 51
31.106341000003891
  0
ARC
  8
_0-0_0
  6
CONTINUOUS
 62
    7
 10
1006.3701428533823
 20
939.08568660319361
 40
42.97121657142857
 50
357.22613400002592
 51
31.106341000003891
  0
ARC
  8
_0-0_0
  6
CONTINUOUS
 62
    7
 10
1006.3701428533823
 20
939.08568660319361
 40
42.97121657142857
 50
357.22613400002592
 51
31.106341000003891
  0
ARC
  8
_0-0_0
  6
CONTINUOUS
 62
    7
 10
1006.3701428533823
 20
939.08568660319361
 40
42.97121657142857
 50
357.22613400002592
 51
31.106341000003891
  0
ARC
  8
_0-0_0
  6
CONTINUOUS
 62
    7
 10
1006.3701428533823
 20
939.08568660319361
 40
42.97121657142857
 50
357.22613400002592
 51
31.106341000003891
  0
ARC
  8
_0-0_0
  6
CONTINUOUS
 62
    7
 10
1006.3701428533823
 20
939.08568660319361
 40
42.97121657142857
 50
357.22613400002592
 51
31.106341000003891
  0
ARC
  8
_0-0_0
  6
CONTINUOUS
 62
    7
 10
1006.3701428533823
 20
939.08568660319361
 40
42.97121657142857
 50
357.22613400002592
 51
31.106341000003891
  0
ARC
  8
_0-0_0
  6
CONTINUOUS
 62
    7
 10
1006.3701428533823
 20
939.08568660319361
 40
42.97121657142857
 50
357.22613400002592
 51
31.106341000003891
  0
ARC
  8
_0-0_0
  6
CONTINUOUS
 62
    7
 10
1013.7484825676729
 20
940.5291854603347
 40
30.603145714285716
 50
6.6105350000075891
 51
29.880766000008219
  0
ARC
  8
_0-0_0
  6
CONTINUOUS
 62
    7
 10
1013.7484825676729
 20
940.5291854603347
 40
30.603145714285716
 50
6.6105350000075891
 51
29.880766000008219
  0
LINE
  8
_0-0_0
  6
CONTINUOUS
 62
    7
 10
1044.1481588533934
 20
944.05221317462565
 11
1044.1481588533934
 21
937.00613203177272
  0
LINE
  8
_0-0_0
  6
CONTINUOUS
 62
    7
 10
1044.1481588533934
 20
944.05221317462565
 11
1044.1481588533934
 21
937.00613203177272
  0
LINE
  8
_0-0_0
  6
CONTINUOUS
 62
    7
 10
1044.1481588533934
 20
944.05221317462565
 11
1044.1481588533934
 21
937.00613203177272
  0
LINE
  8
_0-0_0
  6
CONTINUOUS
 62
    7
 10
1044.1481588533934
 20
944.05221317462565
 11
1044.1481588533934
 21
937.00613203177272
  0
LINE
  8
_0-0_0
  6
CONTINUOUS
 62
    7
 10
1044.1481588533934
 20
944.05221317462565
 11
1044.1481588533934
 21
937.00613203177272
  0
LINE
  8
_0-0_0
  6
CONTINUOUS
 62
    7
 10
1044.1481588533934
 20
944.05221317462565
 11
1044.1481588533934
 21
937.00613203177272
  0
ARC
  8
_0-0_0
  6
CONTINUOUS
 62
    7
 10
1006.3701428533823
 20
939.08568660319361
 40
42.97121657142857
 50
357.22613400002592
 51
31.106341000003891
  0
ARC
  8
_0-0_0
  6
CONTINUOUS
 62
    7
 10
1006.3701428533823
 20
939.08568660319361
 40
42.97121657142857
 50
357.22613400002592
 51
31.106341000003891
  0
ARC
  8
_0-0_0
  6
CONTINUOUS
 62
    7
 10
1006.3701428533823
 20
939.08568660319361
 40
42.97121657142857
 50
357.22613400002592
 51
31.106341000003891
  0
ARC
  8
_0-0_0
  6
CONTINUOUS
 62
    7
 10
1006.3701428533823
 20
939.08568660319361
 40
42.97121657142857
 50
357.22613400002592
 51
31.106341000003891
  0
ARC
  8
_0-0_0
  6
CONTINUOUS
 62
    7
 10
1006.3701428533823
 20
939.08568660319361
 40
42.97121657142857
 50
357.22613400002592
 51
31.106341000003891
  0
ARC
  8
_0-0_0
  6
CONTINUOUS
 62
    7
 10
1006.3701428533823
 20
939.08568660319361
 40
42.97121657142857
 50
357.22613400002592
 51
31.106341000003891
  0
ARC
  8
_0-0_0
  6
CONTINUOUS
 62
    7
 10
1006.3701428533823
 20
939.08568660319361
 40
42.97121657142857
 50
357.22613400002592
 51
31.106341000003891
  0
ARC
  8
_0-0_0
  6
CONTINUOUS
 62
    7
 10
1006.3701428533823
 20
939.08568660319361
 40
42.97121657142857
 50
357.22613400002592
 51
31.106341000003891
  0
ARC
  8
_0-0_0
  6
CONTINUOUS
 62
    7
 10
1006.3701428533823
 20
939.08568660319361
 40
42.97121657142857
 50
357.22613400002592
 51
31.106341000003891
  0
LINE
  8
_0-0_0
  6
CONTINUOUS
 62
    7
 10
1044.1481588533934
 20
944.05221317462565
 11
1044.1481588533934
 21
937.00613203177272
  0
LINE
  8
_0-0_0
  6
CONTINUOUS
 62
    7
 10
1044.1481588533934
 20
937.00613203177272
 11
1054.4338731391035
 21
937.00613203177272
  0
LINE
  8
_0-0_0
  6
CONTINUOUS
 62
    7
 10
1044.1481588533934
 20
937.00613203177272
 11
1054.4338731391035
 21
937.00613203177272
  0
LINE
  8
_0-0_0
  6
CONTINUOUS
 62
    7
 10
1044.1481588533934
 20
937.00613203177272
 11
1054.4338731391035
 21
937.00613203177272
  0
ARC
  8
_0-0_0
  6
CONTINUOUS
 62
    7
 10
1061.2722248533901
 20
982.79389003176402
 40
8.7828925714285706
 50
309.32164599999618
 51
25.328046000012201
  0
ARC
  8
_0-0_0
  6
CONTINUOUS
 62
    7
 10
1062.3207908533805
 20
983.34293203177367
 40
3.0091679999999981
 50
322.68469200003187
 51
41.694340000003017
  0
ARC
  8
_0-0_0
  6
CONTINUOUS
 62
    7
 10
1047.3371168533922
 20
1004.5288617460537
 40
28.834376571428567
 50
301.46351299998048
 51
307.05959599998823
  0
ARC
  8
_0-0_0
  6
CONTINUOUS
 62
    7
 10
1062.9990985676704
 20
982.28684460320437
 40
1.8790637142857138
 50
335.87348700000558
 51
65.554489000010193
  0
ARC
  8
_0-0_0
  6
CONTINUOUS
 62
    7
 10
1055.558098281952
 20
1008.3737106031949
 40
14.161069714285707
 50
305.73303699998178
 51
322.91454199999708
  0
ARC
  8
_0-0_0
  6
CONTINUOUS
 62
    7
 10
1065.7565759962381
 20
1000.6718757460549
 40
1.381127999999999
 50
322.6779170000159
 51
62.941155999977639
  0
ARC
  8
_0-0_0
  6
CONTINUOUS
 62
    7
 10
1085.7459308533798
 20
1039.9716974603434
 40
38.05660114285714
 50
234.01632399999843
 51
241.57168800001023
  0
ARC
  8
_0-0_0
  6
CONTINUOUS
 62
    7
 10
1086.9124414248072
 20
1047.1026614603434
 40
49.64372057142856
 50
238.33688299997556
 51
245.57524399999829
  0
ARC
  8
_0-0_0
  6
CONTINUOUS
 62
    7
 10
1072.5130791390911
 20
1029.8509351746252
 40
27.587581714285715
 50
241.2686460000196
 51
244.99817500002086
  0
ARC
  8
_0-0_0
  6
CONTINUOUS
 62
    7
 10
1072.680767996244
 20
1030.3702223174841
 40
22.12107085714285
 50
194.62839900001285
 51
229.07182699999237
  0
ARC
  8
_0-0_0
  6
CONTINUOUS
 62
    7
 10
1057.4943565676804
 20
1015.8185174603459
 40
3.1732859999999992
 50
15.678562999978681
 51
64.540615999974349
  0
ARC
  8
_0-0_0
  6
CONTINUOUS
 62
    7
 10
1080.8277137105179
 20
1045.1960628889137
 40
34.431926571428562
 50
212.86139700000862
 51
230.35351199998013
  0
ARC
  8
_0-0_0
  6
CONTINUOUS
 62
    7
 10
1103.6967179962376
 20
1056.0315906031938
 40
53.204386285714271
 50
207.61697299998823
 51
218.912044000013
  0
ARC
  8
_0-0_0
  6
CONTINUOUS
 62
    7
 10
1056.1179102819515
 20
1015.1319760317747
 40
9.3958619999999975
 50
309.20520499996735
 51
39.493547000010018
  0
ARC
  8
_0-0_0
  6
CONTINUOUS
 62
    7
 10
1063.3726928533797
 20
995.58839717462615
 40
11.862894857142859
 50
19.193116999985023
 51
38.908559000036661
  0
ARC
  8
_0-0_0
  6
CONTINUOUS
 62
    7
 10
1064.8721365676683
 20
1002.0384708889142
 40
10.968490285714278
 50
319.06909099998182
 51
332.2785120000018
  0
ARC
  8
_0-0_0
  6
CONTINUOUS
 62
    7
 10
1066.442050281963
 20
996.60070946034466
 40
8.6315074285714282
 50
14.64001200000253
 51
19.545047000016389
  0
ARC
  8
_0-0_0
  6
CONTINUOUS
 62
    7
 10
1049.8539668533776
 20
971.42580060319597
 40
24.565565142857139
 50
38.003975000011813
 51
48.73343699998798
  0
ARC
  8
_0-0_0
  6
CONTINUOUS
 62
    7
 10
1065.2435725676696
 20
1026.5686917460553
 40
8.5714285714285694
 50
219.17809299998706
 51
226.52262299996505
  0
ARC
  8
_0-0_0
  6
CONTINUOUS
 62
    7
 10
1046.11911599624
 20
1017.2912080317728
 40
8.5714285714285694
 50
141.22346399997821
 51
149.36172999996487
  0
ARC
  8
_0-0_0
  6
CONTINUOUS
 62
    7
 10
1044.1781297105335
 20
1012.9176820317734
 40
13.044829714285708
 50
219.86579700000422
 51
230.79725599999642
  0
ARC
  8
_0-0_0
  6
CONTINUOUS
 62
    7
 10
1072.3053754248103
 20
998.13236031748602
 40
2.5714285714285712
 50
332.27854000002992
 51
14.640091999998811
  0
ARC
  8
_0-0_0
  6
CONTINUOUS
 62
    7
 10
1067.6755482819572
 20
1035.4867120317649
 40
60.583942285714286
 50
236.14930999999083
 51
244.6493439999827
  0
ARC
  8
_0-0_0
  6
CONTINUOUS
 62
    7
 10
1044.5008199962394
 20
984.0822588889132
 40
16.38720857142857
 50
144.63437799999542
 51
158.27795400000213
  0
ARC
  8
_0-0_0
  6
CONTINUOUS
 62
    7
 10
1084.4813759962271
 20
945.9335954603448
 40
34.860488571428561
 50
120.40586700001171
 51
161.9964190000112
  0
ARC
  8
_0-0_0
  6
CONTINUOUS
 62
    7
 10
1094.6456811391035
 20
964.93790288891614
 40
29.232640285714275
 50
154.7751330000001
 51
167.94879199998769
  0
ARC
  8
_0-0_0
  6
CONTINUOUS
 62
    7
 10
1086.0075677105269
 20
944.27973488891439
 40
32.789523428571428
 50
128.9085919999975
 51
153.97665600000673
  0
ARC
  8
_0-0_0
  6
CONTINUOUS
 62
    7
 10
1063.4111974248226
 20
971.61912060319446
 40
2.7084445714285712
 50
317.65887500000389
 51
347.68110799998811
  0
ARC
  8
_0-0_0
  6
CONTINUOUS
 62
    7
 10
1186.4964308533818
 20
933.43460717462585
 40
137.25192085714281
 50
170.77711900002029
 51
178.50889299999841
  0
ARC
  8
_0-0_0
  6
CONTINUOUS
 62
    7
 10
1112.9014594248074
 20
950.11496631748378
 40
63.895116857142852
 50
172.36859400000549
 51
187.24096200002148
  0
ARC
  8
_0-0_0
  6
CONTINUOUS
 62
    7
 10
1150.1188551390878
 20
939.98808231748262
 40
95.731454571428543
 50
170.14558600001416
 51
181.78500699999776
  0
ARC
  8
_0-0_0
  6
CONTINUOUS
 62
    7
 10
1050.5014671391036
 20
965.71406031748484
 40
8.5714285714285694
 50
201.44970900003349
 51
211.10632599999701
  0
ARC
  8
_0-0_0
  6
CONTINUOUS
 62
    7
 10
1032.8513785676696
 20
951.50531203177525
 40
8.5714285714285694
 50
29.88074599997454
 51
40.890638000009062
  0
ARC
  8
_0-0_0
  6
CONTINUOUS
 62
    7
 10
1084.4111159962413
 20
942.2414568889144
 40
29.820487714285704
 50
140.078245999996
 51
168.27578000002649
  0
ARC
  8
_0-0_0
  6
CONTINUOUS
 62
    7
 10
1110.1875977105228
 20
938.83561688891496
 40
55.783733999999995
 50
170.23077200000418
 51
178.12058300001246
  0
LINE
  8
_0-0_0
  6
CONTINUOUS
 62
    7
 10
1054.4338731391035
 20
937.00613203177272
 11
1054.4338731391035
 21
940.66510174605355
  0
ARC
  8
_0-0_0
  6
CONTINUOUS
 62
    7
 10
1054.3638419962372
 20
967.65132917462324
 40
9.5321691428571391
 50
318.84708199998272
 51
4.8695189999738329
  0
ARC
  8
_0-0_0
  6
CONTINUOUS
 62
    7
 10
1064.244821139102
 20
954.90510917462598
 40
8.5714285714285694
 50
153.97665600000673
 51
170.14557199999342
  0
ARC
  8
_0-0_0
  6
CONTINUOUS
 62
    7
 10
1059.4795045676728
 20
954.05892660319296
 40
8.5714285714285694
 50
161.99644600003001
 51
170.7771320000094
  0
ARC
  8
_0-0_0
  6
CONTINUOUS
 62
    7
 10
1020.4608677105207
 20
948.92404774605529
 40
29.479129714285705
 50
12.65520700000291
 51
43.712900000037102
  0
ARC
  8
_0-0_0
  6
CONTINUOUS
 62
    7
 10
1049.6293945676734
 20
967.13522031748289
 40
14.17143428571428
 50
149.95087500001461
 51
213.64707399999392
  0
LINE
  8
_0-0_0
  6
CONTINUOUS
 62
    7
 10
1044.1481588533934
 20
937.00613203177272
 11
1054.4338731391035
 21
937.00613203177272
  0
ARC
  8
_0-0_0
  6
CONTINUOUS
 62
    7
 10
1057.1974414248107
 20
978.73429774605393
 40
9.9003042857142844
 50
41.887952000001995
 51
61.41094099998756
  0
ARC
  8
_0-0_0
  6
CONTINUOUS
 62
    7
 10
1047.2346111391016
 20
962.46676346034292
 40
27.151640571428565
 50
52.464824000011859
 51
61.814106999989178
  0
LINE
  8
_0-2_P-0000
  6
CONTINUOUS
 62
    7
 10
1043.2910159962412
 20
560.43472060319618
 11
1043.2910159962412
 21
925.0061448889137
  0
LINE
  8
_0-2_P-0000
  6
CONTINUOUS
 62
    7
 10
1055.2910159962412
 20
560.43472060319618
 11
1055.2910159962412
 21
925.0061448889137
  0
LINE
  8
_0-2_P-0000
  6
CONTINUOUS
 62
    7
 10
1043.2910159962412
 20
1242.720432746064
 11
1043.2910159962412
 21
1060.4346751746234
  0
LINE
  8
_0-2_P-0000
  6
CONTINUOUS
 62
    7
 10
1055.2910159962412
 20
1242.720432746064
 11
1055.2910159962412
 21
1060.4346751746234
  0
LINE
  8
_0-0_0
  6
CONTINUOUS
 62
    7
 10
1055.2910159962412
 20
1242.720432746064
 11
1043.2910159962412
 21
1242.720432746064
  0
LINE
  8
_0-2_P-0000
  6
CONTINUOUS
 62
    7
 10
1043.2910159962412
 20
242.72043274606403
 11
1043.2910159962412
 21
425.00613803176384
  0
LINE
  8
_0-2_P-0000
  6
CONTINUOUS
 62
    7
 10
1055.2910159962412
 20
242.72043274606403
 11
1055.2910159962412
 21
425.00613803176384
  0
LINE
  8
_0-0_0
  6
CONTINUOUS
 62
    7
 10
1055.2910159962412
 20
242.72043274606403
 11
1043.2910159962412
 21
242.72043274606403
  0
LINE
  8
_0-0_0
  6
CONTINUOUS
 62
    7
 10
1049.2910159962412
 20
1242.720432746064
 11
1049.2910159962412
 21
1060.4346751746234
  0
LINE
  8
_0-0_0
  6
CONTINUOUS
 62
    7
 10
1049.2910159962412
 20
560.43472060319618
 11
1049.2910159962412
 21
925.0061448889137
  0
LINE
  8
_0-0_0
  6
CONTINUOUS
 62
    7
 10
1049.2910159962412
 20
242.72043274606403
 11
1049.2910159962412
 21
425.00613803176384
  0
ENDSEC
  0
EOF
