  0
SECTION
  2
HEADER
  9
$ACADVER
  1
AC1009
  9
$INSBASE
 10
0
 20
0
 30
0
  9
$EXTMIN
 10
0
 20
0
  9
$EXTMAX
 10
2100
 20
1485
  9
$LIMMIN
 10
0
 20
0
  9
$LIMMAX
 10
2100
 20
1485
  9
$LTSCALE
 40
5
  0
ENDSEC
  0
SECTION
  2
TABLES
  0
TABLE
  2
LTYPE
 70
     9
  0
LTYPE
  2
CONTINUOUS
 70
    64
  3
実線
 72
    65
 73
     0
 40
0.0
  0
LTYPE
  2
DASHED1
 70
    64
  3
--  --  --  --  --  --  --  --  
 72
    65
 73
     2
 40
2.5
 49
1.25
 49
-1.25
  0
LTYPE
  2
DASHED2
 70
    64
  3
----    ----    ----    ----    
 72
    65
 73
     2
 40
5.0
 49
2.5
 49
-2.5
  0
LTYPE
  2
DASHED3
 70
    64
  3
------  ------  ------  ------  
 72
    65
 73
     2
 40
5.0
 49
3.75
 49
-1.25
  0
LTYPE
  2
CENTER1
 70
    64
  3
----- - ----- - ----- - ----- - 
 72
    65
 73
     4
 40
10.0
 49
6.25
 49
-1.25
 49
1.25
 49
-1.25
  0
LTYPE
  2
CENTER2
 70
    64
  3
----------  --  ----------  --  
 72
    65
 73
     4
 40
20.0
 49
12.5
 49
-2.5
 49
2.5
 49
-2.5
  0
LTYPE
  2
PHANTOM1
 70
    64
  3
--- - - --- - - --- - - --- - - 
 72
    65
 73
     6
 40
10.0
 49
3.25
 49
-1.25
 49
1.25
 49
-1.25
 49
1.25
 49
-1.25
  0
LTYPE
  2
PHANTOM2
 70
    64
  3
--------  -  -  --------  -  -  
 72
    65
 73
     6
 40
20.0
 49
10.0
 49
-2.5
 49
1.25
 49
-2.5
 49
1.25
 49
-2.5
  0
LTYPE
  2
DOT
 70
    64
  3
-   -   -   -   -   -   -   -   
 72
    65
 73
     2
 40
2.5
 49
0.625
 49
-1.875
  0
LTYPE
  2
DUMMY
 70
    64
  3
ダミー
 72
    65
 73
     0
 40
0.0
  0
LTYPE
  2
RAND1
 70
    64
  3
ランダム線1
 72
    65
 73
     4
 40
10.0
 49
1.0
 49
-2.0
 49
3.0
 49
-4.0
  0
LTYPE
  2
RAND2
 70
    64
  3
ランダム線2
 72
    65
 73
     4
 40
14.0
 49
2.0
 49
-3.0
 49
4.0
 49
-5.0
  0
LTYPE
  2
RAND3
 70
    64
  3
ランダム線3
 72
    65
 73
     4
 40
18.0
 49
3.0
 49
-4.0
 49
5.0
 49
-6.0
  0
LTYPE
  2
RAND4
 70
    64
  3
ランダム線4
 72
    65
 73
     4
 40
22.0
 49
4.0
 49
-5.0
 49
6.0
 49
-7.0
  0
LTYPE
  2
RAND5
 70
    64
  3
ランダム線5
 72
    65
 73
     4
 40
26.0
 49
5.0
 49
-6.0
 49
7.0
 49
-8.0
  0
LTYPE
  2
LONG1
 70
    64
  3
----------  --  ----------  --  
 72
    65
 73
     4
 40
40.0
 49
32.5
 49
-2.5
 49
2.5
 49
-2.5
  0
LTYPE
  2
LONG2
 70
    64
  3
--------  -  -  --------  -  -  
 72
    65
 73
     6
 40
40.0
 49
30.0
 49
-2.5
 49
1.25
 49
-2.5
 49
1.25
 49
-2.5
  0
LTYPE
  2
LONG3
 70
    64
  3
+++++++++++++++..+++++++++++++++
 72
    65
 73
     2
 40
40.0
 49
37.5
 49
-2.5
  0
LTYPE
  2
LONG4
 70
    64
  3
+++++++++++++++..+++++++++++++++
 72
    65
 73
     2
 40
80.0
 49
75.0
 49
-5.0
  0
LTYPE
  2
LONG5
 70
    64
  3
----------  --  ----------  --  
 72
    65
 73
     4
 40
60.0
 49
37.5
 49
-7.5
 49
7.5
 49
-7.5
  0
LTYPE
  2
dashed
 70
   64
  3
-------   -------------   ------
 72
   65
 73
    2
 40
7.5
 49
6
 49
-1.5
  0
LTYPE
  2
dashed_spaced
 70
   64
  3
----        --------        ----
 72
   65
 73
    2
 40
12
 49
6
 49
-6
  0
LTYPE
  2
long_dashed_dotted
 70
   64
  3
------------- --- --------------
 72
   65
 73
    4
 40
15.25
 49
12
 49
-1.5
 49
0.25
 49
-1.5
  0
LTYPE
  2
long_dashed_double-dotted
 70
   64
  3
----------- --- --- ------------
 72
   65
 73
    6
 40
17
 49
12
 49
-1.5
 49
0.25
 49
-1.5
 49
0.25
 49
-1.5
  0
LTYPE
  2
long_dashed_triplicate-dotted
 70
   64
  3
--------- --- --- --- ----------
 72
   65
 73
    8
 40
18.75
 49
12
 49
-1.5
 49
0.25
 49
-1.5
 49
0.25
 49
-1.5
 49
0.25
 49
-1.5
  0
LTYPE
  2
dotted
 70
   64
  3
   -       -       -       -    
 72
   65
 73
    2
 40
1.75
 49
0.25
 49
-1.5
  0
LTYPE
  2
chain
 70
   64
  3
-------------- -- --------------
 72
   65
 73
    4
 40
18.5
 49
12
 49
-1.5
 49
3.5
 49
-1.5
  0
LTYPE
  2
chain_double_dash
 70
   64
  3
------------ -- -- -------------
 72
   65
 73
    6
 40
23.5
 49
12
 49
-1.5
 49
3.5
 49
-1.5
 49
3.5
 49
-1.5
  0
LTYPE
  2
dashed_dotted
 70
   64
  3
-----------     -     ----------
 72
   65
 73
    4
 40
9.25
 49
6
 49
-1.5
 49
0.25
 49
-1.5
  0
LTYPE
  2
double-dashed_dotted
 70
   64
  3
------   -----------   -   -----
 72
   65
 73
    6
 40
16.75
 49
6
 49
-1.5
 49
6
 49
-1.5
 49
0.25
 49
-1.5
  0
LTYPE
  2
dashed_double-dotted
 70
   64
  3
---------    -    -    ---------
 72
   65
 73
    6
 40
11
 49
6
 49
-1.5
 49
0.25
 49
-1.5
 49
0.25
 49
-1.5
  0
LTYPE
  2
double-dashed_double-dotted
 70
   64
  3
-----   ---------   -   -   ----
 72
   65
 73
    8
 40
18.5
 49
6
 49
-1.5
 49
6
 49
-1.5
 49
0.25
 49
-1.5
 49
0.25
 49
-1.5
  0
LTYPE
  2
dashed_triplicate-dotted
 70
   64
  3
-------    -    -    -    ------
 72
   65
 73
    8
 40
12.75
 49
6
 49
-1.5
 49
0.25
 49
-1.5
 49
0.25
 49
-1.5
 49
0.25
 49
-1.5
  0
LTYPE
  2
double-dashed_triplicate-dotted
 70
   64
  3
-----  ---------  -  -  -  -----
 72
   65
 73
   10
 40
20.25
 49
6
 49
-1.5
 49
6
 49
-1.5
 49
0.25
 49
-1.5
 49
0.25
 49
-1.5
 49
0.25
 49
-1.5
  0
LTYPE
  2
undefined
 70
   64
  3
--------------------------------
 72
   65
 73
    0
 40
0
  0
LTYPE
  2
BORDER
 70
   64
  3
----     --------     -     ----
 72
   65
 73
    6
 40
1.76
 49
0.5
 49
-0.25
 49
0.5
 49
-0.25
 49
0.01
 49
-0.25
  0
LTYPE
  2
BORDER2
 70
   64
  3
----     --------     -     ----
 72
   65
 73
    6
 40
0.885
 49
0.25
 49
-0.125
 49
0.25
 49
-0.125
 49
0.01
 49
-0.125
  0
LTYPE
  2
BORDERX2
 70
   64
  3
----     --------     -     ----
 72
   65
 73
    6
 40
3.5099999999999998
 49
1
 49
-0.5
 49
1
 49
-0.5
 49
0.01
 49
-0.5
  0
LTYPE
  2
CENTER
 70
   64
  3
----------    ----    ----------
 72
   65
 73
    4
 40
2
 49
1.25
 49
-0.25
 49
0.25
 49
-0.25
  0
LTYPE
  2
CENTER2_21
 70
   64
  3
----------    ----    ----------
 72
   65
 73
    4
 40
1.125
 49
0.75
 49
-0.125
 49
0.125
 49
-0.125
  0
LTYPE
  2
CENTERX2
 70
   64
  3
----------    ----    ----------
 72
   65
 73
    4
 40
4
 49
2.5
 49
-0.5
 49
0.5
 49
-0.5
  0
LTYPE
  2
DASHDOT
 70
   64
  3
--------        -        -------
 72
   65
 73
    4
 40
1.01
 49
0.5
 49
-0.25
 49
0.01
 49
-0.25
  0
LTYPE
  2
DASHDOT2
 70
   64
  3
--------        -        -------
 72
   65
 73
    4
 40
0.51
 49
0.25
 49
-0.125
 49
0.01
 49
-0.125
  0
LTYPE
  2
DASHDOTX2
 70
   64
  3
--------        -        -------
 72
   65
 73
    4
 40
2.0099999999999998
 49
1
 49
-0.5
 49
0.01
 49
-0.5
  0
LTYPE
  2
DASHED
 70
   64
  3
------     -----------     -----
 72
   65
 73
    2
 40
0.75
 49
0.5
 49
-0.25
  0
LTYPE
  2
DASHED2_27
 70
   64
  3
------     -----------     -----
 72
   65
 73
    2
 40
0.375
 49
0.25
 49
-0.125
  0
LTYPE
  2
DASHEDX2
 70
   64
  3
------     -----------     -----
 72
   65
 73
    2
 40
1.5
 49
1
 49
-0.5
  0
LTYPE
  2
DIVIDE
 70
   64
  3
------      -      -      ------
 72
   65
 73
    6
 40
1.27
 49
0.5
 49
-0.25
 49
0.01
 49
-0.25
 49
0.01
 49
-0.25
  0
LTYPE
  2
DIVIDE2
 70
   64
  3
------      -      -      ------
 72
   65
 73
    6
 40
0.645
 49
0.25
 49
-0.125
 49
0.01
 49
-0.125
 49
0.01
 49
-0.125
  0
LTYPE
  2
DIVIDEX2
 70
   64
  3
------      -      -      ------
 72
   65
 73
    6
 40
2.5199999999999996
 49
1
 49
-0.5
 49
0.01
 49
-0.5
 49
0.01
 49
-0.5
  0
LTYPE
  2
DOT_32
 70
   64
  3
-               -               
 72
   65
 73
    2
 40
0.26
 49
0.01
 49
-0.25
  0
ENDTAB
  0
TABLE
  2
STYLE
  5
3
100
AcDbSymbolTable
 70
     1
  0
STYLE
  5
10
100
AcDbSymbolTableRecord
100
AcDbTextStyleTableRecord
  2
STANDARD
 70
     0
 40
0.0
 41
1.0
 50
0.0
 71
     0
 42
0.2
  3
txt
  4
bigfont.shx
  0
STYLE
  5
26
100
AcDbSymbolTableRecord
100
AcDbTextStyleTableRecord
  2
TATEGAKI
 70
    68
 40
0.0
 41
1.0
 50
0.0
 71
     0
 42
1.0
  3
txt
  4
bigfont.shx
  0
ENDTAB
  0
TABLE
  2
LAYER
 70
    3
  0
LAYER
  2
_0-0_0
 70
   64
 62
    7
  6
CONTINUOUS
  0
LAYER
  2
_0-1_P-0000
 70
   64
 62
    7
  6
CONTINUOUS
  0
LAYER
  2
ADD_LINE
 70
   64
 62
    7
  6
CONTINUOUS
  0
ENDTAB
  0
ENDSEC
  0
SECTION
  2
BLOCKS
  0
ENDSEC
  0
SECTION
  2
ENTITIES
  0
ARC
  8
_0-0_0
  6
CONTINUOUS
 62
    7
 10
1096.6907319258685
 20
991.09018476276322
 40
54.032810211181641
 50
149.0072021484375
 51
176.48861694335937
  0
ARC
  8
_0-0_0
  6
CONTINUOUS
 62
    7
 10
1054.0739097874398
 20
991.22958905963833
 40
11.75018310546875
 50
164.34902954101568
 51
202.38137817382812
  0
ARC
  8
_0-0_0
  6
CONTINUOUS
 62
    7
 10
1079.2955273818011
 20
985.57553632526322
 40
37.586616516113274
 50
158.38700866699222
 51
166.42228698730472
  0
ARC
  8
_0-0_0
  6
CONTINUOUS
 62
    7
 10
1076.4074658583636
 20
988.04074628620072
 40
34.015766143798828
 50
138.42701721191406
 51
160.45608520507804
  0
LINE
  8
_0-0_0
  6
CONTINUOUS
 62
    7
 10
1044.2332114409442
 20
944.5265861299506
 11
1043.7290009688372
 21
946.0372062471381
  0
ARC
  8
_0-0_0
  6
CONTINUOUS
 62
    7
 10
1015.7435921858782
 20
1126.3609367158881
 40
47.126976013183594
 50
318.35401916503906
 51
329.09201049804687
  0
ARC
  8
_0-0_0
  6
CONTINUOUS
 62
    7
 10
1076.4074658583636
 20
1072.4717765596383
 40
34.015766143798828
 50
138.42686462402344
 51
160.45588684082031
  0
ARC
  8
_0-0_0
  6
CONTINUOUS
 62
    7
 10
1079.2955273818011
 20
1070.0066886690133
 40
37.586616516113274
 50
158.38700866699222
 51
166.42228698730472
  0
ARC
  8
_0-0_0
  6
CONTINUOUS
 62
    7
 10
1096.6907319258685
 20
1075.5213371065131
 40
54.032810211181641
 50
149.0072021484375
 51
176.48861694335937
  0
ARC
  8
_0-0_0
  6
CONTINUOUS
 62
    7
 10
1012.6443490218157
 20
1125.8002677705756
 40
43.904979705810547
 50
329.23858642578125
 51
6.2245025634765616
  0
ARC
  8
_0-0_0
  6
CONTINUOUS
 62
    7
 10
1023.1557625960345
 20
1116.4878898408881
 40
35.999374389648438
 50
336.5355224609375
 51
23.011581420898459
  0
ARC
  8
_0-0_0
  6
CONTINUOUS
 62
    7
 10
1067.6395835112567
 20
1094.8226066377633
 40
24.843418121337887
 50
131.68721008300781
 51
197.60308837890625
  0
ARC
  8
_0-0_0
  6
CONTINUOUS
 62
    7
 10
1054.0739097874398
 20
1075.6607414033883
 40
11.75018310546875
 50
164.34902954101568
 51
202.38137817382812
  0
ARC
  8
_0-0_0
  6
CONTINUOUS
 62
    7
 10
1072.5361890028948
 20
944.78244550495083
 40
28.304128646850586
 50
142.27906799316409
 51
183.68069458007813
  0
ARC
  8
_0-0_0
  6
CONTINUOUS
 62
    7
 10
1241.2143525313372
 20
1009.2603507783883
 40
207.34469604492187
 50
197.74537658691409
 51
198.22492980957034
  0
ARC
  8
_0-0_0
  6
CONTINUOUS
 62
    7
 10
1015.7435921858782
 20
1098.2153068330758
 40
47.126976013183594
 50
318.35401916503906
 51
329.09201049804687
  0
ARC
  8
_0-0_0
  6
CONTINUOUS
 62
    7
 10
1076.4074658583636
 20
1044.3262534883493
 40
34.015766143798828
 50
138.42701721191406
 51
160.45626831054685
  0
ARC
  8
_0-0_0
  6
CONTINUOUS
 62
    7
 10
1079.2955273818011
 20
1041.8610435274118
 40
37.586616516113274
 50
158.38717651367188
 51
166.42247009277341
  0
ARC
  8
_0-0_0
  6
CONTINUOUS
 62
    7
 10
1096.6907319258685
 20
1047.3757072237006
 40
54.032810211181641
 50
149.0072021484375
 51
176.48875427246094
  0
ARC
  8
_0-0_0
  6
CONTINUOUS
 62
    7
 10
1012.6443490218157
 20
1097.6546378877633
 40
43.904979705810547
 50
329.23858642578125
 51
6.2245025634765616
  0
ARC
  8
_0-0_0
  6
CONTINUOUS
 62
    7
 10
1023.1557625960345
 20
1088.3421378877633
 40
35.999374389648438
 50
336.53570556640625
 51
23.011749267578274
  0
ARC
  8
_0-0_0
  6
CONTINUOUS
 62
    7
 10
1029.2290047835345
 20
1101.1900382783883
 40
27.089162826538082
 50
323.90130615234375
 51
2.5917968750000133
  0
ARC
  8
_0-0_0
  6
CONTINUOUS
 62
    7
 10
1067.6395835112567
 20
1066.6769767549508
 40
24.843418121337887
 50
131.68721008300781
 51
197.60336303710937
  0
ARC
  8
_0-0_0
  6
CONTINUOUS
 62
    7
 10
1054.0739097874398
 20
1047.5149894502633
 40
11.75018310546875
 50
164.34902954101568
 51
201.83665466308594
  0
ARC
  8
_0-0_0
  6
CONTINUOUS
 62
    7
 10
1015.6314095686907
 20
1069.8083244112008
 40
47.126976013183594
 50
318.3541259765625
 51
329.09213256835937
  0
ARC
  8
_0-0_0
  6
CONTINUOUS
 62
    7
 10
1076.2952832411761
 20
1015.9192863252632
 40
34.015766143798828
 50
138.42686462402344
 51
160.45626831054685
  0
ARC
  8
_0-0_0
  6
CONTINUOUS
 62
    7
 10
1079.1833466719622
 20
1013.4540763643257
 40
37.586616516113274
 50
158.38717651367188
 51
166.42247009277341
  0
ARC
  8
_0-0_0
  6
CONTINUOUS
 62
    7
 10
1096.578549308681
 20
1018.9688468721383
 40
54.032810211181641
 50
149.00732421875003
 51
176.48889160156253
  0
ARC
  8
_0-0_0
  6
CONTINUOUS
 62
    7
 10
1012.5321664046282
 20
1069.2476554658883
 40
43.904979705810547
 50
329.23858642578125
 51
6.2246551513671884
  0
ARC
  8
_0-0_0
  6
CONTINUOUS
 62
    7
 10
1023.0435189436907
 20
1059.9352775362008
 40
35.999374389648438
 50
336.53573608398437
 51
23.011718750000004
  0
ARC
  8
_0-0_0
  6
CONTINUOUS
 62
    7
 10
1029.116822166347
 20
1072.7830558565133
 40
27.089162826538082
 50
323.90130615234375
 51
2.5920562744140767
  0
ARC
  8
_0-0_0
  6
CONTINUOUS
 62
    7
 10
1067.5274008940692
 20
1038.2699943330758
 40
24.843418121337887
 50
131.68721008300781
 51
197.60308837890625
  0
ARC
  8
_0-0_0
  6
CONTINUOUS
 62
    7
 10
1053.9617277811999
 20
1019.1081290987008
 40
11.75018310546875
 50
164.34959411621099
 51
202.38137817382812
  0
ARC
  8
_0-0_0
  6
CONTINUOUS
 62
    7
 10
1052.6023527811999
 20
1061.6972404268258
 40
10.748529434204102
 50
154.24179077148437
 51
155.74613952636719
  0
ARC
  8
_0-0_0
  6
CONTINUOUS
 62
    7
 10
1015.7435921858782
 20
1041.9297843721381
 40
47.126976013183594
 50
318.35401916503906
 51
329.09201049804687
  0
ARC
  8
_0-0_0
  6
CONTINUOUS
 62
    7
 10
1012.6443490218157
 20
1041.3692374971381
 40
43.904979705810547
 50
329.2384490966798
 51
6.2245025634766575
  0
ARC
  8
_0-0_0
  6
CONTINUOUS
 62
    7
 10
1023.1557625960345
 20
1032.0567374971381
 40
35.999374389648438
 50
336.5355224609375
 51
23.011749267578153
  0
ARC
  8
_0-0_0
  6
CONTINUOUS
 62
    7
 10
1029.2290047835345
 20
1044.9046226289743
 40
27.089162826538082
 50
323.90109252929687
 51
2.5917968749999942
  0
ARC
  8
_0-0_0
  6
CONTINUOUS
 62
    7
 10
1067.6395835112567
 20
1010.3914542940131
 40
24.843418121337887
 50
131.68721008300781
 51
197.60308837890625
  0
ARC
  8
_0-0_0
  6
CONTINUOUS
 62
    7
 10
1015.6314095686907
 20
1013.5228019502632
 40
47.126976013183594
 50
318.3541259765625
 51
329.09213256835937
  0
ARC
  8
_0-0_0
  6
CONTINUOUS
 62
    7
 10
1076.2952832411761
 20
959.63376386432572
 40
34.015766143798828
 50
138.42686462402344
 51
160.45608520507812
  0
ARC
  8
_0-0_0
  6
CONTINUOUS
 62
    7
 10
1079.1833466719622
 20
957.16867597370083
 40
37.586616516113274
 50
158.38717651367188
 51
166.42247009277341
  0
ARC
  8
_0-0_0
  6
CONTINUOUS
 62
    7
 10
1096.578549308681
 20
962.6833244112006
 40
54.032810211181641
 50
149.0072021484375
 51
176.48875427246094
  0
ARC
  8
_0-0_0
  6
CONTINUOUS
 62
    7
 10
1012.5321664046282
 20
1012.9622550752631
 40
43.904979705810547
 50
329.23858642578125
 51
6.2245025634765616
  0
ARC
  8
_0-0_0
  6
CONTINUOUS
 62
    7
 10
1023.0435189436907
 20
1003.6497550752632
 40
35.999374389648438
 50
336.53573608398437
 51
23.011718750000004
  0
ARC
  8
_0-0_0
  6
CONTINUOUS
 62
    7
 10
1029.116822166347
 20
1016.4976554658882
 40
27.089162826538082
 50
323.90109252929687
 51
2.5917968749999942
  0
ARC
  8
_0-0_0
  6
CONTINUOUS
 62
    7
 10
1052.6023527811999
 20
1005.4118400362008
 40
10.748529434204102
 50
154.24179077148437
 51
155.74613952636719
  0
ARC
  8
_0-0_0
  6
CONTINUOUS
 62
    7
 10
1012.4199227522845
 20
984.5552726533881
 40
43.904979705810547
 50
329.2384490966798
 51
6.2245025634766575
  0
ARC
  8
_0-0_0
  6
CONTINUOUS
 62
    7
 10
1022.9313363265032
 20
975.24277265338822
 40
35.999374389648438
 50
336.53573608398437
 51
23.011749267578125
  0
ARC
  8
_0-0_0
  6
CONTINUOUS
 62
    7
 10
1029.0046395491595
 20
988.09067304401322
 40
27.089162826538082
 50
323.90100097656261
 51
2.5917968750001403
  0
ARC
  8
_0-0_0
  6
CONTINUOUS
 62
    7
 10
1067.4151581953997
 20
953.5774894502631
 40
24.843418121337887
 50
131.68721008300781
 51
197.60313415527344
  0
ARC
  8
_0-0_0
  6
CONTINUOUS
 62
    7
 10
1079.202193183803
 20
1126.312261178779
 40
37.586616516113274
 50
158.38717651367188
 51
166.42247009277341
  0
ARC
  8
_0-0_0
  6
CONTINUOUS
 62
    7
 10
1053.980574963593
 20
1131.966313913154
 40
11.75018310546875
 50
164.34959411621099
 51
202.38137817382812
  0
ARC
  8
_0-0_0
  6
CONTINUOUS
 62
    7
 10
1015.7624406050677
 20
1154.7879691865912
 40
47.126976013183594
 50
318.35401916503906
 51
329.09201049804687
  0
ARC
  8
_0-0_0
  6
CONTINUOUS
 62
    7
 10
1076.426314277553
 20
1100.898931100654
 40
34.015766143798828
 50
138.42701721191406
 51
160.45608520507804
  0
ARC
  8
_0-0_0
  6
CONTINUOUS
 62
    7
 10
1079.3143758009905
 20
1098.4337211397165
 40
37.586616516113274
 50
158.38700866699222
 51
166.42228698730472
  0
ARC
  8
_0-0_0
  6
CONTINUOUS
 62
    7
 10
1096.7095765303607
 20
1103.9483695772162
 40
54.032810211181641
 50
149.0072021484375
 51
176.48861694335937
  0
ARC
  8
_0-0_0
  6
CONTINUOUS
 62
    7
 10
1067.6584309767718
 20
1123.2496391084665
 40
24.843418121337887
 50
131.68721008300781
 51
197.60308837890625
  0
ARC
  8
_0-0_0
  6
CONTINUOUS
 62
    7
 10
1054.0927569549317
 20
1104.0877738740915
 40
11.75018310546875
 50
164.34902954101568
 51
202.38137817382812
  0
ARC
  8
_0-0_0
  6
CONTINUOUS
 62
    7
 10
1015.6502579878802
 20
1126.3809867647162
 40
47.126976013183594
 50
318.3541259765625
 51
329.09213256835937
  0
ARC
  8
_0-0_0
  6
CONTINUOUS
 62
    7
 10
1029.1356686781878
 20
1129.3558402803415
 40
27.089162826538082
 50
323.90109252929687
 51
2.5917968749999942
  0
ARC
  8
_0-0_0
  6
CONTINUOUS
 62
    7
 10
1052.6212000082965
 20
1118.270024850654
 40
10.748529434204102
 50
154.24179077148437
 51
155.74613952636719
  0
ARC
  8
_0-0_0
  6
CONTINUOUS
 62
    7
 10
1052.5090169142718
 20
1089.8629203584665
 40
10.748529434204102
 50
154.2413330078125
 51
155.74554443359381
  0
ARC
  8
_0-0_0
  6
CONTINUOUS
 62
    7
 10
1076.3141316603655
 20
1128.7774711397162
 40
34.015766143798828
 50
155.35496520996097
 51
160.45626831054687
  0
ARC
  8
_0-0_0
  6
CONTINUOUS
 62
    7
 10
1029.2478512953753
 20
1157.7628227022165
 40
27.089162826538082
 50
323.90109252929687
 51
326.88105773925781
  0
ARC
  8
_0-0_0
  6
CONTINUOUS
 62
    7
 10
1012.6631974410052
 20
1154.2274223115915
 40
43.904979705810547
 50
329.2384490966798
 51
345.13221740722668
  0
ARC
  8
_0-0_0
  6
CONTINUOUS
 62
    7
 10
1039.2023009490008
 20
1136.7611747529977
 40
18.178379058837891
 50
340.05653381347656
 51
19.944122314453114
  0
ARC
  8
_0-0_0
  6
CONTINUOUS
 62
    7
 10
1095.2076577376361
 20
1128.3113151338571
 40
52.983028411865227
 50
163.94772338867187
 51
172.59910583496094
  0
ARC
  8
_0-0_0
  6
CONTINUOUS
 62
    7
 10
1015.5191836850815
 20
985.11556967708134
 40
47.126976013183594
 50
318.35401916503906
 51
329.09201049804687
  0
ARC
  8
_0-0_0
  6
CONTINUOUS
 62
    7
 10
1076.1830573575669
 20
931.22640952083111
 40
34.015766143798828
 50
138.42686462402344
 51
160.45588684082031
  0
ARC
  8
_0-0_0
  6
CONTINUOUS
 62
    7
 10
1079.0711188810044
 20
928.76132163020634
 40
37.586616516113274
 50
158.38700866699222
 51
166.42228698730472
  0
ARC
  8
_0-0_0
  6
CONTINUOUS
 62
    7
 10
1012.419940521019
 20
984.55490073176884
 40
43.904979705810547
 50
329.23858642578125
 51
6.2245025634765616
  0
ARC
  8
_0-0_0
  6
CONTINUOUS
 62
    7
 10
1022.9313540952378
 20
975.24252280208134
 40
35.999374389648438
 50
336.5355224609375
 51
23.011581420898459
  0
ARC
  8
_0-0_0
  6
CONTINUOUS
 62
    7
 10
1067.41517501046
 20
953.57723959895623
 40
24.843418121337887
 50
131.68721008300781
 51
197.60308837890625
  0
ARC
  8
_0-0_0
  6
CONTINUOUS
 62
    7
 10
1053.8495012866431
 20
934.41537436458123
 40
11.75018310546875
 50
164.34902954101568
 51
202.38137817382812
  0
ARC
  8
_0-0_0
  6
CONTINUOUS
 62
    7
 10
1015.5191836850815
 20
956.96993979426884
 40
47.126976013183594
 50
318.35401916503906
 51
329.09201049804687
  0
ARC
  8
_0-0_0
  6
CONTINUOUS
 62
    7
 10
1076.1830573575669
 20
903.08088644954228
 40
34.015766143798828
 50
138.42701721191406
 51
160.45626831054685
  0
ARC
  8
_0-0_0
  6
CONTINUOUS
 62
    7
 10
1079.0711188810044
 20
900.61567648860455
 40
37.586616516113274
 50
158.38717651367188
 51
166.42247009277341
  0
ARC
  8
_0-0_0
  6
CONTINUOUS
 62
    7
 10
1096.4663234250718
 20
906.13034018489373
 40
54.032810211181641
 50
149.0072021484375
 51
176.48875427246094
  0
ARC
  8
_0-0_0
  6
CONTINUOUS
 62
    7
 10
1012.419940521019
 20
956.40927084895623
 40
43.904979705810547
 50
329.23858642578125
 51
6.2245025634765616
  0
ARC
  8
_0-0_0
  6
CONTINUOUS
 62
    7
 10
1022.9313540952378
 20
947.09677084895611
 40
35.999374389648438
 50
336.53570556640625
 51
23.011749267578274
  0
ARC
  8
_0-0_0
  6
CONTINUOUS
 62
    7
 10
1029.0045962827378
 20
959.94467123958111
 40
27.089162826538082
 50
323.90130615234375
 51
2.5917968750000133
  0
ARC
  8
_0-0_0
  6
CONTINUOUS
 62
    7
 10
1067.41517501046
 20
925.43160971614384
 40
24.843418121337887
 50
131.68721008300781
 51
197.60336303710937
  0
ARC
  8
_0-0_0
  6
CONTINUOUS
 62
    7
 10
1022.819110442894
 20
918.68991049739384
 40
35.999374389648438
 50
336.53573608398437
 51
23.011718750000004
  0
ARC
  8
_0-0_0
  6
CONTINUOUS
 62
    7
 10
1028.8924136655503
 20
931.53768881770611
 40
27.089162826538082
 50
323.90130615234375
 51
2.5920562744140767
  0
ARC
  8
_0-0_0
  6
CONTINUOUS
 62
    7
 10
1052.3779442804032
 20
920.45187338801884
 40
10.748529434204102
 50
154.24179077148437
 51
155.74613952636719
  0
ARC
  8
_0-0_0
  6
CONTINUOUS
 62
    7
 10
1067.4340224759751
 20
982.00427206965946
 40
24.843418121337887
 50
131.68721008300781
 51
197.60308837890625
  0
ARC
  8
_0-0_0
  6
CONTINUOUS
 62
    7
 10
1053.868348454135
 20
962.84240683528435
 40
11.75018310546875
 50
164.34902954101568
 51
202.38137817382812
  0
ARC
  8
_0-0_0
  6
CONTINUOUS
 62
    7
 10
1052.3967915074998
 20
977.02465781184685
 40
10.748529434204102
 50
154.24179077148437
 51
155.74613952636719
  0
ARC
  8
_0-0_0
  6
CONTINUOUS
 62
    7
 10
1052.2846084134751
 20
948.61755331965935
 40
10.748529434204102
 50
154.2413330078125
 51
155.74554443359381
  0
ARC
  8
_0-0_0
  6
CONTINUOUS
 62
    7
 10
1029.0234427945786
 20
1016.5174556634095
 40
27.089162826538082
 50
323.90109252929687
 51
326.88105773925781
  0
ARC
  8
_0-0_0
  6
CONTINUOUS
 62
    7
 10
1053.8495012866431
 20
906.26962241145634
 40
11.75018310546875
 50
164.34902954101568
 51
219.88048162936457
  0
ARC
  8
_0-0_0
  6
CONTINUOUS
 62
    7
 10
1067.3029923932725
 20
897.02462729426884
 40
24.843418121337887
 50
131.68721008300781
 51
168.68507960840455
  0
ARC
  8
_0-0_0
  6
CONTINUOUS
 62
    7
 10
1012.3077579038315
 20
928.00228842708123
 40
43.904979705810547
 50
318.01825320150169
 51
6.2246551513671751
  0
ARC
  8
_0-0_0
  6
CONTINUOUS
 62
    7
 10
1015.407001067894
 20
928.56295737239384
 40
47.126976013183594
 50
317.4902660354133
 51
329.09213256835937
  0
ARC
  8
_0-0_0
  6
CONTINUOUS
 62
    7
 10
1096.6907319258685
 20
494.83357501899195
 40
54.032810211181641
 50
183.51138305664062
 51
210.9927978515625
  0
ARC
  8
_0-0_0
  6
CONTINUOUS
 62
    7
 10
1054.0739097874398
 20
494.69417072211684
 40
11.75018310546875
 50
157.61862182617187
 51
195.65097045898435
  0
ARC
  8
_0-0_0
  6
CONTINUOUS
 62
    7
 10
1079.2955273818011
 20
500.34822345649189
 40
37.586616516113274
 50
193.57771301269528
 51
201.61299133300778
  0
ARC
  8
_0-0_0
  6
CONTINUOUS
 62
    7
 10
1076.4074658583636
 20
497.88301349555439
 40
34.015766143798828
 50
199.5439147949219
 51
221.57298278808594
  0
LINE
  8
_0-0_0
  6
CONTINUOUS
 62
    7
 10
1044.2332114409442
 20
541.39717365180445
 11
1043.7290009688372
 21
539.88655353461695
  0
ARC
  8
_0-0_0
  6
CONTINUOUS
 62
    7
 10
1015.7435921858782
 20
359.56282306586695
 40
47.126976013183594
 50
30.907989501953114
 51
41.64598083496093
  0
ARC
  8
_0-0_0
  6
CONTINUOUS
 62
    7
 10
1076.4074658583636
 20
413.45198322211684
 40
34.015766143798828
 50
199.54411315917969
 51
221.57313537597659
  0
ARC
  8
_0-0_0
  6
CONTINUOUS
 62
    7
 10
1079.2955273818011
 20
415.91707111274189
 40
37.586616516113274
 50
193.57771301269528
 51
201.61299133300778
  0
ARC
  8
_0-0_0
  6
CONTINUOUS
 62
    7
 10
1096.6907319258685
 20
410.40242267524195
 40
54.032810211181641
 50
183.51138305664062
 51
210.9927978515625
  0
ARC
  8
_0-0_0
  6
CONTINUOUS
 62
    7
 10
1012.6443490218157
 20
360.12349201117945
 40
43.904979705810547
 50
353.77549743652338
 51
30.761413574218718
  0
ARC
  8
_0-0_0
  6
CONTINUOUS
 62
    7
 10
1023.1557625960345
 20
369.43586994086695
 40
35.999374389648438
 50
336.98841857910156
 51
23.464477539062504
  0
ARC
  8
_0-0_0
  6
CONTINUOUS
 62
    7
 10
1067.6395835112567
 20
391.10115314399189
 40
24.843418121337887
 50
162.39691162109375
 51
228.31278991699219
  0
ARC
  8
_0-0_0
  6
CONTINUOUS
 62
    7
 10
1054.0739097874398
 20
410.26301837836684
 40
11.75018310546875
 50
157.61862182617187
 51
195.65097045898435
  0
ARC
  8
_0-0_0
  6
CONTINUOUS
 62
    7
 10
1072.5361890028948
 20
541.14131427680434
 40
28.304128646850586
 50
176.31930541992187
 51
217.72093200683591
  0
ARC
  8
_0-0_0
  6
CONTINUOUS
 62
    7
 10
1241.2143525313372
 20
476.66340900336695
 40
207.34469604492187
 50
161.77507019042966
 51
162.25462341308591
  0
ARC
  8
_0-0_0
  6
CONTINUOUS
 62
    7
 10
1015.7435921858782
 20
387.70845294867934
 40
47.126976013183594
 50
30.907989501953114
 51
41.64598083496093
  0
ARC
  8
_0-0_0
  6
CONTINUOUS
 62
    7
 10
1076.4074658583636
 20
441.5975062934059
 40
34.015766143798828
 50
199.54373168945315
 51
221.57298278808594
  0
ARC
  8
_0-0_0
  6
CONTINUOUS
 62
    7
 10
1079.2955273818011
 20
444.0627162543434
 40
37.586616516113274
 50
193.57752990722659
 51
201.61282348632812
  0
ARC
  8
_0-0_0
  6
CONTINUOUS
 62
    7
 10
1096.6907319258685
 20
438.54805255805434
 40
54.032810211181641
 50
183.51124572753912
 51
210.99279785156256
  0
ARC
  8
_0-0_0
  6
CONTINUOUS
 62
    7
 10
1012.6443490218157
 20
388.26912189399184
 40
43.904979705810547
 50
353.77549743652338
 51
30.761413574218718
  0
ARC
  8
_0-0_0
  6
CONTINUOUS
 62
    7
 10
1023.1557625960345
 20
397.58162189399184
 40
35.999374389648438
 50
336.98825073242193
 51
23.464294433593786
  0
ARC
  8
_0-0_0
  6
CONTINUOUS
 62
    7
 10
1029.2290047835345
 20
384.73372150336684
 40
27.089162826538082
 50
357.408203125
 51
36.098693847656222
  0
ARC
  8
_0-0_0
  6
CONTINUOUS
 62
    7
 10
1067.6395835112567
 20
419.24678302680439
 40
24.843418121337887
 50
162.39663696289062
 51
228.31278991699219
  0
ARC
  8
_0-0_0
  6
CONTINUOUS
 62
    7
 10
1054.0739097874398
 20
438.40877033149189
 40
11.75018310546875
 50
158.16334533691406
 51
195.65097045898432
  0
ARC
  8
_0-0_0
  6
CONTINUOUS
 62
    7
 10
1015.6314095686907
 20
416.11543537055434
 40
47.126976013183594
 50
30.907867431640632
 51
41.645874023437507
  0
ARC
  8
_0-0_0
  6
CONTINUOUS
 62
    7
 10
1076.2952832411761
 20
470.00447345649178
 40
34.015766143798828
 50
199.54373168945315
 51
221.57313537597659
  0
ARC
  8
_0-0_0
  6
CONTINUOUS
 62
    7
 10
1079.1833466719622
 20
472.46968341742945
 40
37.586616516113274
 50
193.57752990722659
 51
201.61282348632812
  0
ARC
  8
_0-0_0
  6
CONTINUOUS
 62
    7
 10
1096.578549308681
 20
466.95491290961689
 40
54.032810211181641
 50
183.51110839843753
 51
210.99267578125003
  0
ARC
  8
_0-0_0
  6
CONTINUOUS
 62
    7
 10
1012.5321664046282
 20
416.67610431586684
 40
43.904979705810547
 50
353.77534484863281
 51
30.761413574218732
  0
ARC
  8
_0-0_0
  6
CONTINUOUS
 62
    7
 10
1023.0435189436907
 20
425.98848224555434
 40
35.999374389648438
 50
336.98828125
 51
23.464263916015629
  0
ARC
  8
_0-0_0
  6
CONTINUOUS
 62
    7
 10
1029.116822166347
 20
413.14070392524184
 40
27.089162826538082
 50
357.40794372558594
 51
36.09869384765625
  0
ARC
  8
_0-0_0
  6
CONTINUOUS
 62
    7
 10
1067.5274008940692
 20
447.65376544867939
 40
24.843418121337887
 50
162.39691162109375
 51
228.31278991699219
  0
ARC
  8
_0-0_0
  6
CONTINUOUS
 62
    7
 10
1053.9617277811999
 20
466.81563068305434
 40
11.75018310546875
 50
157.61862182617187
 51
195.65040588378903
  0
ARC
  8
_0-0_0
  6
CONTINUOUS
 62
    7
 10
1052.6023527811999
 20
424.22651935492934
 40
10.748529434204102
 50
204.25386047363281
 51
205.75820922851568
  0
ARC
  8
_0-0_0
  6
CONTINUOUS
 62
    7
 10
1015.7435921858782
 20
443.99397540961684
 40
47.126976013183594
 50
30.907989501953114
 51
41.64598083496093
  0
ARC
  8
_0-0_0
  6
CONTINUOUS
 62
    7
 10
1012.6443490218157
 20
444.55452228461695
 40
43.904979705810547
 50
353.77549743652338
 51
30.761550903320281
  0
ARC
  8
_0-0_0
  6
CONTINUOUS
 62
    7
 10
1023.1557625960345
 20
453.86702228461684
 40
35.999374389648438
 50
336.98825073242193
 51
23.464477539062585
  0
ARC
  8
_0-0_0
  6
CONTINUOUS
 62
    7
 10
1029.2290047835345
 20
441.01913715278096
 40
27.089162826538082
 50
357.408203125
 51
36.098907470703104
  0
ARC
  8
_0-0_0
  6
CONTINUOUS
 62
    7
 10
1067.6395835112567
 20
475.53230548774195
 40
24.843418121337887
 50
162.39691162109375
 51
228.31278991699219
  0
ARC
  8
_0-0_0
  6
CONTINUOUS
 62
    7
 10
1015.6314095686907
 20
472.40095783149184
 40
47.126976013183594
 50
30.907867431640632
 51
41.645874023437507
  0
ARC
  8
_0-0_0
  6
CONTINUOUS
 62
    7
 10
1076.2952832411761
 20
526.28999591742945
 40
34.015766143798828
 50
199.5439147949219
 51
221.57313537597659
  0
ARC
  8
_0-0_0
  6
CONTINUOUS
 62
    7
 10
1079.1833466719622
 20
528.75508380805445
 40
37.586616516113274
 50
193.57752990722659
 51
201.61282348632812
  0
ARC
  8
_0-0_0
  6
CONTINUOUS
 62
    7
 10
1096.578549308681
 20
523.24043537055445
 40
54.032810211181641
 50
183.51124572753912
 51
210.99279785156256
  0
ARC
  8
_0-0_0
  6
CONTINUOUS
 62
    7
 10
1012.5321664046282
 20
472.96150470649195
 40
43.904979705810547
 50
353.77549743652338
 51
30.761413574218718
  0
ARC
  8
_0-0_0
  6
CONTINUOUS
 62
    7
 10
1023.0435189436907
 20
482.27400470649184
 40
35.999374389648438
 50
336.98828125
 51
23.464263916015629
  0
ARC
  8
_0-0_0
  6
CONTINUOUS
 62
    7
 10
1029.116822166347
 20
469.42610431586684
 40
27.089162826538082
 50
357.408203125
 51
36.098907470703104
  0
ARC
  8
_0-0_0
  6
CONTINUOUS
 62
    7
 10
1052.6023527811999
 20
480.51191974555434
 40
10.748529434204102
 50
204.25386047363281
 51
205.75820922851568
  0
ARC
  8
_0-0_0
  6
CONTINUOUS
 62
    7
 10
1012.4199227522845
 20
501.36848712836695
 40
43.904979705810547
 50
353.77549743652338
 51
30.761550903320281
  0
ARC
  8
_0-0_0
  6
CONTINUOUS
 62
    7
 10
1022.9313363265032
 20
510.68098712836684
 40
35.999374389648438
 50
336.98825073242193
 51
23.46426391601571
  0
ARC
  8
_0-0_0
  6
CONTINUOUS
 62
    7
 10
1029.0046395491595
 20
497.83308673774184
 40
27.089162826538082
 50
357.408203125
 51
36.098999023437472
  0
ARC
  8
_0-0_0
  6
CONTINUOUS
 62
    7
 10
1067.4151581953997
 20
532.34627033149195
 40
24.843418121337887
 50
162.39686584472656
 51
228.31278991699219
  0
ARC
  8
_0-0_0
  6
CONTINUOUS
 62
    7
 10
1079.202193183803
 20
359.61149860297621
 40
37.586616516113274
 50
193.57752990722659
 51
201.61282348632812
  0
ARC
  8
_0-0_0
  6
CONTINUOUS
 62
    7
 10
1053.980574963593
 20
353.95744586860127
 40
11.75018310546875
 50
157.61862182617187
 51
195.65040588378903
  0
ARC
  8
_0-0_0
  6
CONTINUOUS
 62
    7
 10
1015.7624406050677
 20
331.13579059516377
 40
47.126976013183594
 50
30.907989501953114
 51
41.64598083496093
  0
ARC
  8
_0-0_0
  6
CONTINUOUS
 62
    7
 10
1076.426314277553
 20
385.02482868110127
 40
34.015766143798828
 50
199.5439147949219
 51
221.57298278808594
  0
ARC
  8
_0-0_0
  6
CONTINUOUS
 62
    7
 10
1079.3143758009905
 20
387.49003864203877
 40
37.586616516113274
 50
193.57771301269528
 51
201.61299133300778
  0
ARC
  8
_0-0_0
  6
CONTINUOUS
 62
    7
 10
1096.7095765303607
 20
381.97539020453883
 40
54.032810211181641
 50
183.51138305664062
 51
210.9927978515625
  0
ARC
  8
_0-0_0
  6
CONTINUOUS
 62
    7
 10
1067.6584309767718
 20
362.67412067328877
 40
24.843418121337887
 50
162.39691162109375
 51
228.31278991699219
  0
ARC
  8
_0-0_0
  6
CONTINUOUS
 62
    7
 10
1054.0927569549317
 20
381.83598590766371
 40
11.75018310546875
 50
157.61862182617187
 51
195.65097045898435
  0
ARC
  8
_0-0_0
  6
CONTINUOUS
 62
    7
 10
1015.6502579878802
 20
359.54277301703877
 40
47.126976013183594
 50
30.907867431640632
 51
41.645874023437507
  0
ARC
  8
_0-0_0
  6
CONTINUOUS
 62
    7
 10
1029.1356686781878
 20
356.56791950141377
 40
27.089162826538082
 50
357.408203125
 51
36.098907470703104
  0
ARC
  8
_0-0_0
  6
CONTINUOUS
 62
    7
 10
1052.6212000082965
 20
367.65373493110121
 40
10.748529434204102
 50
204.25386047363281
 51
205.75820922851568
  0
ARC
  8
_0-0_0
  6
CONTINUOUS
 62
    7
 10
1052.5090169142718
 20
396.06083942328883
 40
10.748529434204102
 50
204.25445556640619
 51
205.7586669921875
  0
ARC
  8
_0-0_0
  6
CONTINUOUS
 62
    7
 10
1076.3141316603655
 20
357.14628864203883
 40
34.015766143798828
 50
199.54373168945312
 51
204.64503479003903
  0
ARC
  8
_0-0_0
  6
CONTINUOUS
 62
    7
 10
1029.2478512953753
 20
328.16093707953877
 40
27.089162826538082
 50
33.118942260742202
 51
36.098907470703139
  0
ARC
  8
_0-0_0
  6
CONTINUOUS
 62
    7
 10
1012.6631974410052
 20
331.69633747016371
 40
43.904979705810547
 50
14.867782592773391
 51
30.761550903320266
  0
ARC
  8
_0-0_0
  6
CONTINUOUS
 62
    7
 10
1039.2023009490008
 20
349.16258502875746
 40
18.178379058837891
 50
340.05587768554693
 51
19.943466186523473
  0
ARC
  8
_0-0_0
  6
CONTINUOUS
 62
    7
 10
1095.2076577376361
 20
357.61244464789809
 40
52.983028411865227
 50
187.40089416503906
 51
196.05227661132812
  0
ARC
  8
_0-0_0
  6
CONTINUOUS
 62
    7
 10
1015.5191836850815
 20
500.80819010467388
 40
47.126976013183594
 50
30.907989501953114
 51
41.64598083496093
  0
ARC
  8
_0-0_0
  6
CONTINUOUS
 62
    7
 10
1076.1830573575669
 20
554.69735026092383
 40
34.015766143798828
 50
199.54411315917969
 51
221.57313537597659
  0
ARC
  8
_0-0_0
  6
CONTINUOUS
 62
    7
 10
1079.0711188810044
 20
557.16243815154883
 40
37.586616516113274
 50
193.57771301269528
 51
201.61299133300778
  0
ARC
  8
_0-0_0
  6
CONTINUOUS
 62
    7
 10
1012.419940521019
 20
501.36885904998633
 40
43.904979705810547
 50
353.77549743652338
 51
30.761413574218718
  0
ARC
  8
_0-0_0
  6
CONTINUOUS
 62
    7
 10
1022.9313540952378
 20
510.68123697967388
 40
35.999374389648438
 50
336.98841857910156
 51
23.464477539062504
  0
ARC
  8
_0-0_0
  6
CONTINUOUS
 62
    7
 10
1067.41517501046
 20
532.34652018279894
 40
24.843418121337887
 50
162.39691162109375
 51
228.31278991699219
  0
ARC
  8
_0-0_0
  6
CONTINUOUS
 62
    7
 10
1053.8495012866431
 20
551.50838541717383
 40
11.75018310546875
 50
157.61862182617187
 51
195.65097045898435
  0
ARC
  8
_0-0_0
  6
CONTINUOUS
 62
    7
 10
1015.5191836850815
 20
528.95381998748633
 40
47.126976013183594
 50
30.907989501953114
 51
41.64598083496093
  0
ARC
  8
_0-0_0
  6
CONTINUOUS
 62
    7
 10
1076.1830573575669
 20
582.842873332213
 40
34.015766143798828
 50
199.54373168945315
 51
221.57298278808594
  0
ARC
  8
_0-0_0
  6
CONTINUOUS
 62
    7
 10
1079.0711188810044
 20
585.30808329315039
 40
37.586616516113274
 50
193.57752990722659
 51
201.61282348632812
  0
ARC
  8
_0-0_0
  6
CONTINUOUS
 62
    7
 10
1096.4663234250718
 20
579.79341959686133
 40
54.032810211181641
 50
183.51124572753912
 51
210.99279785156256
  0
ARC
  8
_0-0_0
  6
CONTINUOUS
 62
    7
 10
1012.419940521019
 20
529.51448893279894
 40
43.904979705810547
 50
353.77549743652338
 51
30.761413574218718
  0
ARC
  8
_0-0_0
  6
CONTINUOUS
 62
    7
 10
1022.9313540952378
 20
538.82698893279883
 40
35.999374389648438
 50
336.98825073242193
 51
23.464294433593786
  0
ARC
  8
_0-0_0
  6
CONTINUOUS
 62
    7
 10
1029.0045962827378
 20
525.97908854217383
 40
27.089162826538082
 50
357.408203125
 51
36.098693847656222
  0
ARC
  8
_0-0_0
  6
CONTINUOUS
 62
    7
 10
1067.41517501046
 20
560.49215006561144
 40
24.843418121337887
 50
162.39663696289062
 51
228.31278991699219
  0
ARC
  8
_0-0_0
  6
CONTINUOUS
 62
    7
 10
1022.819110442894
 20
567.23384928436133
 40
35.999374389648438
 50
336.98828125
 51
23.464263916015629
  0
ARC
  8
_0-0_0
  6
CONTINUOUS
 62
    7
 10
1028.8924136655503
 20
554.38607096404883
 40
27.089162826538082
 50
357.40794372558594
 51
36.09869384765625
  0
ARC
  8
_0-0_0
  6
CONTINUOUS
 62
    7
 10
1052.3779442804032
 20
565.47188639373644
 40
10.748529434204102
 50
204.25386047363281
 51
205.75820922851568
  0
ARC
  8
_0-0_0
  6
CONTINUOUS
 62
    7
 10
1067.4340224759751
 20
503.9194877120957
 40
24.843418121337887
 50
162.39691162109375
 51
228.31278991699219
  0
ARC
  8
_0-0_0
  6
CONTINUOUS
 62
    7
 10
1053.868348454135
 20
523.0813529464707
 40
11.75018310546875
 50
157.61862182617187
 51
195.65097045898435
  0
ARC
  8
_0-0_0
  6
CONTINUOUS
 62
    7
 10
1052.3967915074998
 20
508.89910196990826
 40
10.748529434204102
 50
204.25386047363281
 51
205.75820922851568
  0
ARC
  8
_0-0_0
  6
CONTINUOUS
 62
    7
 10
1052.2846084134751
 20
537.3062064620957
 40
10.748529434204102
 50
204.25445556640619
 51
205.7586669921875
  0
ARC
  8
_0-0_0
  6
CONTINUOUS
 62
    7
 10
1029.0234427945786
 20
469.4063041183457
 40
27.089162826538082
 50
33.118942260742202
 51
36.098907470703139
  0
ARC
  8
_0-0_0
  6
CONTINUOUS
 62
    7
 10
1053.8495012866431
 20
579.65413737029894
 40
11.75018310546875
 50
140.11951837063543
 51
195.65097045898435
  0
ARC
  8
_0-0_0
  6
CONTINUOUS
 62
    7
 10
1067.3029923932725
 20
588.89913248748644
 40
24.843418121337887
 50
191.31492039159545
 51
228.31278991699219
  0
ARC
  8
_0-0_0
  6
CONTINUOUS
 62
    7
 10
1012.3077579038315
 20
557.92147135467383
 40
43.904979705810547
 50
353.77534484863281
 51
41.981746798498286
  0
ARC
  8
_0-0_0
  6
CONTINUOUS
 62
    7
 10
1015.407001067894
 20
557.36080240936133
 40
47.126976013183594
 50
30.907867431640632
 51
42.949275604810168
  0
LINE
  8
_0-0_0
  6
CONTINUOUS
 62
    7
 10
1042.4856254555561
 20
814.96187889087741
 11
1058.095270455553
 21
814.96187889087741
  0
LINE
  8
_0-0_0
  6
CONTINUOUS
 62
    7
 10
1058.095270455553
 20
811.96187889087741
 11
1042.4856254555561
 21
811.96187889087741
  0
ARC
  8
_0-0_0
  6
CONTINUOUS
 62
    7
 10
1042.4856254555561
 20
813.46187889087741
 40
1.5
 50
90.000003000000007
 51
270.00000100000005
  0
ARC
  8
_0-0_0
  6
CONTINUOUS
 62
    7
 10
1058.095270455553
 20
813.46187889087741
 40
1.5
 50
270.000001
 51
90.000002999999992
  0
LINE
  8
_0-0_0
  6
CONTINUOUS
 62
    7
 10
1042.4856254555561
 20
803.96187989087775
 11
1058.095270455553
 21
803.96187989087775
  0
LINE
  8
_0-0_0
  6
CONTINUOUS
 62
    7
 10
1042.4856254555561
 20
800.96187989087775
 11
1058.095270455553
 21
800.96187989087775
  0
LINE
  8
_0-0_0
  6
CONTINUOUS
 62
    7
 10
1042.4856254555561
 20
803.96187989087775
 11
1042.4856254555561
 21
811.96187889087741
  0
LINE
  8
_0-0_0
  6
CONTINUOUS
 62
    7
 10
1058.095270455553
 20
803.96187989087775
 11
1058.095270455553
 21
811.96187889087741
  0
LINE
  8
_0-0_0
  6
CONTINUOUS
 62
    7
 10
1042.4856254555561
 20
684.96188089087809
 11
1058.095270455553
 21
684.96188089087809
  0
LINE
  8
_0-0_0
  6
CONTINUOUS
 62
    7
 10
1058.095270455553
 20
681.96188089087809
 11
1042.4856254555561
 21
681.96188089087809
  0
LINE
  8
_0-0_0
  6
CONTINUOUS
 62
    7
 10
1042.4856254555561
 20
673.96188089087809
 11
1058.095270455553
 21
673.96188089087809
  0
LINE
  8
_0-0_0
  6
CONTINUOUS
 62
    7
 10
1042.4856254555561
 20
670.96188089087809
 11
1058.095270455553
 21
670.96188089087809
  0
LINE
  8
_0-0_0
  6
CONTINUOUS
 62
    7
 10
1042.4856254555561
 20
673.96188089087809
 11
1042.4856254555561
 21
681.96188089087809
  0
LINE
  8
_0-0_0
  6
CONTINUOUS
 62
    7
 10
1058.095270455553
 20
673.96188089087809
 11
1058.095270455553
 21
681.96188089087809
  0
ARC
  8
_0-0_0
  6
CONTINUOUS
 62
    7
 10
1058.095270455553
 20
683.46188089087809
 40
1.5
 50
270.000001
 51
90.000002999999992
  0
ARC
  8
_0-0_0
  6
CONTINUOUS
 62
    7
 10
1058.095270455553
 20
672.46188089087809
 40
1.5
 50
270.000001
 51
90.000002999999992
  0
ARC
  8
_0-0_0
  6
CONTINUOUS
 62
    7
 10
1042.4856254555561
 20
672.46188089087809
 40
1.5
 50
90.000003000000007
 51
270.00000100000005
  0
ARC
  8
_0-0_0
  6
CONTINUOUS
 62
    7
 10
1042.4856254555561
 20
802.46187989087775
 40
1.5
 50
90.000003000000007
 51
270.00000100000005
  0
ARC
  8
_0-0_0
  6
CONTINUOUS
 62
    7
 10
1042.4856254555561
 20
683.46188089087809
 40
1.5
 50
90.000003000000007
 51
270.00000100000005
  0
ARC
  8
_0-0_0
  6
CONTINUOUS
 62
    7
 10
1042.4856254555561
 20
683.46188089087809
 40
1.5
 50
90.000003000000007
 51
270.00000100000005
  0
ARC
  8
_0-0_0
  6
CONTINUOUS
 62
    7
 10
1042.4856254555561
 20
683.46188089087809
 40
1.5
 50
90.000003000000007
 51
270.00000100000005
  0
ARC
  8
_0-0_0
  6
CONTINUOUS
 62
    7
 10
1042.4856254555561
 20
683.46188089087809
 40
1.5
 50
90.000003000000007
 51
270.00000100000005
  0
ARC
  8
_0-0_0
  6
CONTINUOUS
 62
    7
 10
1042.4856254555561
 20
683.46188089087809
 40
1.5
 50
90.000003000000007
 51
270.00000100000005
  0
ARC
  8
_0-0_0
  6
CONTINUOUS
 62
    7
 10
1042.4856254555561
 20
683.46188089087809
 40
1.5
 50
90.000003000000007
 51
270.00000100000005
  0
ARC
  8
_0-0_0
  6
CONTINUOUS
 62
    7
 10
1042.4856254555561
 20
683.46188089087809
 40
1.5
 50
90.000003000000007
 51
270.00000100000005
  0
ARC
  8
_0-0_0
  6
CONTINUOUS
 62
    7
 10
1042.4856254555561
 20
683.46188089087809
 40
1.5
 50
90.000003000000007
 51
270.00000100000005
  0
ARC
  8
_0-0_0
  6
CONTINUOUS
 62
    7
 10
1042.4856254555561
 20
683.46188089087809
 40
1.5
 50
90.000003000000007
 51
270.00000100000005
  0
ARC
  8
_0-0_0
  6
CONTINUOUS
 62
    7
 10
1042.4856254555561
 20
683.46188089087809
 40
1.5
 50
90.000003000000007
 51
270.00000100000005
  0
ARC
  8
_0-0_0
  6
CONTINUOUS
 62
    7
 10
1042.4856254555561
 20
683.46188089087809
 40
1.5
 50
90.000003000000007
 51
270.00000100000005
  0
ARC
  8
_0-0_0
  6
CONTINUOUS
 62
    7
 10
1042.4856254555561
 20
683.46188089087809
 40
1.5
 50
90.000003000000007
 51
270.00000100000005
  0
ARC
  8
_0-0_0
  6
CONTINUOUS
 62
    7
 10
1042.4856254555561
 20
683.46188089087809
 40
1.5
 50
90.000003000000007
 51
270.00000100000005
  0
ARC
  8
_0-0_0
  6
CONTINUOUS
 62
    7
 10
1042.4856254555561
 20
683.46188089087809
 40
1.5
 50
90.000003000000007
 51
270.00000100000005
  0
ARC
  8
_0-0_0
  6
CONTINUOUS
 62
    7
 10
1042.4856254555561
 20
683.46188089087809
 40
1.5
 50
90.000003000000007
 51
270.00000100000005
  0
ARC
  8
_0-0_0
  6
CONTINUOUS
 62
    7
 10
1042.4856254555561
 20
683.46188089087809
 40
1.5
 50
90.000003000000007
 51
270.00000100000005
  0
ARC
  8
_0-0_0
  6
CONTINUOUS
 62
    7
 10
1042.4856254555561
 20
683.46188089087809
 40
1.5
 50
90.000003000000007
 51
270.00000100000005
  0
ARC
  8
_0-0_0
  6
CONTINUOUS
 62
    7
 10
1042.4856254555561
 20
683.46188089087809
 40
1.5
 50
90.000003000000007
 51
270.00000100000005
  0
ARC
  8
_0-0_0
  6
CONTINUOUS
 62
    7
 10
1042.4856254555561
 20
683.46188089087809
 40
1.5
 50
90.000003000000007
 51
270.00000100000005
  0
ARC
  8
_0-0_0
  6
CONTINUOUS
 62
    7
 10
1042.4856254555561
 20
683.46188089087809
 40
1.5
 50
90.000003000000007
 51
270.00000100000005
  0
ARC
  8
_0-0_0
  6
CONTINUOUS
 62
    7
 10
1042.4856254555561
 20
683.46188089087809
 40
1.5
 50
90.000003000000007
 51
270.00000100000005
  0
ARC
  8
_0-0_0
  6
CONTINUOUS
 62
    7
 10
1042.4856254555561
 20
683.46188089087809
 40
1.5
 50
90.000003000000007
 51
270.00000100000005
  0
ARC
  8
_0-0_0
  6
CONTINUOUS
 62
    7
 10
1042.4856254555561
 20
683.46188089087809
 40
1.5
 50
90.000003000000007
 51
270.00000100000005
  0
ARC
  8
_0-0_0
  6
CONTINUOUS
 62
    7
 10
1042.4856254555561
 20
683.46188089087809
 40
1.5
 50
90.000003000000007
 51
270.00000100000005
  0
ARC
  8
_0-0_0
  6
CONTINUOUS
 62
    7
 10
1042.4856254555561
 20
683.46188089087809
 40
1.5
 50
90.000003000000007
 51
270.00000100000005
  0
ARC
  8
_0-0_0
  6
CONTINUOUS
 62
    7
 10
1042.4856254555561
 20
683.46188089087809
 40
1.5
 50
90.000003000000007
 51
270.00000100000005
  0
ARC
  8
_0-0_0
  6
CONTINUOUS
 62
    7
 10
1058.095270455553
 20
802.46187989087775
 40
1.5
 50
270.000001
 51
90.000002999999992
  0
ARC
  8
_0-0_0
  6
CONTINUOUS
 62
    7
 10
1058.095270455553
 20
802.46187989087775
 40
1.5
 50
270.000001
 51
90.000002999999992
  0
ARC
  8
_0-0_0
  6
CONTINUOUS
 62
    7
 10
1058.095270455553
 20
802.46187989087775
 40
1.5
 50
270.000001
 51
90.000002999999992
  0
ARC
  8
_0-0_0
  6
CONTINUOUS
 62
    7
 10
1058.095270455553
 20
802.46187989087775
 40
1.5
 50
270.000001
 51
90.000002999999992
  0
ARC
  8
_0-0_0
  6
CONTINUOUS
 62
    7
 10
1058.095270455553
 20
802.46187989087775
 40
1.5
 50
270.000001
 51
90.000002999999992
  0
ARC
  8
_0-0_0
  6
CONTINUOUS
 62
    7
 10
1058.095270455553
 20
802.46187989087775
 40
1.5
 50
270.000001
 51
90.000002999999992
  0
ARC
  8
_0-0_0
  6
CONTINUOUS
 62
    7
 10
1058.095270455553
 20
802.46187989087775
 40
1.5
 50
270.000001
 51
90.000002999999992
  0
ARC
  8
_0-0_0
  6
CONTINUOUS
 62
    7
 10
1058.095270455553
 20
802.46187989087775
 40
1.5
 50
270.000001
 51
90.000002999999992
  0
ARC
  8
_0-0_0
  6
CONTINUOUS
 62
    7
 10
1058.095270455553
 20
802.46187989087775
 40
1.5
 50
270.000001
 51
90.000002999999992
  0
ARC
  8
_0-0_0
  6
CONTINUOUS
 62
    7
 10
1058.095270455553
 20
802.46187989087775
 40
1.5
 50
270.000001
 51
90.000002999999992
  0
ARC
  8
_0-0_0
  6
CONTINUOUS
 62
    7
 10
1057.7189354555521
 20
760.0825158908774
 40
31.302976000000001
 50
133.07458399999999
 51
150.321494
  0
ARC
  8
_0-0_0
  6
CONTINUOUS
 62
    7
 10
1057.7189354555521
 20
760.0825158908774
 40
31.302976000000001
 50
133.07458399999999
 51
150.321494
  0
ARC
  8
_0-0_0
  6
CONTINUOUS
 62
    7
 10
1058.7578224555546
 20
762.25690889087855
 40
31.221621999999996
 50
154.73666499999999
 51
178.03032899999999
  0
ARC
  8
_0-0_0
  6
CONTINUOUS
 62
    7
 10
1058.7578224555546
 20
762.25690889087855
 40
31.221621999999996
 50
154.73666499999999
 51
178.03032899999999
  0
ARC
  8
_0-0_0
  6
CONTINUOUS
 62
    7
 10
1049.6272684555661
 20
767.27027489087777
 40
20.834492999999995
 50
156.48910100000001
 51
187.19745300000005
  0
ARC
  8
_0-0_0
  6
CONTINUOUS
 62
    7
 10
1051.3917984555519
 20
768.02454789088006
 40
15.666495999999999
 50
149.361784
 51
163.73575399999999
  0
ARC
  8
_0-0_0
  6
CONTINUOUS
 62
    7
 10
350.85688945555745
 20
1329.7675048908786
 40
882.33476499999995
 50
321.22349600000001
 51
321.51014600000002
  0
ARC
  8
_0-0_0
  6
CONTINUOUS
 62
    7
 10
987.3890144555553
 20
802.22729089087807
 40
69.010633999999968
 50
341.81424900000002
 51
358.92054000000002
  0
ARC
  8
_0-0_0
  6
CONTINUOUS
 62
    7
 10
350.85688945555745
 20
1329.7675048908786
 40
882.33476499999995
 50
321.22349600000001
 51
321.51014600000002
  0
ARC
  8
_0-0_0
  6
CONTINUOUS
 62
    7
 10
983.45888445555465
 20
815.18908989087868
 40
68.026258999999982
 50
312.709092
 51
323.67643600000002
  0
ARC
  8
_0-0_0
  6
CONTINUOUS
 62
    7
 10
1044.9069814555551
 20
746.43764889087834
 40
24.216836999999998
 50
129.20533600000002
 51
179.36845800000003
  0
ARC
  8
_0-0_0
  6
CONTINUOUS
 62
    7
 10
1033.7314784555565
 20
747.29558989088036
 40
13.053248
 50
182.59509400000002
 51
233.40021300000004
  0
ARC
  8
_0-0_0
  6
CONTINUOUS
 62
    7
 10
1037.2840254555558
 20
746.92811289088058
 40
13.912072999999998
 50
151.43582599999999
 51
218.74951200000004
  0
ARC
  8
_0-0_0
  6
CONTINUOUS
 62
    7
 10
1048.9016554555565
 20
739.69042689088019
 40
27.587939999999996
 50
127.97382599999999
 51
149.770284
  0
ARC
  8
_0-0_0
  6
CONTINUOUS
 62
    7
 10
612.2184884555536
 20
1169.6653348908803
 40
585.49535300000002
 50
315.79445199999998
 51
317.77291200000002
  0
ARC
  8
_0-0_0
  6
CONTINUOUS
 62
    7
 10
1040.8017184555574
 20
748.78936389087903
 40
10.982367
 50
139.84177100000002
 51
199.76732400000006
  0
ARC
  8
_0-0_0
  6
CONTINUOUS
 62
    7
 10
1045.8633864555522
 20
761.98601989087911
 40
17.278248999999995
 50
209.66633100000007
 51
227.56355699999997
  0
ARC
  8
_0-0_0
  6
CONTINUOUS
 62
    7
 10
1061.8981114555572
 20
785.6217158908803
 40
41.740992999999989
 50
229.21587600000001
 51
233.66331200000013
  0
ARC
  8
_0-0_0
  6
CONTINUOUS
 62
    7
 10
1418.4188854555541
 20
413.16333189087891
 40
516.19133799999986
 50
136.471305
 51
138.400642
  0
ARC
  8
_0-0_0
  6
CONTINUOUS
 62
    7
 10
1051.3917984555519
 20
768.02454789088006
 40
15.666495999999999
 50
205.57810700000005
 51
232.37186000000008
  0
ARC
  8
_0-0_0
  6
CONTINUOUS
 62
    7
 10
1061.8981114555572
 20
785.6217158908803
 40
41.740992999999989
 50
229.21587600000001
 51
233.66331200000013
  0
ARC
  8
_0-0_0
  6
CONTINUOUS
 62
    7
 10
1073.7795374555644
 20
787.01134889087916
 40
31.370638999999997
 50
210.610536
 51
231.231765
  0
ARC
  8
_0-0_0
  6
CONTINUOUS
 62
    7
 10
1077.3092864555656
 20
785.56527289087899
 40
32.185512000000003
 50
204.2740189999999
 51
225.02071900000001
  0
ARC
  8
_0-0_0
  6
CONTINUOUS
 62
    7
 10
1077.5049234555554
 20
786.17110789087747
 40
25.807915999999995
 50
194.62839899999997
 51
229.07182700000001
  0
ARC
  8
_0-0_0
  6
CONTINUOUS
 62
    7
 10
1026.5860584555558
 20
790.75063689087983
 40
28.220990999999998
 50
308.52855099999999
 51
339.11307299999999
  0
ARC
  8
_0-0_0
  6
CONTINUOUS
 62
    7
 10
1087.0096924555546
 20
803.46795289087822
 40
40.170580999999991
 50
212.86139699999998
 51
230.35351199999997
  0
ARC
  8
_0-0_0
  6
CONTINUOUS
 62
    7
 10
1077.3092864555656
 20
785.56527289087899
 40
32.185512000000003
 50
204.2740189999999
 51
225.02071900000001
  0
ARC
  8
_0-0_0
  6
CONTINUOUS
 62
    7
 10
1087.0096924555546
 20
803.46795289087822
 40
40.170580999999991
 50
212.86139699999998
 51
230.35351199999997
  0
ARC
  8
_0-0_0
  6
CONTINUOUS
 62
    7
 10
1087.0096924555546
 20
803.46795289087822
 40
40.170580999999991
 50
212.86139699999998
 51
230.35351199999997
  0
ARC
  8
_0-0_0
  6
CONTINUOUS
 62
    7
 10
1077.5049234555554
 20
786.17110789087747
 40
25.807915999999995
 50
194.62839899999997
 51
229.07182700000001
  0
ARC
  8
_0-0_0
  6
CONTINUOUS
 62
    7
 10
1077.5049234555554
 20
786.17110789087747
 40
25.807915999999995
 50
194.62839899999997
 51
229.07182700000001
  0
ARC
  8
_0-0_0
  6
CONTINUOUS
 62
    7
 10
983.45888445555465
 20
815.18908989087868
 40
68.026258999999982
 50
312.709092
 51
323.67643600000002
  0
ARC
  8
_0-0_0
  6
CONTINUOUS
 62
    7
 10
612.2184884555536
 20
1169.6653348908803
 40
585.49535300000002
 50
315.79445199999998
 51
317.77291200000002
  0
ARC
  8
_0-0_0
  6
CONTINUOUS
 62
    7
 10
1058.1815894555548
 20
768.39315389088006
 40
10.961838999999998
 50
309.20520499999998
 51
39.49354700000017
  0
ARC
  8
_0-0_0
  6
CONTINUOUS
 62
    7
 10
1058.1815894555548
 20
768.39315389088006
 40
10.961838999999998
 50
309.20520499999998
 51
39.49354700000017
  0
ARC
  8
_0-0_0
  6
CONTINUOUS
 62
    7
 10
1059.6716754555528
 20
771.7277948908777
 40
7.8610550000000003
 50
298.85541899999998
 51
43.313821999999924
  0
ARC
  8
_0-0_0
  6
CONTINUOUS
 62
    7
 10
1058.6834094555525
 20
771.03715189087961
 40
4.7438729999999989
 50
295.11337700000001
 51
46.522678999999989
  0
ARC
  8
_0-0_0
  6
CONTINUOUS
 62
    7
 10
1087.0096924555546
 20
803.46795289087822
 40
40.170580999999991
 50
212.86139699999998
 51
230.35351199999997
  0
ARC
  8
_0-0_0
  6
CONTINUOUS
 62
    7
 10
1113.6901984555661
 20
816.10937789087984
 40
62.071783999999994
 50
207.61697300000006
 51
218.91204399999992
  0
ARC
  8
_0-0_0
  6
CONTINUOUS
 62
    7
 10
1100.9562414555548
 20
807.9185288908775
 40
51.445585999999992
 50
205.305487
 51
219.17809299999999
  0
ARC
  8
_0-0_0
  6
CONTINUOUS
 62
    7
 10
1009.2717964555559
 20
840.0380578908771
 40
89.537008999999983
 50
295.38483600000012
 51
305.05362400000001
  0
ARC
  8
_0-0_0
  6
CONTINUOUS
 62
    7
 10
1009.2717964555559
 20
840.0380578908771
 40
89.537008999999983
 50
295.38483600000012
 51
305.05362400000001
  0
ARC
  8
_0-0_0
  6
CONTINUOUS
 62
    7
 10
1073.1312104555545
 20
710.4893308908795
 40
54.922252
 50
117.63530999999999
 51
143.40163799999996
  0
ARC
  8
_0-0_0
  6
CONTINUOUS
 62
    7
 10
1074.3220564555522
 20
699.27665489088031
 40
63.005065000000002
 50
113.95644
 51
131.798937
  0
ARC
  8
_0-0_0
  6
CONTINUOUS
 62
    7
 10
1032.2554614555556
 20
804.80712489087819
 40
50.707098999999999
 50
288.97044100000005
 51
307.98787400000003
  0
ARC
  8
_0-0_0
  6
CONTINUOUS
 62
    7
 10
1041.9750354555654
 20
786.14361189087867
 40
34.986193999999998
 50
287.59566100000001
 51
311.39725800000002
  0
ARC
  8
_0-0_0
  6
CONTINUOUS
 62
    7
 10
1085.2418554555552
 20
798.00976189088033
 40
58.975046999999982
 50
232.60946899999999
 51
246.79861299999999
  0
ARC
  8
_0-0_0
  6
CONTINUOUS
 62
    7
 10
1112.1370974555539
 20
852.88059489087755
 40
125.30206099999999
 50
236.99057100000002
 51
243.463705
  0
ARC
  8
_0-0_0
  6
CONTINUOUS
 62
    7
 10
1111.088342455565
 20
867.93325289087807
 40
141.55174
 50
240.00325799999999
 51
245.77741800000001
  0
ARC
  8
_0-0_0
  6
CONTINUOUS
 62
    7
 10
1090.7831664555561
 20
676.27967589087712
 40
85.534598000000003
 50
116.54981500000001
 51
129.04500400000003
  0
ARC
  8
_0-0_0
  6
CONTINUOUS
 62
    7
 10
1061.8338284555575
 20
768.44105189087713
 40
39.681040999999993
 50
225.85864599999999
 51
244.71832899999998
  0
ARC
  8
_0-0_0
  6
CONTINUOUS
 62
    7
 10
1046.3825174555532
 20
733.34893489088063
 40
14.08892
 50
157.502059
 51
230.219258
  0
ARC
  8
_0-0_0
  6
CONTINUOUS
 62
    7
 10
1046.003939455557
 20
731.04273689087859
 40
14.797623999999999
 50
127.957187
 51
227.47495599999999
  0
ARC
  8
_0-0_0
  6
CONTINUOUS
 62
    7
 10
1044.3460714555549
 20
731.24360389087815
 40
19.222689999999997
 50
128.69700599999999
 51
238.37065099999998
  0
ARC
  8
_0-0_0
  6
CONTINUOUS
 62
    7
 10
1081.0116424555526
 20
810.65680989087923
 40
91.880094999999983
 50
237.98807900000003
 51
244.25786500000004
  0
ARC
  8
_0-0_0
  6
CONTINUOUS
 62
    7
 10
1081.0116424555526
 20
810.65680989087923
 40
91.880094999999983
 50
237.98807900000003
 51
244.25786500000004
  0
ARC
  8
_0-0_0
  6
CONTINUOUS
 62
    7
 10
1081.0116424555526
 20
810.65680989087923
 40
91.880094999999983
 50
237.98807900000003
 51
244.25786500000004
  0
ARC
  8
_0-0_0
  6
CONTINUOUS
 62
    7
 10
1081.7873074555537
 20
695.60538989087945
 40
51.938273999999979
 50
114.39485000000001
 51
151.13823500000001
  0
ARC
  8
_0-0_0
  6
CONTINUOUS
 62
    7
 10
1096.6975644555569
 20
666.76365489087766
 40
76.21051700000001
 50
118.292046
 51
130.966036
  0
ARC
  8
_0-0_0
  6
CONTINUOUS
 62
    7
 10
1003.905417455564
 20
839.98441589087815
 40
116.727476
 50
297.54637200000002
 51
307.98369400000001
  0
ARC
  8
_0-0_0
  6
CONTINUOUS
 62
    7
 10
1003.905417455564
 20
839.98441589087815
 40
116.727476
 50
297.54637200000002
 51
307.98369400000001
  0
ARC
  8
_0-0_0
  6
CONTINUOUS
 62
    7
 10
909.19852545555489
 20
495.2395478908802
 40
302.82088800000002
 50
57.701143999999992
 51
59.829411000000007
  0
ARC
  8
_0-0_0
  6
CONTINUOUS
 62
    7
 10
909.19852545555489
 20
495.2395478908802
 40
302.82088800000002
 50
57.701143999999992
 51
59.829411000000007
  0
ARC
  8
_0-0_0
  6
CONTINUOUS
 62
    7
 10
1003.905417455564
 20
839.98441589087815
 40
116.727476
 50
297.54637200000002
 51
307.98369400000001
  0
ARC
  8
_0-0_0
  6
CONTINUOUS
 62
    7
 10
1035.7158304555633
 20
790.77788889087969
 40
53.831110999999993
 50
297.21639199999998
 51
305.76363600000002
  0
ARC
  8
_0-0_0
  6
CONTINUOUS
 62
    7
 10
1094.1085414555564
 20
805.69231789088008
 40
57.917673999999991
 50
238.336883
 51
245.575244
  0
ARC
  8
_0-0_0
  6
CONTINUOUS
 62
    7
 10
1068.1800384555536
 20
747.19558389087979
 40
11.648540999999998
 50
38.401581
 51
72.870537000000013
  0
ARC
  8
_0-0_0
  6
CONTINUOUS
 62
    7
 10
1073.1365934555652
 20
752.02878989087912
 40
4.814430999999999
 50
302.78900700000003
 51
29.93537700000001
  0
ARC
  8
_0-0_0
  6
CONTINUOUS
 62
    7
 10
1070.2264194555537
 20
746.77337289087882
 40
10.070091999999999
 50
14.640012000000006
 51
19.545047000000004
  0
ARC
  8
_0-0_0
  6
CONTINUOUS
 62
    7
 10
1070.3805144555663
 20
751.4811828908787
 40
10.224633000000001
 50
295.4905950000001
 51
318.70635300000038
  0
ARC
  8
_0-0_0
  6
CONTINUOUS
 62
    7
 10
1015.3622884555662
 20
826.72287289087762
 40
103.27591599999998
 50
295.96354400000001
 51
305.12329199999999
  0
ARC
  8
_0-0_0
  6
CONTINUOUS
 62
    7
 10
1015.3622884555662
 20
826.72287289087762
 40
103.27591599999998
 50
295.96354400000001
 51
305.12329199999999
  0
ARC
  8
_0-0_0
  6
CONTINUOUS
 62
    7
 10
1096.6975644555569
 20
666.76365489087766
 40
76.21051700000001
 50
118.292046
 51
130.966036
  0
ARC
  8
_0-0_0
  6
CONTINUOUS
 62
    7
 10
1011.8934314555663
 20
646.48255789087852
 40
90.949850999999995
 50
57.600781999999995
 51
64.051963999999984
  0
ARC
  8
_0-0_0
  6
CONTINUOUS
 62
    7
 10
1031.7189434555548
 20
689.06123089087851
 40
38.502658000000011
 50
49.739038999999998
 51
66.790945000000008
  0
ARC
  8
_0-0_0
  6
CONTINUOUS
 62
    7
 10
1031.7189434555548
 20
689.06123089087851
 40
38.502658000000011
 50
49.739038999999998
 51
66.790945000000008
  0
ARC
  8
_0-0_0
  6
CONTINUOUS
 62
    7
 10
1085.6140724215948
 20
698.30871644697982
 40
35.311499918711149
 50
124.73156459416161
 51
173.28216208510423
  0
ARC
  8
_0-0_0
  6
CONTINUOUS
 62
    7
 10
1035.6745704555651
 20
699.02380089087819
 40
27.196698999999999
 50
42.17025000000001
 51
66.787167000000011
  0
ARC
  8
_0-0_0
  6
CONTINUOUS
 62
    7
 10
1024.4022204555513
 20
692.45713589087973
 40
31.214587999999996
 50
29.393354000000002
 51
55.088419000000002
  0
ARC
  8
_0-0_0
  6
CONTINUOUS
 62
    7
 10
1056.4655974555571
 20
712.63918789087984
 40
15.196436999999998
 50
129.82518899999999
 51
201.44970900000004
  0
ARC
  8
_0-0_0
  6
CONTINUOUS
 62
    7
 10
1084.5492854555559
 20
687.0742618908771
 40
56.14887499999999
 50
118.34845
 51
145.29973399999997
  0
ARC
  8
_0-0_0
  6
CONTINUOUS
 62
    7
 10
1049.3244004555527
 20
709.99761689087973
 40
14.190550999999997
 50
140.421682
 51
220.89065400000001
  0
ARC
  8
_0-0_0
  6
CONTINUOUS
 62
    7
 10
1049.3244004555527
 20
709.99761689087973
 40
14.190550999999997
 50
140.421682
 51
220.89065400000001
  0
ARC
  8
_0-0_0
  6
CONTINUOUS
 62
    7
 10
1050.6116544555553
 20
712.39695489087899
 40
16.533339999999995
 50
149.950875
 51
219.342263
  0
ARC
  8
_0-0_0
  6
CONTINUOUS
 62
    7
 10
1008.7505864555569
 20
681.35657989087849
 40
35.703670000000002
 50
6.6105350000000023
 51
29.880766000000001
  0
ARC
  8
_0-0_0
  6
CONTINUOUS
 62
    7
 10
1008.7505864555569
 20
681.35657989087849
 40
35.703670000000002
 50
6.6105350000000023
 51
29.880766000000001
  0
ARC
  8
_0-0_0
  6
CONTINUOUS
 62
    7
 10
1008.7505864555569
 20
681.35657989087849
 40
35.703670000000002
 50
6.6105350000000023
 51
29.880766000000001
  0
ARC
  8
_0-0_0
  6
CONTINUOUS
 62
    7
 10
1008.7505864555569
 20
681.35657989087849
 40
35.703670000000002
 50
6.6105350000000023
 51
29.880766000000001
  0
ARC
  8
_0-0_0
  6
CONTINUOUS
 62
    7
 10
1008.7505864555569
 20
681.35657989087849
 40
35.703670000000002
 50
6.6105350000000023
 51
29.880766000000001
  0
ARC
  8
_0-0_0
  6
CONTINUOUS
 62
    7
 10
1008.7505864555569
 20
681.35657989087849
 40
35.703670000000002
 50
6.6105350000000023
 51
29.880766000000001
  0
ARC
  8
_0-0_0
  6
CONTINUOUS
 62
    7
 10
1008.7505864555569
 20
681.35657989087849
 40
35.703670000000002
 50
6.6105350000000023
 51
29.880766000000001
  0
ARC
  8
_0-0_0
  6
CONTINUOUS
 62
    7
 10
1008.7505864555569
 20
681.35657989087849
 40
35.703670000000002
 50
6.6105350000000023
 51
29.880766000000001
  0
ARC
  8
_0-0_0
  6
CONTINUOUS
 62
    7
 10
1008.7505864555569
 20
681.35657989087849
 40
35.703670000000002
 50
6.6105350000000023
 51
29.880766000000001
  0
ARC
  8
_0-0_0
  6
CONTINUOUS
 62
    7
 10
1008.7505864555569
 20
681.35657989087849
 40
35.703670000000002
 50
6.6105350000000023
 51
29.880766000000001
  0
ARC
  8
_0-0_0
  6
CONTINUOUS
 62
    7
 10
1008.7505864555569
 20
681.35657989087849
 40
35.703670000000002
 50
6.6105350000000023
 51
29.880766000000001
  0
ARC
  8
_0-0_0
  6
CONTINUOUS
 62
    7
 10
1064.1949564555543
 20
730.66540189087755
 40
10.246707999999998
 50
309.32164599999999
 51
25.328045999999986
  0
ARC
  8
_0-0_0
  6
CONTINUOUS
 62
    7
 10
1065.418283455554
 20
731.30595089087728
 40
3.510695999999998
 50
322.68469200000004
 51
41.694340000000039
  0
ARC
  8
_0-0_0
  6
CONTINUOUS
 62
    7
 10
1047.9373304555556
 20
756.02286989087952
 40
33.640106000000003
 50
301.46351299999998
 51
307.059596
  0
ARC
  8
_0-0_0
  6
CONTINUOUS
 62
    7
 10
1066.2096404555559
 20
730.0738498908795
 40
2.1922410000000001
 50
335.87348700000007
 51
65.554489000000018
  0
ARC
  8
_0-0_0
  6
CONTINUOUS
 62
    7
 10
1057.5284754555541
 20
760.50851089087882
 40
16.521248
 50
305.73303700000002
 51
322.91454199999998
  0
ARC
  8
_0-0_0
  6
CONTINUOUS
 62
    7
 10
1069.4267004555659
 20
751.52303789087819
 40
1.6113159999999991
 50
322.67791699999998
 51
62.941155999999957
  0
ARC
  8
_0-0_0
  6
CONTINUOUS
 62
    7
 10
1092.7476134555545
 20
797.37282889087874
 40
44.399367999999988
 50
234.016324
 51
241.57168800000005
  0
ARC
  8
_0-0_0
  6
CONTINUOUS
 62
    7
 10
1094.1085414555564
 20
805.69231789088008
 40
57.917673999999991
 50
238.336883
 51
245.575244
  0
ARC
  8
_0-0_0
  6
CONTINUOUS
 62
    7
 10
1077.3092864555656
 20
785.56527289087899
 40
32.185512000000003
 50
241.26864599999999
 51
244.998175
  0
ARC
  8
_0-0_0
  6
CONTINUOUS
 62
    7
 10
1077.5049234555554
 20
786.17110789087747
 40
25.807915999999995
 50
194.62839899999997
 51
229.07182700000001
  0
ARC
  8
_0-0_0
  6
CONTINUOUS
 62
    7
 10
1059.7874434555561
 20
769.1941188908786
 40
3.7021669999999984
 50
15.678563
 51
64.540616000000014
  0
ARC
  8
_0-0_0
  6
CONTINUOUS
 62
    7
 10
1087.0096924555546
 20
803.46795289087822
 40
40.170580999999991
 50
212.86139699999998
 51
230.35351199999997
  0
ARC
  8
_0-0_0
  6
CONTINUOUS
 62
    7
 10
1113.6901984555661
 20
816.10937789087984
 40
62.071783999999994
 50
207.61697300000006
 51
218.91204399999992
  0
ARC
  8
_0-0_0
  6
CONTINUOUS
 62
    7
 10
1058.1815894555548
 20
768.39315389088006
 40
10.961838999999998
 50
309.20520499999998
 51
39.49354700000017
  0
ARC
  8
_0-0_0
  6
CONTINUOUS
 62
    7
 10
1066.6455044555551
 20
745.59234289087908
 40
13.840044000000001
 50
19.193117000000001
 51
38.908558999999997
  0
ARC
  8
_0-0_0
  6
CONTINUOUS
 62
    7
 10
1068.3948514555523
 20
753.11741289087877
 40
12.796571999999998
 50
319.06909100000013
 51
332.27851199999998
  0
ARC
  8
_0-0_0
  6
CONTINUOUS
 62
    7
 10
1070.2264194555537
 20
746.77337289087882
 40
10.070091999999999
 50
14.640012000000006
 51
19.545047000000004
  0
ARC
  8
_0-0_0
  6
CONTINUOUS
 62
    7
 10
1050.8736554555508
 20
717.40263089087966
 40
28.659826000000006
 50
38.003975000000004
 51
48.733437000000009
  0
ARC
  8
_0-0_0
  6
CONTINUOUS
 62
    7
 10
1068.8281954555641
 20
781.73598889087953
 40
10
 50
219.17809299999999
 51
226.52262300000001
  0
ARC
  8
_0-0_0
  6
CONTINUOUS
 62
    7
 10
1046.5163294555532
 20
770.91227389087726
 40
10
 50
141.22346400000001
 51
149.36172999999999
  0
ARC
  8
_0-0_0
  6
CONTINUOUS
 62
    7
 10
1044.2518454555538
 20
765.80982589087944
 40
15.218968
 50
219.86579699999999
 51
230.797256
  0
ARC
  8
_0-0_0
  6
CONTINUOUS
 62
    7
 10
1077.0669654555531
 20
748.56029989087983
 40
3
 50
332.27854000000008
 51
14.640092000000031
  0
ARC
  8
_0-0_0
  6
CONTINUOUS
 62
    7
 10
1071.6655004555651
 20
792.14037689087854
 40
70.681266000000008
 50
236.14931000000007
 51
244.64934399999999
  0
ARC
  8
_0-0_0
  6
CONTINUOUS
 62
    7
 10
1044.6283174555574
 20
732.16849989087859
 40
19.118409999999997
 50
144.634378
 51
158.27795399999999
  0
ARC
  8
_0-0_0
  6
CONTINUOUS
 62
    7
 10
1091.2722994555661
 20
687.66172589087728
 40
40.670569999999998
 50
120.40586700000001
 51
161.99641899999997
  0
ARC
  8
_0-0_0
  6
CONTINUOUS
 62
    7
 10
1103.1306554555558
 20
709.83341689088047
 40
34.104747000000003
 50
154.77513300000001
 51
167.948792
  0
ARC
  8
_0-0_0
  6
CONTINUOUS
 62
    7
 10
1093.052856455557
 20
685.73222089087722
 40
38.254443999999992
 50
128.908592
 51
153.97665599999999
  0
ARC
  8
_0-0_0
  6
CONTINUOUS
 62
    7
 10
1066.690426455556
 20
717.62817089087912
 40
3.159851999999999
 50
317.65887500000002
 51
347.68110799999999
  0
ARC
  8
_0-0_0
  6
CONTINUOUS
 62
    7
 10
1051.6290724555656
 20
710.73893489088005
 40
10
 50
201.44970900000001
 51
211.106326
  0
ARC
  8
_0-0_0
  6
CONTINUOUS
 62
    7
 10
1031.037302455552
 20
694.16206089087791
 40
10
 50
29.880746000000002
 51
40.890638000000003
  0
ARC
  8
_0-0_0
  6
CONTINUOUS
 62
    7
 10
1091.1903294555523
 20
683.35423089087999
 40
34.790568999999991
 50
140.07824600000004
 51
168.27578000000003
  0
ARC
  8
_0-0_0
  6
CONTINUOUS
 62
    7
 10
1056.1351764555657
 20
712.99908189087728
 40
11.120863999999999
 50
318.847082
 51
4.8695190000002757
  0
ARC
  8
_0-0_0
  6
CONTINUOUS
 62
    7
 10
1067.6629854555576
 20
698.12849189087865
 40
10
 50
153.97665599999999
 51
170.14557199999999
  0
ARC
  8
_0-0_0
  6
CONTINUOUS
 62
    7
 10
1062.1034514555649
 20
697.14127889087831
 40
10
 50
161.99644599999999
 51
170.77713199999999
  0
ARC
  8
_0-0_0
  6
CONTINUOUS
 62
    7
 10
1016.5817094555532
 20
691.15058689087891
 40
34.392318000000003
 50
12.655206999999999
 51
43.712900000000019
  0
ARC
  8
_0-0_0
  6
CONTINUOUS
 62
    7
 10
1050.6116544555553
 20
712.39695489087899
 40
16.533339999999995
 50
149.950875
 51
213.64707400000009
  0
ARC
  8
_0-0_0
  6
CONTINUOUS
 62
    7
 10
1059.4410424555535
 20
725.92921189087792
 40
11.550355
 50
41.887952000000006
 51
61.410941000000001
  0
ARC
  8
_0-0_0
  6
CONTINUOUS
 62
    7
 10
1047.8177404555536
 20
706.95042189088053
 40
31.676913999999993
 50
52.464824
 51
61.814107
  0
ARC
  8
_0-0_0
  6
CONTINUOUS
 62
    7
 10
1210.2898674555545
 20
673.07957189087756
 40
160.127241
 50
170.777119
 51
175.744428
  0
ARC
  8
_0-0_0
  6
CONTINUOUS
 62
    7
 10
1000.1425314555527
 20
679.67249789087873
 40
50.133085999999992
 50
6.056368
 51
31.106341000000004
  0
ARC
  8
_0-0_0
  6
CONTINUOUS
 62
    7
 10
1124.4290634555655
 20
692.53999089088029
 40
74.544302999999999
 50
172.368594
 51
185.834721
  0
ARC
  8
_0-0_0
  6
CONTINUOUS
 62
    7
 10
1167.8493624555558
 20
680.72529389087867
 40
111.68669699999998
 50
170.14558600000001
 51
177.82609199999996
  0
ARC
  8
_0-0_0
  6
CONTINUOUS
 62
    7
 10
1121.2628914555535
 20
679.38074989087909
 40
65.081023000000002
 50
170.230772
 51
175.08046599999997
  0
LINE
  8
_0-0_0
  6
CONTINUOUS
 62
    7
 10
1044.2168794555546
 20
685.46677889087732
 11
1044.2168794555546
 21
684.96188089087809
  0
LINE
  8
_0-0_0
  6
CONTINUOUS
 62
    7
 10
1044.2168794555546
 20
685.46677889087732
 11
1044.2168794555546
 21
684.96188089087809
  0
LINE
  8
_0-0_0
  6
CONTINUOUS
 62
    7
 10
1044.2168794555546
 20
685.46677889087732
 11
1044.2168794555546
 21
684.96188089087809
  0
LINE
  8
_0-0_0
  6
CONTINUOUS
 62
    7
 10
1044.2168794555546
 20
685.46677889087732
 11
1044.2168794555546
 21
684.96188089087809
  0
ARC
  8
_0-0_0
  6
CONTINUOUS
 62
    7
 10
1000.1425314555527
 20
679.67249789087873
 40
50.133085999999992
 50
6.056368
 51
31.106341000000004
  0
ARC
  8
_0-0_0
  6
CONTINUOUS
 62
    7
 10
1000.1425314555527
 20
679.67249789087873
 40
50.133085999999992
 50
6.056368
 51
31.106341000000004
  0
ARC
  8
_0-0_0
  6
CONTINUOUS
 62
    7
 10
1000.1425314555527
 20
679.67249789087873
 40
50.133085999999992
 50
6.056368
 51
31.106341000000004
  0
ARC
  8
_0-0_0
  6
CONTINUOUS
 62
    7
 10
1000.1425314555527
 20
679.67249789087873
 40
50.133085999999992
 50
6.056368
 51
31.106341000000004
  0
ARC
  8
_0-0_0
  6
CONTINUOUS
 62
    7
 10
1000.1425314555527
 20
679.67249789087873
 40
50.133085999999992
 50
6.056368
 51
31.106341000000004
  0
ARC
  8
_0-0_0
  6
CONTINUOUS
 62
    7
 10
1000.1425314555527
 20
679.67249789087873
 40
50.133085999999992
 50
6.056368
 51
31.106341000000004
  0
ARC
  8
_0-0_0
  6
CONTINUOUS
 62
    7
 10
1000.1425314555527
 20
679.67249789087873
 40
50.133085999999992
 50
6.056368
 51
31.106341000000004
  0
ARC
  8
_0-0_0
  6
CONTINUOUS
 62
    7
 10
1000.1425314555527
 20
679.67249789087873
 40
50.133085999999992
 50
6.056368
 51
31.106341000000004
  0
ARC
  8
_0-0_0
  6
CONTINUOUS
 62
    7
 10
1000.1425314555527
 20
679.67249789087873
 40
50.133085999999992
 50
6.056368
 51
31.106341000000004
  0
ARC
  8
_0-0_0
  6
CONTINUOUS
 62
    7
 10
1000.1425314555527
 20
679.67249789087873
 40
50.133085999999992
 50
6.056368
 51
31.106341000000004
  0
ARC
  8
_0-0_0
  6
CONTINUOUS
 62
    7
 10
1000.1425314555527
 20
679.67249789087873
 40
50.133085999999992
 50
6.056368
 51
31.106341000000004
  0
ARC
  8
_0-0_0
  6
CONTINUOUS
 62
    7
 10
1000.1425314555527
 20
679.67249789087873
 40
50.133085999999992
 50
6.056368
 51
31.106341000000004
  0
ARC
  8
_0-0_0
  6
CONTINUOUS
 62
    7
 10
1000.1425314555527
 20
679.67249789087873
 40
50.133085999999992
 50
6.056368
 51
31.106341000000004
  0
ARC
  8
_0-0_0
  6
CONTINUOUS
 62
    7
 10
1000.1425314555527
 20
679.67249789087873
 40
50.133085999999992
 50
6.056368
 51
31.106341000000004
  0
ARC
  8
_0-0_0
  6
CONTINUOUS
 62
    7
 10
1000.1425314555527
 20
679.67249789087873
 40
50.133085999999992
 50
6.056368
 51
31.106341000000004
  0
ARC
  8
_0-0_0
  6
CONTINUOUS
 62
    7
 10
1000.1425314555527
 20
679.67249789087873
 40
50.133085999999992
 50
6.056368
 51
31.106341000000004
  0
ARC
  8
_0-0_0
  6
CONTINUOUS
 62
    7
 10
1000.1425314555527
 20
679.67249789087873
 40
50.133085999999992
 50
6.056368
 51
31.106341000000004
  0
ARC
  8
_0-0_0
  6
CONTINUOUS
 62
    7
 10
1000.1425314555527
 20
679.67249789087873
 40
50.133085999999992
 50
6.056368
 51
31.106341000000004
  0
ARC
  8
_0-0_0
  6
CONTINUOUS
 62
    7
 10
1000.1425314555527
 20
679.67249789087873
 40
50.133085999999992
 50
6.056368
 51
31.106341000000004
  0
ARC
  8
_0-0_0
  6
CONTINUOUS
 62
    7
 10
1000.1425314555527
 20
679.67249789087873
 40
50.133085999999992
 50
6.056368
 51
31.106341000000004
  0
LINE
  8
_0-0_0
  6
CONTINUOUS
 62
    7
 10
1044.2168794555546
 20
685.46677889087732
 11
1044.2168794555546
 21
684.96188089087809
  0
LINE
  8
_0-0_0
  6
CONTINUOUS
 62
    7
 10
1044.2168794555546
 20
685.46677889087732
 11
1044.2168794555546
 21
684.96188089087809
  0
LINE
  8
_0-0_0
  6
CONTINUOUS
 62
    7
 10
1044.2168794555546
 20
685.46677889087732
 11
1044.2168794555546
 21
684.96188089087809
  0
ARC
  8
_0-0_0
  6
CONTINUOUS
 62
    7
 10
1007.6773144555555
 20
805.66515689087828
 40
36.573757000000001
 50
321.60161499999998
 51
352.611467
  0
ARC
  8
_0-0_0
  6
CONTINUOUS
 62
    7
 10
1003.6080544555516
 20
807.80201289087927
 40
46.612131999999995
 50
324.33292599999999
 51
351.56161200000003
  0
ARC
  8
_0-0_0
  6
CONTINUOUS
 62
    7
 10
1001.229300455554
 20
806.95818689087901
 40
48.988428999999989
 50
319.11646500000006
 51
352.96923200000003
  0
ARC
  8
_0-0_0
  6
CONTINUOUS
 62
    7
 10
1011.1816854555509
 20
805.09246389088003
 40
45.086665000000004
 50
320.09889199999998
 51
354.74352399999998
  0
ARC
  8
_0-0_0
  6
CONTINUOUS
 62
    7
 10
1127.6534174555563
 20
806.01209589087739
 40
71.447203999999999
 50
184.05331200000001
 51
195.15342200000001
  0
LINE
  8
_0-0_0
  6
CONTINUOUS
 62
    7
 10
1056.2904479555655
 20
242.9618798908777
 11
1044.2904479555509
 21
242.9618798908777
  0
LINE
  8
_0-1_P-0000
  6
CONTINUOUS
 62
    7
 10
1056.2904479555655
 20
1142.9618760914618
 11
1056.2904479555655
 21
1242.9618798908773
  0
LINE
  8
_0-1_P-0000
  6
CONTINUOUS
 62
    7
 10
1044.2904479555509
 20
1242.9618798908773
 11
1044.2904479555509
 21
1142.9618867019167
  0
LINE
  8
_0-1_P-0000
  6
CONTINUOUS
 62
    7
 10
1056.2904479555655
 20
580.48618951387971
 11
1056.2904479555655
 21
670.96188089087809
  0
LINE
  8
_0-1_P-0000
  6
CONTINUOUS
 62
    7
 10
1044.2904479555509
 20
670.96188089087809
 11
1044.2904479555509
 21
586.48724079593057
  0
LINE
  8
_0-1_P-0000
  6
CONTINUOUS
 62
    7
 10
1056.2904479555655
 20
342.96187547167386
 11
1056.2904479555655
 21
242.9618798908777
  0
LINE
  8
_0-1_P-0000
  6
CONTINUOUS
 62
    7
 10
1044.2904479555509
 20
242.9618798908777
 11
1044.2904479555509
 21
342.96187307983837
  0
LINE
  8
_0-0_0
  6
CONTINUOUS
 62
    7
 10
1050.2904479555509
 20
242.9618798908777
 11
1050.2904479555509
 21
342.96187989087753
  0
LINE
  8
_0-0_0
  6
CONTINUOUS
 62
    7
 10
1056.2904479555509
 20
814.96187889087741
 11
1056.2904479555509
 21
905.43757026783874
  0
LINE
  8
_0-1_P-0000
  6
CONTINUOUS
 62
    7
 10
1044.2904479555509
 20
814.96187889087741
 11
1044.2904479555509
 21
900.2625561854187
  0
LINE
  8
_0-0_0
  6
CONTINUOUS
 62
    7
 10
1050.2904479555655
 20
1142.9618798908773
 11
1050.2904479555655
 21
1242.9618798908773
  0
LINE
  8
_0-0_0
  6
CONTINUOUS
 62
    7
 10
1050.2904479555655
 20
582.96187989087753
 11
1050.2904479555655
 21
670.96188089087809
  0
LINE
  8
_0-0_0
  6
CONTINUOUS
 62
    7
 10
1050.2904479555509
 20
649.62394962674307
 11
1050.2904479555509
 21
670.96188089087809
  0
LINE
  8
_0-0_0
  6
CONTINUOUS
 62
    7
 10
1050.2904479555509
 20
814.96187889087741
 11
1050.2904479555509
 21
896.87546770559948
  0
LINE
  8
_0-0_0
  6
CONTINUOUS
 62
    7
 10
1056.2904479555655
 20
1242.9618798908773
 11
1044.2904479555509
 21
1242.9618798908773
  0
ENDSEC
  0
EOF
