  0
SECTION
  2
HEADER
  9
$ACADVER
  1
AC1009
  9
$INSBASE
 10
0
 20
0
 30
0
  9
$EXTMIN
 10
0
 20
0
  9
$EXTMAX
 10
2100
 20
1485
  9
$LIMMIN
 10
0
 20
0
  9
$LIMMAX
 10
2100
 20
1485
  9
$LTSCALE
 40
5
  0
ENDSEC
  0
SECTION
  2
TABLES
  0
TABLE
  2
LTYPE
 70
     9
  0
LTYPE
  2
CONTINUOUS
 70
    64
  3
実線
 72
    65
 73
     0
 40
0.0
  0
LTYPE
  2
DASHED1
 70
    64
  3
--  --  --  --  --  --  --  --  
 72
    65
 73
     2
 40
2.5
 49
1.25
 49
-1.25
  0
LTYPE
  2
DASHED2
 70
    64
  3
----    ----    ----    ----    
 72
    65
 73
     2
 40
5.0
 49
2.5
 49
-2.5
  0
LTYPE
  2
DASHED3
 70
    64
  3
------  ------  ------  ------  
 72
    65
 73
     2
 40
5.0
 49
3.75
 49
-1.25
  0
LTYPE
  2
CENTER1
 70
    64
  3
----- - ----- - ----- - ----- - 
 72
    65
 73
     4
 40
10.0
 49
6.25
 49
-1.25
 49
1.25
 49
-1.25
  0
LTYPE
  2
CENTER2
 70
    64
  3
----------  --  ----------  --  
 72
    65
 73
     4
 40
20.0
 49
12.5
 49
-2.5
 49
2.5
 49
-2.5
  0
LTYPE
  2
PHANTOM1
 70
    64
  3
--- - - --- - - --- - - --- - - 
 72
    65
 73
     6
 40
10.0
 49
3.25
 49
-1.25
 49
1.25
 49
-1.25
 49
1.25
 49
-1.25
  0
LTYPE
  2
PHANTOM2
 70
    64
  3
--------  -  -  --------  -  -  
 72
    65
 73
     6
 40
20.0
 49
10.0
 49
-2.5
 49
1.25
 49
-2.5
 49
1.25
 49
-2.5
  0
LTYPE
  2
DOT
 70
    64
  3
-   -   -   -   -   -   -   -   
 72
    65
 73
     2
 40
2.5
 49
0.625
 49
-1.875
  0
LTYPE
  2
DUMMY
 70
    64
  3
ダミー
 72
    65
 73
     0
 40
0.0
  0
LTYPE
  2
RAND1
 70
    64
  3
ランダム線1
 72
    65
 73
     4
 40
10.0
 49
1.0
 49
-2.0
 49
3.0
 49
-4.0
  0
LTYPE
  2
RAND2
 70
    64
  3
ランダム線2
 72
    65
 73
     4
 40
14.0
 49
2.0
 49
-3.0
 49
4.0
 49
-5.0
  0
LTYPE
  2
RAND3
 70
    64
  3
ランダム線3
 72
    65
 73
     4
 40
18.0
 49
3.0
 49
-4.0
 49
5.0
 49
-6.0
  0
LTYPE
  2
RAND4
 70
    64
  3
ランダム線4
 72
    65
 73
     4
 40
22.0
 49
4.0
 49
-5.0
 49
6.0
 49
-7.0
  0
LTYPE
  2
RAND5
 70
    64
  3
ランダム線5
 72
    65
 73
     4
 40
26.0
 49
5.0
 49
-6.0
 49
7.0
 49
-8.0
  0
LTYPE
  2
LONG1
 70
    64
  3
----------  --  ----------  --  
 72
    65
 73
     4
 40
40.0
 49
32.5
 49
-2.5
 49
2.5
 49
-2.5
  0
LTYPE
  2
LONG2
 70
    64
  3
--------  -  -  --------  -  -  
 72
    65
 73
     6
 40
40.0
 49
30.0
 49
-2.5
 49
1.25
 49
-2.5
 49
1.25
 49
-2.5
  0
LTYPE
  2
LONG3
 70
    64
  3
+++++++++++++++..+++++++++++++++
 72
    65
 73
     2
 40
40.0
 49
37.5
 49
-2.5
  0
LTYPE
  2
LONG4
 70
    64
  3
+++++++++++++++..+++++++++++++++
 72
    65
 73
     2
 40
80.0
 49
75.0
 49
-5.0
  0
LTYPE
  2
LONG5
 70
    64
  3
----------  --  ----------  --  
 72
    65
 73
     4
 40
60.0
 49
37.5
 49
-7.5
 49
7.5
 49
-7.5
  0
LTYPE
  2
dashed
 70
   64
  3
-------   -------------   ------
 72
   65
 73
    2
 40
7.5
 49
6
 49
-1.5
  0
LTYPE
  2
dashed_spaced
 70
   64
  3
----        --------        ----
 72
   65
 73
    2
 40
12
 49
6
 49
-6
  0
LTYPE
  2
long_dashed_dotted
 70
   64
  3
------------- --- --------------
 72
   65
 73
    4
 40
15.25
 49
12
 49
-1.5
 49
0.25
 49
-1.5
  0
LTYPE
  2
long_dashed_double-dotted
 70
   64
  3
----------- --- --- ------------
 72
   65
 73
    6
 40
17
 49
12
 49
-1.5
 49
0.25
 49
-1.5
 49
0.25
 49
-1.5
  0
LTYPE
  2
long_dashed_triplicate-dotted
 70
   64
  3
--------- --- --- --- ----------
 72
   65
 73
    8
 40
18.75
 49
12
 49
-1.5
 49
0.25
 49
-1.5
 49
0.25
 49
-1.5
 49
0.25
 49
-1.5
  0
LTYPE
  2
dotted
 70
   64
  3
   -       -       -       -    
 72
   65
 73
    2
 40
1.75
 49
0.25
 49
-1.5
  0
LTYPE
  2
chain
 70
   64
  3
-------------- -- --------------
 72
   65
 73
    4
 40
18.5
 49
12
 49
-1.5
 49
3.5
 49
-1.5
  0
LTYPE
  2
chain_double_dash
 70
   64
  3
------------ -- -- -------------
 72
   65
 73
    6
 40
23.5
 49
12
 49
-1.5
 49
3.5
 49
-1.5
 49
3.5
 49
-1.5
  0
LTYPE
  2
dashed_dotted
 70
   64
  3
-----------     -     ----------
 72
   65
 73
    4
 40
9.25
 49
6
 49
-1.5
 49
0.25
 49
-1.5
  0
LTYPE
  2
double-dashed_dotted
 70
   64
  3
------   -----------   -   -----
 72
   65
 73
    6
 40
16.75
 49
6
 49
-1.5
 49
6
 49
-1.5
 49
0.25
 49
-1.5
  0
LTYPE
  2
dashed_double-dotted
 70
   64
  3
---------    -    -    ---------
 72
   65
 73
    6
 40
11
 49
6
 49
-1.5
 49
0.25
 49
-1.5
 49
0.25
 49
-1.5
  0
LTYPE
  2
double-dashed_double-dotted
 70
   64
  3
-----   ---------   -   -   ----
 72
   65
 73
    8
 40
18.5
 49
6
 49
-1.5
 49
6
 49
-1.5
 49
0.25
 49
-1.5
 49
0.25
 49
-1.5
  0
LTYPE
  2
dashed_triplicate-dotted
 70
   64
  3
-------    -    -    -    ------
 72
   65
 73
    8
 40
12.75
 49
6
 49
-1.5
 49
0.25
 49
-1.5
 49
0.25
 49
-1.5
 49
0.25
 49
-1.5
  0
LTYPE
  2
double-dashed_triplicate-dotted
 70
   64
  3
-----  ---------  -  -  -  -----
 72
   65
 73
   10
 40
20.25
 49
6
 49
-1.5
 49
6
 49
-1.5
 49
0.25
 49
-1.5
 49
0.25
 49
-1.5
 49
0.25
 49
-1.5
  0
LTYPE
  2
undefined
 70
   64
  3
--------------------------------
 72
   65
 73
    0
 40
0
  0
LTYPE
  2
BORDER
 70
   64
  3
----     --------     -     ----
 72
   65
 73
    6
 40
1.76
 49
0.5
 49
-0.25
 49
0.5
 49
-0.25
 49
0.01
 49
-0.25
  0
LTYPE
  2
BORDER2
 70
   64
  3
----     --------     -     ----
 72
   65
 73
    6
 40
0.885
 49
0.25
 49
-0.125
 49
0.25
 49
-0.125
 49
0.01
 49
-0.125
  0
LTYPE
  2
BORDERX2
 70
   64
  3
----     --------     -     ----
 72
   65
 73
    6
 40
3.5099999999999998
 49
1
 49
-0.5
 49
1
 49
-0.5
 49
0.01
 49
-0.5
  0
LTYPE
  2
CENTER
 70
   64
  3
----------    ----    ----------
 72
   65
 73
    4
 40
2
 49
1.25
 49
-0.25
 49
0.25
 49
-0.25
  0
LTYPE
  2
CENTER2_21
 70
   64
  3
----------    ----    ----------
 72
   65
 73
    4
 40
1.125
 49
0.75
 49
-0.125
 49
0.125
 49
-0.125
  0
LTYPE
  2
CENTERX2
 70
   64
  3
----------    ----    ----------
 72
   65
 73
    4
 40
4
 49
2.5
 49
-0.5
 49
0.5
 49
-0.5
  0
LTYPE
  2
DASHDOT
 70
   64
  3
--------        -        -------
 72
   65
 73
    4
 40
1.01
 49
0.5
 49
-0.25
 49
0.01
 49
-0.25
  0
LTYPE
  2
DASHDOT2
 70
   64
  3
--------        -        -------
 72
   65
 73
    4
 40
0.51
 49
0.25
 49
-0.125
 49
0.01
 49
-0.125
  0
LTYPE
  2
DASHDOTX2
 70
   64
  3
--------        -        -------
 72
   65
 73
    4
 40
2.0099999999999998
 49
1
 49
-0.5
 49
0.01
 49
-0.5
  0
LTYPE
  2
DASHED
 70
   64
  3
------     -----------     -----
 72
   65
 73
    2
 40
0.75
 49
0.5
 49
-0.25
  0
LTYPE
  2
DASHED2_27
 70
   64
  3
------     -----------     -----
 72
   65
 73
    2
 40
0.375
 49
0.25
 49
-0.125
  0
LTYPE
  2
DASHEDX2
 70
   64
  3
------     -----------     -----
 72
   65
 73
    2
 40
1.5
 49
1
 49
-0.5
  0
LTYPE
  2
DIVIDE
 70
   64
  3
------      -      -      ------
 72
   65
 73
    6
 40
1.27
 49
0.5
 49
-0.25
 49
0.01
 49
-0.25
 49
0.01
 49
-0.25
  0
LTYPE
  2
DIVIDE2
 70
   64
  3
------      -      -      ------
 72
   65
 73
    6
 40
0.645
 49
0.25
 49
-0.125
 49
0.01
 49
-0.125
 49
0.01
 49
-0.125
  0
LTYPE
  2
DIVIDEX2
 70
   64
  3
------      -      -      ------
 72
   65
 73
    6
 40
2.5199999999999996
 49
1
 49
-0.5
 49
0.01
 49
-0.5
 49
0.01
 49
-0.5
  0
LTYPE
  2
DOT_32
 70
   64
  3
-               -               
 72
   65
 73
    2
 40
0.26
 49
0.01
 49
-0.25
  0
ENDTAB
  0
TABLE
  2
STYLE
  5
3
100
AcDbSymbolTable
 70
     1
  0
STYLE
  5
10
100
AcDbSymbolTableRecord
100
AcDbTextStyleTableRecord
  2
STANDARD
 70
     0
 40
0.0
 41
1.0
 50
0.0
 71
     0
 42
0.2
  3
txt
  4
bigfont.shx
  0
STYLE
  5
26
100
AcDbSymbolTableRecord
100
AcDbTextStyleTableRecord
  2
TATEGAKI
 70
    68
 40
0.0
 41
1.0
 50
0.0
 71
     0
 42
1.0
  3
txt
  4
bigfont.shx
  0
ENDTAB
  0
TABLE
  2
LAYER
 70
    3
  0
LAYER
  2
_0-0_0
 70
   64
 62
    7
  6
CONTINUOUS
  0
LAYER
  2
_0-1_P-0000
 70
   64
 62
    7
  6
CONTINUOUS
  0
LAYER
  2
ADD_LINE
 70
   64
 62
    7
  6
CONTINUOUS
  0
ENDTAB
  0
ENDSEC
  0
SECTION
  2
BLOCKS
  0
ENDSEC
  0
SECTION
  2
ENTITIES
  0
ARC
  8
_0-0_0
  6
CONTINUOUS
 62
    7
 10
1008.4752043655244
 20
726.61524176177045
 40
56.293708000000002
 50
334.833167
 51
44.289194000000023
  0
ARC
  8
_0-0_0
  6
CONTINUOUS
 62
    7
 10
1071.3875303655295
 20
841.0332007617726
 40
30.200766999999999
 50
183.97764799999999
 51
224.17664400000001
  0
ARC
  8
_0-0_0
  6
CONTINUOUS
 62
    7
 10
1030.4779193655268
 20
797.44880576177093
 40
29.639988999999996
 50
352.07570700000002
 51
49.499647999999979
  0
ARC
  8
_0-0_0
  6
CONTINUOUS
 62
    7
 10
1086.4645152407466
 20
859.91191611338945
 40
43.163501123167414
 50
189.96552900940259
 51
219.75053304851781
  0
ARC
  8
_0-0_0
  6
CONTINUOUS
 62
    7
 10
1093.4353583655247
 20
723.97709276177193
 40
58.306490999999994
 50
148.47458905803651
 51
186.665682
  0
ARC
  8
_0-0_0
  6
CONTINUOUS
 62
    7
 10
1117.1697063655229
 20
734.65789176176986
 40
83.490386000000001
 50
192.06325300000003
 51
212.80702900000003
  0
ARC
  8
_0-0_0
  6
CONTINUOUS
 62
    7
 10
1016.0107873655288
 20
661.29451076177065
 40
41.847727999999989
 50
5.7282149999999996
 51
42.232094000000004
  0
ARC
  8
_0-0_0
  6
CONTINUOUS
 62
    7
 10
1096.745138365528
 20
796.87000176177025
 40
59.630079999999992
 50
188.088998
 51
221.25023600000006
  0
ARC
  8
_0-0_0
  6
CONTINUOUS
 62
    7
 10
1069.8984703655296
 20
675.24437376177957
 40
28.909858000000007
 50
154.13556438916831
 51
198.53865500000001
  0
ARC
  8
_0-0_0
  6
CONTINUOUS
 62
    7
 10
1077.3709513655267
 20
680.42218476177004
 40
37.725990000000003
 50
202.38895500000001
 51
228.12019000000001
  0
ARC
  8
_0-0_0
  6
CONTINUOUS
 62
    7
 10
1037.8070743655262
 20
638.69128476177139
 40
19.820876999999999
 50
334.77172300000001
 51
43.49340200000001
  0
ARC
  8
_0-0_0
  6
CONTINUOUS
 62
    7
 10
996.47331785766437
 20
683.47237145532199
 40
47.613464592682377
 50
5.2826597677354235
 51
22.516670107547561
  0
ARC
  8
_0-0_0
  6
CONTINUOUS
 62
    7
 10
985.67875636552344
 20
722.36001976177067
 40
75.003485999999981
 50
338.48065200000002
 51
27.983515999999995
  0
ARC
  8
_0-0_0
  6
CONTINUOUS
 62
    7
 10
1129.0731563655281
 20
668.54808076177142
 40
77.560073000000003
 50
153.89485800000003
 51
165.54322700000003
  0
ARC
  8
_0-0_0
  6
CONTINUOUS
 62
    7
 10
1134.7454653655295
 20
672.78937976177986
 40
82.302465999999981
 50
164.45388
 51
169.32023899999999
  0
ARC
  8
_0-0_0
  6
CONTINUOUS
 62
    7
 10
1067.6675023655262
 20
662.05754176177288
 40
27.240922999999995
 50
163.68602999999999
 51
212.4269700000001
  0
ARC
  8
_0-0_0
  6
CONTINUOUS
 62
    7
 10
1031.2367393655295
 20
670.57069476177276
 40
28.590828999999999
 50
327.903121
 51
41.249770000000034
  0
ARC
  8
_0-0_0
  6
CONTINUOUS
 62
    7
 10
1076.8925816457631
 20
642.19815060785186
 40
36.440543954343326
 50
163.03783396540743
 51
200.70727878357977
  0
ARC
  8
_0-0_0
  6
CONTINUOUS
 62
    7
 10
1071.9928273655241
 20
651.42393576176983
 40
17.001745
 50
166.54858899999999
 51
191.97761600000001
  0
ARC
  8
_0-0_0
  6
CONTINUOUS
 62
    7
 10
1030.3472203655256
 20
666.11708076177092
 40
27.309960999999994
 50
336.84643399999993
 51
358.64509200000003
  0
ARC
  8
_0-0_0
  6
CONTINUOUS
 62
    7
 10
955.27432236552704
 20
798.76222076178237
 40
104.69988899999997
 50
338.91934100000003
 51
357.04374000000007
  0
ARC
  8
_0-0_0
  6
CONTINUOUS
 62
    7
 10
1131.3645683655268
 20
748.04965176177939
 40
98.082694000000004
 50
191.61319800000001
 51
216.70809199999999
  0
ARC
  8
_0-0_0
  6
CONTINUOUS
 62
    7
 10
1029.9716333655233
 20
813.55479276176993
 40
29.917042999999989
 50
345.15650599999998
 51
38.825210000000034
  0
ARC
  8
_0-0_0
  6
CONTINUOUS
 62
    7
 10
986.8628383655232
 20
759.0561627617717
 40
57.056662999999986
 50
355.38379667197472
 51
13.674869000000028
  0
ARC
  8
_0-0_0
  6
CONTINUOUS
 62
    7
 10
1070.5859403655268
 20
796.09030376178271
 40
33.747042999999991
 50
177.17237499999996
 51
193.03395900000004
  0
ARC
  8
_0-0_0
  6
CONTINUOUS
 62
    7
 10
1093.0145663655276
 20
800.58935376177033
 40
56.206088000000001
 50
150.587749
 51
218.07948400000001
  0
ARC
  8
_0-0_0
  6
CONTINUOUS
 62
    7
 10
1036.1833793655242
 20
839.86234876176968
 40
22.373542
 50
330.37537600000002
 51
19.757742999999987
  0
ARC
  8
_0-0_0
  6
CONTINUOUS
 62
    7
 10
1092.9222480437966
 20
835.65694047195211
 40
51.766836103322191
 50
161.07998473426099
 51
176.3657900767958
  0
ARC
  8
_0-0_0
  6
CONTINUOUS
 62
    7
 10
1120.7137203655293
 20
867.81219276177944
 40
66.667479
 50
193.73360960048211
 51
197.80600799999999
  0
ARC
  8
_0-0_0
  6
CONTINUOUS
 62
    7
 10
796.41622778518649
 20
559.0528471566322
 40
256.21177398512742
 50
14.95286780006934
 51
15.915947046716211
  0
ARC
  8
_0-0_0
  6
CONTINUOUS
 62
    7
 10
1031.3670033655289
 20
636.19918876176962
 40
17.426030999999998
 50
325.72423600000013
 51
40.214416000000114
  0
LINE
  8
_0-0_0
  6
CONTINUOUS
 62
    7
 10
1041.1914411184043
 20
800.45753445655282
 11
1041.0947311184063
 21
798.67403445655145
  0
LINE
  8
_0-0_0
  6
CONTINUOUS
 62
    7
 10
1041.0947311184063
 20
798.67403445655145
 11
1041.5137761184087
 21
797.00028645655038
  0
LINE
  8
_0-0_0
  6
CONTINUOUS
 62
    7
 10
1041.5137761184087
 20
797.00028645655038
 11
1041.8361101184055
 21
794.39363145655079
  0
LINE
  8
_0-0_0
  6
CONTINUOUS
 62
    7
 10
1041.8361101184055
 20
794.39363145655079
 11
1042.2551471184051
 21
792.19855545655082
  0
LINE
  8
_0-0_0
  6
CONTINUOUS
 62
    7
 10
1042.2551471184051
 20
792.19855545655082
 11
1042.9642911184055
 21
790.3052984565511
  0
LINE
  8
_0-0_0
  6
CONTINUOUS
 62
    7
 10
1042.9642911184055
 20
790.3052984565511
 11
1043.2866261184099
 21
789.48214745656151
  0
LINE
  8
_0-0_0
  6
CONTINUOUS
 62
    7
 10
1043.2866261184099
 20
789.48214745656151
 11
1044.4470411184084
 21
788.32972745655206
  0
LINE
  8
_0-0_0
  6
CONTINUOUS
 62
    7
 10
1044.4470411184084
 20
788.32972745655206
 11
1045.4785201184059
 21
788.21997845655278
  0
LINE
  8
_0-0_0
  6
CONTINUOUS
 62
    7
 10
1045.4785201184059
 20
788.21997845655278
 11
1045.8008621184053
 21
789.48214745656151
  0
LINE
  8
_0-0_0
  6
CONTINUOUS
 62
    7
 10
1045.8008621184053
 20
789.48214745656151
 11
1045.0594831184062
 21
790.63455945655005
  0
LINE
  8
_0-0_0
  6
CONTINUOUS
 62
    7
 10
1045.0594831184062
 20
790.63455945655005
 11
1044.2214101183999
 21
792.08879845655247
  0
LINE
  8
_0-0_0
  6
CONTINUOUS
 62
    7
 10
1044.2214101183999
 20
792.08879845655247
 11
1044.0280051184091
 21
793.6527944565496
  0
LINE
  8
_0-0_0
  6
CONTINUOUS
 62
    7
 10
1044.0280051184091
 20
793.6527944565496
 11
1043.4800311184081
 21
795.43629445655097
  0
LINE
  8
_0-0_0
  6
CONTINUOUS
 62
    7
 10
1043.4800311184081
 20
795.43629445655097
 11
1043.1899311184097
 21
797.52161845655064
  0
LINE
  8
_0-0_0
  6
CONTINUOUS
 62
    7
 10
1043.1899311184097
 20
797.52161845655064
 11
1042.867589118403
 21
798.97585645655272
  0
LINE
  8
_0-0_0
  6
CONTINUOUS
 62
    7
 10
1042.867589118403
 20
798.97585645655272
 11
1042.5452551184062
 21
800.53984845655214
  0
LINE
  8
_0-0_0
  6
CONTINUOUS
 62
    7
 10
1042.5452551184062
 20
800.53984845655214
 11
1041.1914411184043
 21
800.53984845655214
  0
LINE
  8
_0-0_0
  6
CONTINUOUS
 62
    7
 10
1039.5135683558692
 20
734.70663815503212
 11
1039.2079463655245
 21
733.50993276177178
  0
LINE
  8
_0-0_0
  6
CONTINUOUS
 62
    7
 10
1039.2079463655245
 20
733.50993276177178
 11
1038.7889093655249
 21
731.83618876177934
  0
LINE
  8
_0-0_0
  6
CONTINUOUS
 62
    7
 10
1038.7889093655249
 20
731.83618876177934
 11
1038.6922143655247
 21
730.5740157617729
  0
LINE
  8
_0-0_0
  6
CONTINUOUS
 62
    7
 10
1038.6922143655247
 20
730.5740157617729
 11
1038.6922143655247
 21
728.70820176177949
  0
LINE
  8
_0-0_0
  6
CONTINUOUS
 62
    7
 10
1038.6922143655247
 20
728.70820176177949
 11
1038.6922143655247
 21
727.2539627617698
  0
LINE
  8
_0-0_0
  6
CONTINUOUS
 62
    7
 10
1038.6922143655247
 20
727.2539627617698
 11
1038.6922143655247
 21
725.6625327617694
  0
LINE
  8
_0-0_0
  6
CONTINUOUS
 62
    7
 10
1038.6922143655247
 20
725.6625327617694
 11
1039.2079463655245
 21
723.68696176177036
  0
LINE
  8
_0-0_0
  6
CONTINUOUS
 62
    7
 10
1039.2079463655245
 20
723.68696176177036
 11
1039.5302873655237
 21
722.6442987617811
  0
LINE
  8
_0-0_0
  6
CONTINUOUS
 62
    7
 10
1039.5302873655237
 20
722.6442987617811
 11
1040.78739836553
 21
722.01321376177293
  0
LINE
  8
_0-0_0
  6
CONTINUOUS
 62
    7
 10
1040.78739836553
 20
722.01321376177293
 11
1041.3998403655278
 21
723.46745276177171
  0
LINE
  8
_0-0_0
  6
CONTINUOUS
 62
    7
 10
1041.3998403655278
 20
723.46745276177171
 11
1040.9808033655281
 21
724.42779876178247
  0
LINE
  8
_0-0_0
  6
CONTINUOUS
 62
    7
 10
1040.9808033655281
 20
724.42779876178247
 11
1040.6907033655298
 21
725.58021476177964
  0
LINE
  8
_0-0_0
  6
CONTINUOUS
 62
    7
 10
1040.6907033655298
 20
725.58021476177964
 11
1040.368361365523
 21
726.81494876177021
  0
LINE
  8
_0-0_0
  6
CONTINUOUS
 62
    7
 10
1040.368361365523
 20
726.81494876177021
 11
1040.5617663655285
 21
729.64110876177074
  0
LINE
  8
_0-0_0
  6
CONTINUOUS
 62
    7
 10
1040.5617663655285
 20
729.64110876177074
 11
1040.5617663655285
 21
731.01303476177054
  0
LINE
  8
_0-0_0
  6
CONTINUOUS
 62
    7
 10
1040.5617663655285
 20
731.01303476177054
 11
1040.5617663655285
 21
732.46727376177296
  0
LINE
  8
_0-0_0
  6
CONTINUOUS
 62
    7
 10
1040.5617663655285
 20
732.46727376177296
 11
1041.1097403655294
 21
733.40018076177148
  0
LINE
  8
_0-0_0
  6
CONTINUOUS
 62
    7
 10
1041.1097403655294
 20
733.40018076177148
 11
1039.5135683558692
 21
734.70663815503212
  0
LINE
  8
_0-0_0
  6
CONTINUOUS
 62
    7
 10
1055.0991813655273
 20
738.61348876176999
 11
1055.2925863655255
 21
736.8574267617696
  0
LINE
  8
_0-0_0
  6
CONTINUOUS
 62
    7
 10
1055.2925863655255
 20
736.8574267617696
 11
1055.5182173655267
 21
735.7050107617797
  0
LINE
  8
_0-0_0
  6
CONTINUOUS
 62
    7
 10
1055.5182173655267
 20
735.7050107617797
 11
1055.6149203655295
 21
734.55259476178253
  0
LINE
  8
_0-0_0
  6
CONTINUOUS
 62
    7
 10
1055.6149203655295
 20
734.55259476178253
 11
1055.6149203655295
 21
733.40018076177148
  0
LINE
  8
_0-0_0
  6
CONTINUOUS
 62
    7
 10
1055.6149203655295
 20
733.40018076177148
 11
1055.9372543655263
 21
732.13801176177003
  0
LINE
  8
_0-0_0
  6
CONTINUOUS
 62
    7
 10
1055.9372543655263
 20
732.13801176177003
 11
1056.0339573655292
 21
731.20510076177015
  0
LINE
  8
_0-0_0
  6
CONTINUOUS
 62
    7
 10
1056.0339573655292
 20
731.20510076177015
 11
1056.1306593655245
 21
730.05268776177036
  0
LINE
  8
_0-0_0
  6
CONTINUOUS
 62
    7
 10
1056.1306593655245
 20
730.05268776177036
 11
1056.8720383655236
 21
730.49170276177028
  0
LINE
  8
_0-0_0
  6
CONTINUOUS
 62
    7
 10
1056.8720383655236
 20
730.49170276177028
 11
1057.194373365528
 21
731.31485676178272
  0
LINE
  8
_0-0_0
  6
CONTINUOUS
 62
    7
 10
1057.194373365528
 20
731.31485676178272
 11
1057.194373365528
 21
733.20811076177051
  0
LINE
  8
_0-0_0
  6
CONTINUOUS
 62
    7
 10
1057.194373365528
 20
733.20811076177051
 11
1057.194373365528
 21
734.44284176178189
  0
LINE
  8
_0-0_0
  6
CONTINUOUS
 62
    7
 10
1057.194373365528
 20
734.44284176178189
 11
1056.9687333655238
 21
735.92451776178132
  0
LINE
  8
_0-0_0
  6
CONTINUOUS
 62
    7
 10
1056.9687333655238
 20
735.92451776178132
 11
1056.8720383655236
 21
737.04949676178148
  0
LINE
  8
_0-0_0
  6
CONTINUOUS
 62
    7
 10
1056.8720383655236
 20
737.04949676178148
 11
1056.356291365526
 21
738.4214207617697
  0
LINE
  8
_0-0_0
  6
CONTINUOUS
 62
    7
 10
1056.356291365526
 20
738.4214207617697
 11
1055.9372543655263
 21
739.57383476176983
  0
LINE
  8
_0-0_0
  6
CONTINUOUS
 62
    7
 10
1055.9372543655263
 20
739.57383476176983
 11
1055.0991813655273
 21
740.28723476177038
  0
LINE
  8
_0-0_0
  6
CONTINUOUS
 62
    7
 10
1055.0991813655273
 20
740.28723476177038
 11
1054.8735413655231
 21
740.20491976177073
  0
LINE
  8
_0-0_0
  6
CONTINUOUS
 62
    7
 10
1054.8735413655231
 20
740.20491976177073
 11
1055.0991813655273
 21
738.61348876176999
  0
LINE
  8
_0-0_0
  6
CONTINUOUS
 62
    7
 10
1053.0039813655239
 20
714.38532276177284
 11
1053.7453603655231
 21
712.62926076177973
  0
LINE
  8
_0-0_0
  6
CONTINUOUS
 62
    7
 10
1053.7453603655231
 20
712.62926076177973
 11
1054.3578023655282
 21
709.91284976177121
  0
LINE
  8
_0-0_0
  6
CONTINUOUS
 62
    7
 10
1054.3578023655282
 20
709.91284976177121
 11
1054.6801443655277
 21
709.06225976176938
  0
LINE
  8
_0-0_0
  6
CONTINUOUS
 62
    7
 10
1054.6801443655277
 20
709.06225976176938
 11
1054.7768393655278
 21
708.32141876177047
  0
LINE
  8
_0-0_0
  6
CONTINUOUS
 62
    7
 10
1054.7768393655278
 20
708.32141876177047
 11
1055.0991813655273
 21
707.38851176178287
  0
LINE
  8
_0-0_0
  6
CONTINUOUS
 62
    7
 10
1055.0991813655273
 20
707.38851176178287
 11
1055.4215153655241
 21
706.04402576177017
  0
LINE
  8
_0-0_0
  6
CONTINUOUS
 62
    7
 10
1055.4215153655241
 20
706.04402576177017
 11
1055.7116233655252
 21
704.89160876177993
  0
LINE
  8
_0-0_0
  6
CONTINUOUS
 62
    7
 10
1055.7116233655252
 20
704.89160876177993
 11
1055.7116233655252
 21
704.48003376177076
  0
LINE
  8
_0-0_0
  6
CONTINUOUS
 62
    7
 10
1055.7116233655252
 20
704.48003376177076
 11
1055.8405593655261
 21
703.21786476177294
  0
LINE
  8
_0-0_0
  6
CONTINUOUS
 62
    7
 10
1055.8405593655261
 20
703.21786476177294
 11
1056.5496963655241
 21
703.62944076178246
  0
LINE
  8
_0-0_0
  6
CONTINUOUS
 62
    7
 10
1056.5496963655241
 20
703.62944076178246
 11
1057.194373365528
 21
704.56234776177007
  0
LINE
  8
_0-0_0
  6
CONTINUOUS
 62
    7
 10
1057.194373365528
 20
704.56234776177007
 11
1056.8720383655236
 21
705.93427276176953
  0
LINE
  8
_0-0_0
  6
CONTINUOUS
 62
    7
 10
1056.8720383655236
 20
705.93427276176953
 11
1056.6786333655255
 21
707.19644176177098
  0
LINE
  8
_0-0_0
  6
CONTINUOUS
 62
    7
 10
1056.6786333655255
 20
707.19644176177098
 11
1056.356291365526
 21
708.32141876177047
  0
LINE
  8
_0-0_0
  6
CONTINUOUS
 62
    7
 10
1056.356291365526
 20
708.32141876177047
 11
1056.2595963655258
 21
709.36408176177065
  0
LINE
  8
_0-0_0
  6
CONTINUOUS
 62
    7
 10
1056.2595963655258
 20
709.36408176177065
 11
1056.0339573655292
 21
710.51649876178271
  0
LINE
  8
_0-0_0
  6
CONTINUOUS
 62
    7
 10
1056.0339573655292
 20
710.51649876178271
 11
1055.7116233655252
 21
711.88841976176991
  0
LINE
  8
_0-0_0
  6
CONTINUOUS
 62
    7
 10
1055.7116233655252
 20
711.88841976176991
 11
1055.6149203655295
 21
712.19024276177151
  0
LINE
  8
_0-0_0
  6
CONTINUOUS
 62
    7
 10
1055.6149203655295
 20
712.19024276177151
 11
1054.7768393655278
 21
713.86399076177258
  0
LINE
  8
_0-0_0
  6
CONTINUOUS
 62
    7
 10
1054.7768393655278
 20
713.86399076177258
 11
1054.261107365528
 21
714.27556576178176
  0
LINE
  8
_0-0_0
  6
CONTINUOUS
 62
    7
 10
1054.261107365528
 20
714.27556576178176
 11
1053.0039813655239
 21
714.38532276177284
  0
LINE
  8
_0-0_0
  6
CONTINUOUS
 62
    7
 10
1048.2011553655248
 20
733.29042776178176
 11
1047.7821183655251
 21
731.83618876177934
  0
LINE
  8
_0-0_0
  6
CONTINUOUS
 62
    7
 10
1047.7821183655251
 20
731.83618876177934
 11
1047.7821183655251
 21
730.05268776177036
  0
LINE
  8
_0-0_0
  6
CONTINUOUS
 62
    7
 10
1047.7821183655251
 20
730.05268776177036
 11
1047.7821183655251
 21
729.01002476177018
  0
LINE
  8
_0-0_0
  6
CONTINUOUS
 62
    7
 10
1047.7821183655251
 20
729.01002476177018
 11
1047.7821183655251
 21
727.66553876178295
  0
LINE
  8
_0-0_0
  6
CONTINUOUS
 62
    7
 10
1047.7821183655251
 20
727.66553876178295
 11
1047.7821183655251
 21
726.70519176178277
  0
LINE
  8
_0-0_0
  6
CONTINUOUS
 62
    7
 10
1047.7821183655251
 20
726.70519176178277
 11
1048.1044603655246
 21
725.36070976177143
  0
LINE
  8
_0-0_0
  6
CONTINUOUS
 62
    7
 10
1048.1044603655246
 20
725.36070976177143
 11
1048.6202003655271
 21
724.09853676177227
  0
LINE
  8
_0-0_0
  6
CONTINUOUS
 62
    7
 10
1048.6202003655271
 20
724.09853676177227
 11
1049.554976365529
 21
722.75405476177184
  0
LINE
  8
_0-0_0
  6
CONTINUOUS
 62
    7
 10
1049.554976365529
 20
722.75405476177184
 11
1050.0707153655239
 21
722.53454576176955
  0
LINE
  8
_0-0_0
  6
CONTINUOUS
 62
    7
 10
1050.0707153655239
 20
722.53454576176955
 11
1050.908797365526
 21
722.94612476177281
  0
LINE
  8
_0-0_0
  6
CONTINUOUS
 62
    7
 10
1050.908797365526
 20
722.94612476177281
 11
1051.2311313655227
 21
723.79671476178191
  0
LINE
  8
_0-0_0
  6
CONTINUOUS
 62
    7
 10
1051.2311313655227
 20
723.79671476178191
 11
1050.908797365526
 21
724.61986876177252
  0
LINE
  8
_0-0_0
  6
CONTINUOUS
 62
    7
 10
1050.908797365526
 20
724.61986876177252
 11
1050.7153923655278
 21
725.47046276177207
  0
LINE
  8
_0-0_0
  6
CONTINUOUS
 62
    7
 10
1050.7153923655278
 20
725.47046276177207
 11
1050.4897603655263
 21
726.29361676176995
  0
LINE
  8
_0-0_0
  6
CONTINUOUS
 62
    7
 10
1050.4897603655263
 20
726.29361676176995
 11
1050.3930503655283
 21
727.33627676177275
  0
LINE
  8
_0-0_0
  6
CONTINUOUS
 62
    7
 10
1050.3930503655283
 20
727.33627676177275
 11
1050.3930503655283
 21
728.59844976177192
  0
LINE
  8
_0-0_0
  6
CONTINUOUS
 62
    7
 10
1050.3930503655283
 20
728.59844976177192
 11
1050.3930503655283
 21
729.33928676176947
  0
LINE
  8
_0-0_0
  6
CONTINUOUS
 62
    7
 10
1050.3930503655283
 20
729.33928676176947
 11
1050.2963553655281
 21
731.09534776176952
  0
LINE
  8
_0-0_0
  6
CONTINUOUS
 62
    7
 10
1050.2963553655281
 20
731.09534776176952
 11
1049.9740133655287
 21
732.13801176177003
  0
LINE
  8
_0-0_0
  6
CONTINUOUS
 62
    7
 10
1049.9740133655287
 20
732.13801176177003
 11
1049.6516793655246
 21
732.87884876177122
  0
LINE
  8
_0-0_0
  6
CONTINUOUS
 62
    7
 10
1049.6516793655246
 20
732.87884876177122
 11
1049.1359393655293
 21
733.29042776178176
  0
LINE
  8
_0-0_0
  6
CONTINUOUS
 62
    7
 10
1049.1359393655293
 20
733.29042776178176
 11
1048.7169023655297
 21
733.29042776178176
  0
LINE
  8
_0-0_0
  6
CONTINUOUS
 62
    7
 10
1048.7169023655297
 20
733.29042776178176
 11
1048.2011553655248
 21
733.29042776178176
  0
LINE
  8
_0-0_0
  6
CONTINUOUS
 62
    7
 10
1048.2011553655248
 20
754.39060876177973
 11
1048.2011553655248
 21
752.8266157617727
  0
LINE
  8
_0-0_0
  6
CONTINUOUS
 62
    7
 10
1048.2011553655248
 20
752.8266157617727
 11
1048.0077583655293
 21
751.67420076177223
  0
LINE
  8
_0-0_0
  6
CONTINUOUS
 62
    7
 10
1048.0077583655293
 20
751.67420076177223
 11
1047.7821183655251
 21
750.63153876177967
  0
LINE
  8
_0-0_0
  6
CONTINUOUS
 62
    7
 10
1047.7821183655251
 20
750.63153876177967
 11
1047.5887213655296
 21
748.95779176178257
  0
LINE
  8
_0-0_0
  6
CONTINUOUS
 62
    7
 10
1047.5887213655296
 20
748.95779176178257
 11
1047.1696763655273
 21
747.39379776177157
  0
LINE
  8
_0-0_0
  6
CONTINUOUS
 62
    7
 10
1047.1696763655273
 20
747.39379776177157
 11
1047.0407473655287
 21
746.76271376177101
  0
LINE
  8
_0-0_0
  6
CONTINUOUS
 62
    7
 10
1047.0407473655287
 20
746.76271376177101
 11
1047.2663873655256
 21
744.26581276177239
  0
LINE
  8
_0-0_0
  6
CONTINUOUS
 62
    7
 10
1047.2663873655256
 20
744.26581276177239
 11
1049.0392373655268
 21
742.59206676178292
  0
LINE
  8
_0-0_0
  6
CONTINUOUS
 62
    7
 10
1049.0392373655268
 20
742.59206676178292
 11
1049.554976365529
 21
743.85423576176981
  0
LINE
  8
_0-0_0
  6
CONTINUOUS
 62
    7
 10
1049.554976365529
 20
743.85423576176981
 11
1049.3615713655236
 21
745.19872176178251
  0
LINE
  8
_0-0_0
  6
CONTINUOUS
 62
    7
 10
1049.3615713655236
 20
745.19872176178251
 11
1049.232642365525
 21
746.24138376177143
  0
LINE
  8
_0-0_0
  6
CONTINUOUS
 62
    7
 10
1049.232642365525
 20
746.24138376177143
 11
1049.3615713655236
 21
747.83281476177945
  0
LINE
  8
_0-0_0
  6
CONTINUOUS
 62
    7
 10
1049.3615713655236
 20
747.83281476177945
 11
1049.8773183655285
 21
749.9181377617715
  0
LINE
  8
_0-0_0
  6
CONTINUOUS
 62
    7
 10
1049.8773183655285
 20
749.9181377617715
 11
1049.9740133655287
 21
752.11321576177943
  0
LINE
  8
_0-0_0
  6
CONTINUOUS
 62
    7
 10
1049.9740133655287
 20
752.11321576177943
 11
1049.9740133655287
 21
753.04612276177068
  0
LINE
  8
_0-0_0
  6
CONTINUOUS
 62
    7
 10
1049.9740133655287
 20
753.04612276177068
 11
1048.2011553655248
 21
754.39060876177973
  0
LINE
  8
_0-0_0
  6
CONTINUOUS
 62
    7
 10
1045.1711873655295
 20
712.51950476178172
 11
1045.3968263655261
 21
710.62625076177937
  0
LINE
  8
_0-0_0
  6
CONTINUOUS
 62
    7
 10
1045.3968263655261
 20
710.62625076177937
 11
1046.1059713655268
 21
709.06225976176938
  0
LINE
  8
_0-0_0
  6
CONTINUOUS
 62
    7
 10
1046.1059713655268
 20
709.06225976176938
 11
1046.7506393655276
 21
707.71777376177124
  0
LINE
  8
_0-0_0
  6
CONTINUOUS
 62
    7
 10
1046.7506393655276
 20
707.71777376177124
 11
1047.3630813655254
 21
706.56535676177009
  0
LINE
  8
_0-0_0
  6
CONTINUOUS
 62
    7
 10
1047.3630813655254
 20
706.56535676177009
 11
1048.1044603655246
 21
705.00136576178193
  0
LINE
  8
_0-0_0
  6
CONTINUOUS
 62
    7
 10
1048.1044603655246
 20
705.00136576178193
 11
1049.0392373655268
 21
703.62944076178246
  0
LINE
  8
_0-0_0
  6
CONTINUOUS
 62
    7
 10
1049.0392373655268
 20
703.62944076178246
 11
1051.0377343655273
 21
701.95569576177149
  0
LINE
  8
_0-0_0
  6
CONTINUOUS
 62
    7
 10
1051.0377343655273
 20
701.95569576177149
 11
1051.9725023655265
 21
701.76362276176951
  0
LINE
  8
_0-0_0
  6
CONTINUOUS
 62
    7
 10
1051.9725023655265
 20
701.76362276176951
 11
1052.4882493655241
 21
702.88860276177002
  0
LINE
  8
_0-0_0
  6
CONTINUOUS
 62
    7
 10
1052.4882493655241
 20
702.88860276177002
 11
1051.5534653655268
 21
704.37028076177012
  0
LINE
  8
_0-0_0
  6
CONTINUOUS
 62
    7
 10
1051.5534653655268
 20
704.37028076177012
 11
1050.3930503655283
 21
705.93427276176953
  0
LINE
  8
_0-0_0
  6
CONTINUOUS
 62
    7
 10
1050.3930503655283
 20
705.93427276176953
 11
1049.8773183655285
 21
707.19644176177098
  0
LINE
  8
_0-0_0
  6
CONTINUOUS
 62
    7
 10
1049.8773183655285
 20
707.19644176177098
 11
1049.554976365529
 21
708.12934876176951
  0
LINE
  8
_0-0_0
  6
CONTINUOUS
 62
    7
 10
1049.554976365529
 20
708.12934876176951
 11
1048.8458393655237
 21
709.58358776177192
  0
LINE
  8
_0-0_0
  6
CONTINUOUS
 62
    7
 10
1048.8458393655237
 20
709.58358776177192
 11
1048.5234973655242
 21
710.84575976177075
  0
LINE
  8
_0-0_0
  6
CONTINUOUS
 62
    7
 10
1048.5234973655242
 20
710.84575976177075
 11
1048.0077583655293
 21
711.88841976176991
  0
LINE
  8
_0-0_0
  6
CONTINUOUS
 62
    7
 10
1048.0077583655293
 20
711.88841976176991
 11
1047.5887213655296
 21
712.71157476177177
  0
LINE
  8
_0-0_0
  6
CONTINUOUS
 62
    7
 10
1047.5887213655296
 20
712.71157476177177
 11
1046.8473423655232
 21
713.45241176177296
  0
LINE
  8
_0-0_0
  6
CONTINUOUS
 62
    7
 10
1046.8473423655232
 20
713.45241176177296
 11
1045.3968263655261
 21
713.56216776177098
  0
LINE
  8
_0-0_0
  6
CONTINUOUS
 62
    7
 10
1045.3968263655261
 20
713.56216776177098
 11
1045.1711873655295
 21
712.51950476178172
  0
ARC
  8
_0-1_P-0000
  6
CONTINUOUS
 62
    7
 10
1013.3095191537577
 20
653.63007980619295
 40
45.893936267081941
 50
14.952206043165489
 51
48.22472778089152
  0
LINE
  8
_0-0_0
  6
CONTINUOUS
 62
    7
 10
1043.6233371815179
 20
817.21418416799133
 11
1043.1899311184097
 21
815.16455445655083
  0
LINE
  8
_0-0_0
  6
CONTINUOUS
 62
    7
 10
1043.1899311184097
 20
815.16455445655083
 11
1042.867589118403
 21
813.4084964565518
  0
LINE
  8
_0-0_0
  6
CONTINUOUS
 62
    7
 10
1042.867589118403
 20
813.4084964565518
 11
1042.7708941184028
 21
812.14632045655162
  0
LINE
  8
_0-0_0
  6
CONTINUOUS
 62
    7
 10
1042.7708941184028
 20
812.14632045655162
 11
1042.7708941184028
 21
810.77440245655089
  0
LINE
  8
_0-0_0
  6
CONTINUOUS
 62
    7
 10
1042.7708941184028
 20
810.77440245655089
 11
1042.867589118403
 21
809.12808645655241
  0
LINE
  8
_0-0_0
  6
CONTINUOUS
 62
    7
 10
1042.867589118403
 20
809.12808645655241
 11
1043.6089681184094
 21
807.75616845655168
  0
LINE
  8
_0-0_0
  6
CONTINUOUS
 62
    7
 10
1043.6089681184094
 20
807.75616845655168
 11
1044.2214101183999
 21
808.27750045655193
  0
LINE
  8
_0-0_0
  6
CONTINUOUS
 62
    7
 10
1044.2214101183999
 20
808.27750045655193
 11
1044.2214101183999
 21
809.42992045655046
  0
LINE
  8
_0-0_0
  6
CONTINUOUS
 62
    7
 10
1044.2214101183999
 20
809.42992045655046
 11
1044.2214101183999
 21
810.88415945655288
  0
LINE
  8
_0-0_0
  6
CONTINUOUS
 62
    7
 10
1044.2214101183999
 20
810.88415945655288
 11
1044.2214101183999
 21
812.25607645654964
  0
LINE
  8
_0-0_0
  6
CONTINUOUS
 62
    7
 10
1044.2214101183999
 20
812.25607645654964
 11
1044.2214101183999
 21
813.71031545655205
  0
LINE
  8
_0-0_0
  6
CONTINUOUS
 62
    7
 10
1044.2214101183999
 20
813.71031545655205
 11
1044.4470411184084
 21
814.86273545655058
  0
LINE
  8
_0-0_0
  6
CONTINUOUS
 62
    7
 10
1044.4470411184084
 20
814.86273545655058
 11
1045.3818251184057
 21
816.53647245655156
  0
LINE
  8
_0-0_0
  6
CONTINUOUS
 62
    7
 10
1045.3818251184057
 20
816.53647245655156
 11
1045.5752231184088
 21
817.68889245655009
  0
LINE
  8
_0-0_0
  6
CONTINUOUS
 62
    7
 10
1045.5752231184088
 20
817.68889245655009
 11
1043.6233371815179
 21
817.21418416799133
  0
LINE
  8
_0-0_0
  6
CONTINUOUS
 62
    7
 10
1050.1921380507047
 20
807.85884114462169
 11
1050.0104783146089
 21
805.38457351520992
  0
LINE
  8
_0-0_0
  6
CONTINUOUS
 62
    7
 10
1050.0104783146089
 20
805.38457351520992
 11
1049.9137753146133
 21
803.82057751521279
  0
LINE
  8
_0-0_0
  6
CONTINUOUS
 62
    7
 10
1049.9137753146133
 20
803.82057751521279
 11
1049.9137753146133
 21
802.3389035152104
  0
LINE
  8
_0-0_0
  6
CONTINUOUS
 62
    7
 10
1049.9137753146133
 20
802.3389035152104
 11
1050.1394073146075
 21
800.77491251521133
  0
LINE
  8
_0-0_0
  6
CONTINUOUS
 62
    7
 10
1050.1394073146075
 20
800.77491251521133
 11
1050.6551543146197
 21
799.21091651521056
  0
LINE
  8
_0-0_0
  6
CONTINUOUS
 62
    7
 10
1050.6551543146197
 20
799.21091651521056
 11
1051.1708863146196
 21
796.90608451521257
  0
LINE
  8
_0-0_0
  6
CONTINUOUS
 62
    7
 10
1051.1708863146196
 20
796.90608451521257
 11
1051.589930314607
 21
795.1500265152099
  0
LINE
  8
_0-0_0
  6
CONTINUOUS
 62
    7
 10
1051.589930314607
 20
795.1500265152099
 11
1053.1693833146128
 21
795.45184551521015
  0
LINE
  8
_0-0_0
  6
CONTINUOUS
 62
    7
 10
1053.1693833146128
 20
795.45184551521015
 11
1053.0404463146187
 21
797.01584051521058
  0
LINE
  8
_0-0_0
  6
CONTINUOUS
 62
    7
 10
1053.0404463146187
 20
797.01584051521058
 11
1052.5247073146093
 21
798.27800951521203
  0
LINE
  8
_0-0_0
  6
CONTINUOUS
 62
    7
 10
1052.5247073146093
 20
798.27800951521203
 11
1052.2023723146194
 21
800.25358051521107
  0
LINE
  8
_0-0_0
  6
CONTINUOUS
 62
    7
 10
1052.2023723146194
 20
800.25358051521107
 11
1052.0089673146067
 21
801.70781951520985
  0
LINE
  8
_0-0_0
  6
CONTINUOUS
 62
    7
 10
1052.0089673146067
 20
801.70781951520985
 11
1051.9122653146187
 21
803.71082151521114
  0
LINE
  8
_0-0_0
  6
CONTINUOUS
 62
    7
 10
1051.9122653146187
 20
803.71082151521114
 11
1051.7833283146028
 21
805.90590451520984
  0
LINE
  8
_0-0_0
  6
CONTINUOUS
 62
    7
 10
1051.7833283146028
 20
805.90590451520984
 11
1051.267596314603
 21
806.94856851521035
  0
LINE
  8
_0-0_0
  6
CONTINUOUS
 62
    7
 10
1051.267596314603
 20
806.94856851521035
 11
1050.5550724684654
 21
807.95942310031023
  0
ARC
  8
_0-0_0
  6
CONTINUOUS
 62
    7
 10
1050.3916011764741
 20
807.84419664199959
 40
0.2
 50
35.178965884739853
 51
175.80090104702182
  0
LINE
  8
_0-0_0
  6
CONTINUOUS
 62
    7
 10
1050.926030118404
 20
788.11022245655113
 11
1051.2161301184096
 21
784.87248245655064
  0
LINE
  8
_0-0_0
  6
CONTINUOUS
 62
    7
 10
1051.2161301184096
 20
784.87248245655064
 11
1051.8607991184035
 21
783.63775245655052
  0
LINE
  8
_0-0_0
  6
CONTINUOUS
 62
    7
 10
1051.8607991184035
 20
783.63775245655052
 11
1052.6988801184052
 21
782.37558045655169
  0
LINE
  8
_0-0_0
  6
CONTINUOUS
 62
    7
 10
1052.6988801184052
 20
782.37558045655169
 11
1054.2460981184049
 21
780.70183645655197
  0
LINE
  8
_0-0_0
  6
CONTINUOUS
 62
    7
 10
1054.2460981184049
 20
780.70183645655197
 11
1054.7618381184075
 21
780.29026045654973
  0
LINE
  8
_0-0_0
  6
CONTINUOUS
 62
    7
 10
1054.7618381184075
 20
780.29026045654973
 11
1056.760335118408
 21
780.29026045654973
  0
LINE
  8
_0-0_0
  6
CONTINUOUS
 62
    7
 10
1056.760335118408
 20
780.29026045654973
 11
1056.4379931184085
 21
781.33292045655253
  0
LINE
  8
_0-0_0
  6
CONTINUOUS
 62
    7
 10
1056.4379931184085
 20
781.33292045655253
 11
1054.7618381184075
 21
782.78715945655131
  0
LINE
  8
_0-0_0
  6
CONTINUOUS
 62
    7
 10
1054.7618381184075
 20
782.78715945655131
 11
1054.3428011184078
 21
783.63775245655052
  0
LINE
  8
_0-0_0
  6
CONTINUOUS
 62
    7
 10
1054.3428011184078
 20
783.63775245655052
 11
1053.4080251184059
 21
784.87248245655064
  0
LINE
  8
_0-0_0
  6
CONTINUOUS
 62
    7
 10
1053.4080251184059
 20
784.87248245655064
 11
1053.2146191184074
 21
786.65598345655235
  0
LINE
  8
_0-0_0
  6
CONTINUOUS
 62
    7
 10
1053.2146191184074
 20
786.65598345655235
 11
1052.1509061184042
 21
788.54924045655207
  0
LINE
  8
_0-0_0
  6
CONTINUOUS
 62
    7
 10
1052.1509061184042
 20
788.54924045655207
 11
1050.926030118404
 21
788.11022245655113
  0
LINE
  8
_0-0_0
  6
CONTINUOUS
 62
    7
 10
1047.2341523655268
 20
775.90236976177039
 11
1048.168929365529
 21
774.22862176177296
  0
LINE
  8
_0-0_0
  6
CONTINUOUS
 62
    7
 10
1048.168929365529
 20
774.22862176177296
 11
1048.8136053655253
 21
772.96645276177151
  0
LINE
  8
_0-0_0
  6
CONTINUOUS
 62
    7
 10
1048.8136053655253
 20
772.96645276177151
 11
1049.3293443655275
 21
772.03354176177163
  0
LINE
  8
_0-0_0
  6
CONTINUOUS
 62
    7
 10
1049.3293443655275
 20
772.03354176177163
 11
1050.3930653655261
 21
770.99088176177975
  0
LINE
  8
_0-0_0
  6
CONTINUOUS
 62
    7
 10
1050.3930653655261
 20
770.99088176177975
 11
1051.0054993655285
 21
770.46954976177949
  0
LINE
  8
_0-0_0
  6
CONTINUOUS
 62
    7
 10
1051.0054993655285
 20
770.46954976177949
 11
1051.6179413655263
 21
769.64639576177069
  0
LINE
  8
_0-0_0
  6
CONTINUOUS
 62
    7
 10
1051.6179413655263
 20
769.64639576177069
 11
1052.681654365515
 21
769.0153107617698
  0
LINE
  8
_0-0_0
  6
CONTINUOUS
 62
    7
 10
1052.681654365515
 20
769.0153107617698
 11
1054.0354753655265
 21
768.27447376177952
  0
LINE
  8
_0-0_0
  6
CONTINUOUS
 62
    7
 10
1054.0354753655265
 20
768.27447376177952
 11
1054.7768463655229
 21
768.68604976177085
  0
LINE
  8
_0-0_0
  6
CONTINUOUS
 62
    7
 10
1054.7768463655229
 20
768.68604976177085
 11
1054.9702513655138
 21
769.83846576177166
  0
LINE
  8
_0-0_0
  6
CONTINUOUS
 62
    7
 10
1054.9702513655138
 20
769.83846576177166
 11
1053.1006913655292
 21
771.21039076177112
  0
LINE
  8
_0-0_0
  6
CONTINUOUS
 62
    7
 10
1053.1006913655292
 20
771.21039076177112
 11
1052.2626183655229
 21
772.03354176177163
  0
LINE
  8
_0-0_0
  6
CONTINUOUS
 62
    7
 10
1052.2626183655229
 20
772.03354176177163
 11
1051.4245443655236
 21
773.18596176177016
  0
LINE
  8
_0-0_0
  6
CONTINUOUS
 62
    7
 10
1051.4245443655236
 20
773.18596176177016
 11
1050.4897603655263
 21
774.22862176177296
  0
LINE
  8
_0-0_0
  6
CONTINUOUS
 62
    7
 10
1050.4897603655263
 20
774.22862176177296
 11
1049.3293443655275
 21
775.79261276178295
  0
LINE
  8
_0-0_0
  6
CONTINUOUS
 62
    7
 10
1049.3293443655275
 20
775.79261276178295
 11
1048.491271365514
 21
776.94502876177285
  0
LINE
  8
_0-0_0
  6
CONTINUOUS
 62
    7
 10
1048.491271365514
 20
776.94502876177285
 11
1047.2341523655268
 21
777.46636076176947
  0
LINE
  8
_0-0_0
  6
CONTINUOUS
 62
    7
 10
1047.2341523655268
 20
777.46636076176947
 11
1047.2341523655268
 21
775.90236976177039
  0
LINE
  8
_0-1_P-0000
  6
CONTINUOUS
 62
    7
 10
1043.9522629884959
 20
1192.5
 11
1055.9522629884887
 21
1192.5
  0
LINE
  8
_0-1_P-0000
  6
CONTINUOUS
 62
    7
 10
1055.9522629884887
 20
1192.5
 11
1055.9522629884887
 21
851.98479895805212
  0
LINE
  8
_0-1_P-0000
  6
CONTINUOUS
 62
    7
 10
1043.9522629884959
 20
1192.5
 11
1043.9522629884959
 21
852.44222819152128
  0
LINE
  8
_0-1_P-0000
  6
CONTINUOUS
 62
    7
 10
1043.9522629884959
 20
292.5
 11
1055.9522629884887
 21
292.5
  0
LINE
  8
_0-1_P-0000
  6
CONTINUOUS
 62
    7
 10
1055.9522629884887
 20
292.5
 11
1055.9522629884887
 21
630.71511432187981
  0
LINE
  8
_0-1_P-0000
  6
CONTINUOUS
 62
    7
 10
1043.9522629884959
 20
292.5
 11
1043.9522629884959
 21
625.16173010312195
  0
ENDSEC
  0
EOF
