  0
SECTION
  2
HEADER
  9
$ACADVER
  1
AC1009
  9
$INSBASE
 10
0
 20
0
 30
0
  9
$EXTMIN
 10
0
 20
0
  9
$EXTMAX
 10
4200
 20
2970
  9
$LIMMIN
 10
0
 20
0
  9
$LIMMAX
 10
4200
 20
2970
  9
$LTSCALE
 40
10
  0
ENDSEC
  0
SECTION
  2
TABLES
  0
TABLE
  2
LTYPE
 70
     9
  0
LTYPE
  2
CONTINUOUS
 70
    64
  3
実線
 72
    65
 73
     0
 40
0.0
  0
LTYPE
  2
DASHED1
 70
    64
  3
--  --  --  --  --  --  --  --  
 72
    65
 73
     2
 40
2.5
 49
1.25
 49
-1.25
  0
LTYPE
  2
DASHED2
 70
    64
  3
----    ----    ----    ----    
 72
    65
 73
     2
 40
5.0
 49
2.5
 49
-2.5
  0
LTYPE
  2
DASHED3
 70
    64
  3
------  ------  ------  ------  
 72
    65
 73
     2
 40
5.0
 49
3.75
 49
-1.25
  0
LTYPE
  2
CENTER1
 70
    64
  3
----- - ----- - ----- - ----- - 
 72
    65
 73
     4
 40
10.0
 49
6.25
 49
-1.25
 49
1.25
 49
-1.25
  0
LTYPE
  2
CENTER2
 70
    64
  3
----------  --  ----------  --  
 72
    65
 73
     4
 40
20.0
 49
12.5
 49
-2.5
 49
2.5
 49
-2.5
  0
LTYPE
  2
PHANTOM1
 70
    64
  3
--- - - --- - - --- - - --- - - 
 72
    65
 73
     6
 40
10.0
 49
3.25
 49
-1.25
 49
1.25
 49
-1.25
 49
1.25
 49
-1.25
  0
LTYPE
  2
PHANTOM2
 70
    64
  3
--------  -  -  --------  -  -  
 72
    65
 73
     6
 40
20.0
 49
10.0
 49
-2.5
 49
1.25
 49
-2.5
 49
1.25
 49
-2.5
  0
LTYPE
  2
DOT
 70
    64
  3
-   -   -   -   -   -   -   -   
 72
    65
 73
     2
 40
2.5
 49
0.625
 49
-1.875
  0
LTYPE
  2
DUMMY
 70
    64
  3
ダミー
 72
    65
 73
     0
 40
0.0
  0
LTYPE
  2
RAND1
 70
    64
  3
ランダム線1
 72
    65
 73
     4
 40
10.0
 49
1.0
 49
-2.0
 49
3.0
 49
-4.0
  0
LTYPE
  2
RAND2
 70
    64
  3
ランダム線2
 72
    65
 73
     4
 40
14.0
 49
2.0
 49
-3.0
 49
4.0
 49
-5.0
  0
LTYPE
  2
RAND3
 70
    64
  3
ランダム線3
 72
    65
 73
     4
 40
18.0
 49
3.0
 49
-4.0
 49
5.0
 49
-6.0
  0
LTYPE
  2
RAND4
 70
    64
  3
ランダム線4
 72
    65
 73
     4
 40
22.0
 49
4.0
 49
-5.0
 49
6.0
 49
-7.0
  0
LTYPE
  2
RAND5
 70
    64
  3
ランダム線5
 72
    65
 73
     4
 40
26.0
 49
5.0
 49
-6.0
 49
7.0
 49
-8.0
  0
LTYPE
  2
LONG1
 70
    64
  3
----------  --  ----------  --  
 72
    65
 73
     4
 40
40.0
 49
32.5
 49
-2.5
 49
2.5
 49
-2.5
  0
LTYPE
  2
LONG2
 70
    64
  3
--------  -  -  --------  -  -  
 72
    65
 73
     6
 40
40.0
 49
30.0
 49
-2.5
 49
1.25
 49
-2.5
 49
1.25
 49
-2.5
  0
LTYPE
  2
LONG3
 70
    64
  3
+++++++++++++++..+++++++++++++++
 72
    65
 73
     2
 40
40.0
 49
37.5
 49
-2.5
  0
LTYPE
  2
LONG4
 70
    64
  3
+++++++++++++++..+++++++++++++++
 72
    65
 73
     2
 40
80.0
 49
75.0
 49
-5.0
  0
LTYPE
  2
LONG5
 70
    64
  3
----------  --  ----------  --  
 72
    65
 73
     4
 40
60.0
 49
37.5
 49
-7.5
 49
7.5
 49
-7.5
  0
LTYPE
  2
dashed
 70
   64
  3
-------   -------------   ------
 72
   65
 73
    2
 40
7.5
 49
6
 49
-1.5
  0
LTYPE
  2
dashed_spaced
 70
   64
  3
----        --------        ----
 72
   65
 73
    2
 40
12
 49
6
 49
-6
  0
LTYPE
  2
long_dashed_dotted
 70
   64
  3
------------- --- --------------
 72
   65
 73
    4
 40
15.25
 49
12
 49
-1.5
 49
0.25
 49
-1.5
  0
LTYPE
  2
long_dashed_double-dotted
 70
   64
  3
----------- --- --- ------------
 72
   65
 73
    6
 40
17
 49
12
 49
-1.5
 49
0.25
 49
-1.5
 49
0.25
 49
-1.5
  0
LTYPE
  2
long_dashed_triplicate-dotted
 70
   64
  3
--------- --- --- --- ----------
 72
   65
 73
    8
 40
18.75
 49
12
 49
-1.5
 49
0.25
 49
-1.5
 49
0.25
 49
-1.5
 49
0.25
 49
-1.5
  0
LTYPE
  2
dotted
 70
   64
  3
   -       -       -       -    
 72
   65
 73
    2
 40
1.75
 49
0.25
 49
-1.5
  0
LTYPE
  2
chain
 70
   64
  3
-------------- -- --------------
 72
   65
 73
    4
 40
18.5
 49
12
 49
-1.5
 49
3.5
 49
-1.5
  0
LTYPE
  2
chain_double_dash
 70
   64
  3
------------ -- -- -------------
 72
   65
 73
    6
 40
23.5
 49
12
 49
-1.5
 49
3.5
 49
-1.5
 49
3.5
 49
-1.5
  0
LTYPE
  2
dashed_dotted
 70
   64
  3
-----------     -     ----------
 72
   65
 73
    4
 40
9.25
 49
6
 49
-1.5
 49
0.25
 49
-1.5
  0
LTYPE
  2
double-dashed_dotted
 70
   64
  3
------   -----------   -   -----
 72
   65
 73
    6
 40
16.75
 49
6
 49
-1.5
 49
6
 49
-1.5
 49
0.25
 49
-1.5
  0
LTYPE
  2
dashed_double-dotted
 70
   64
  3
---------    -    -    ---------
 72
   65
 73
    6
 40
11
 49
6
 49
-1.5
 49
0.25
 49
-1.5
 49
0.25
 49
-1.5
  0
LTYPE
  2
double-dashed_double-dotted
 70
   64
  3
-----   ---------   -   -   ----
 72
   65
 73
    8
 40
18.5
 49
6
 49
-1.5
 49
6
 49
-1.5
 49
0.25
 49
-1.5
 49
0.25
 49
-1.5
  0
LTYPE
  2
dashed_triplicate-dotted
 70
   64
  3
-------    -    -    -    ------
 72
   65
 73
    8
 40
12.75
 49
6
 49
-1.5
 49
0.25
 49
-1.5
 49
0.25
 49
-1.5
 49
0.25
 49
-1.5
  0
LTYPE
  2
double-dashed_triplicate-dotted
 70
   64
  3
-----  ---------  -  -  -  -----
 72
   65
 73
   10
 40
20.25
 49
6
 49
-1.5
 49
6
 49
-1.5
 49
0.25
 49
-1.5
 49
0.25
 49
-1.5
 49
0.25
 49
-1.5
  0
LTYPE
  2
undefined
 70
   64
  3
--------------------------------
 72
   65
 73
    0
 40
0
  0
ENDTAB
  0
TABLE
  2
STYLE
  5
3
100
AcDbSymbolTable
 70
     1
  0
STYLE
  5
10
100
AcDbSymbolTableRecord
100
AcDbTextStyleTableRecord
  2
STANDARD
 70
     0
 40
0.0
 41
1.0
 50
0.0
 71
     0
 42
0.2
  3
txt
  4
bigfont.shx
  0
STYLE
  5
26
100
AcDbSymbolTableRecord
100
AcDbTextStyleTableRecord
  2
TATEGAKI
 70
    68
 40
0.0
 41
1.0
 50
0.0
 71
     0
 42
1.0
  3
txt
  4
bigfont.shx
  0
ENDTAB
  0
TABLE
  2
LAYER
 70
    2
  0
LAYER
  2
_0-0_
 70
   64
 62
    7
  6
CONTINUOUS
  0
LAYER
  2
ADD_LINE
 70
   64
 62
    7
  6
CONTINUOUS
  0
ENDTAB
  0
ENDSEC
  0
SECTION
  2
BLOCKS
  0
ENDSEC
  0
SECTION
  2
ENTITIES
  0
LINE
  8
_0-0_
  6
CONTINUOUS
 62
    7
 10
925.27104646540192
 20
958.84341637010675
 11
913.27104646540192
 21
958.84341637010675
  0
LINE
  8
_0-0_
  6
CONTINUOUS
 62
    7
 10
913.27104646540192
 20
1958.8434163701068
 11
925.27104646540192
 21
1958.8434163701068
  0
LINE
  8
_0-0_
  6
CONTINUOUS
 62
    7
 10
913.7998712716153
 20
1474.2812205922137
 11
932.68323499537019
 21
1455.2846562039385
  0
LINE
  8
_0-0_
  6
CONTINUOUS
 62
    7
 10
928.90917379236726
 20
1451.5647112500201
 11
910.02581102228669
 21
1470.5612756382952
  0
LINE
  8
_0-0_
  6
CONTINUOUS
 62
    7
 10
916.00140649652985
 20
1476.4511872899066
 11
913.7998712716153
 21
1474.2812205922137
  0
LINE
  8
_0-0_
  6
CONTINUOUS
 62
    7
 10
932.68323499537019
 20
1455.2846562039385
 11
934.88476926661042
 21
1457.4546244513522
  0
LINE
  8
_0-0_
  6
CONTINUOUS
 62
    7
 10
934.8892791924527
 20
1458.0791246664057
 11
916.62590748644379
 21
1476.4466783177386
  0
LINE
  8
_0-0_
  6
CONTINUOUS
 62
    7
 10
926.7076385674527
 20
1449.3947440754901
 11
928.90917379236726
 21
1451.5647112500201
  0
LINE
  8
_0-0_
  6
CONTINUOUS
 62
    7
 10
910.02581102228669
 20
1470.5612756382952
 11
907.82427675104645
 21
1468.391307986928
  0
LINE
  8
_0-0_
  6
CONTINUOUS
 62
    7
 10
907.81976682520417
 20
1467.7668067585955
 11
926.08313876963166
 21
1449.399253047658
  0
LINE
  8
_0-0_
  6
CONTINUOUS
 62
    7
 10
913.7998712716153
 20
1474.2812205922137
 11
932.68323499537019
 21
1455.2846562039385
  0
LINE
  8
_0-0_
  6
CONTINUOUS
 62
    7
 10
948.51715165949372
 20
1662.3799611699114
 11
936.15455133295563
 21
1641.1861440312396
  0
LINE
  8
_0-0_
  6
CONTINUOUS
 62
    7
 10
941.32854921198395
 20
1638.1481038701068
 11
953.69115335321931
 21
1659.3419210087786
  0
LINE
  8
_0-0_
  6
CONTINUOUS
 62
    7
 10
936.15455133295563
 20
1641.1861440312396
 11
933.56755048609284
 21
1642.7051717412005
  0
LINE
  8
_0-0_
  6
CONTINUOUS
 62
    7
 10
943.91554910517243
 20
1636.6290761601458
 11
941.32854921198395
 21
1638.1481038701068
  0
LINE
  8
_0-0_
  6
CONTINUOUS
 62
    7
 10
953.69115335321931
 20
1659.3419210087786
 11
956.27815133905915
 21
1657.8228932988177
  0
LINE
  8
_0-0_
  6
CONTINUOUS
 62
    7
 10
956.63414270258454
 20
1656.4542256962786
 11
945.28422433710602
 21
1636.9850637089739
  0
LINE
  8
_0-0_
  6
CONTINUOUS
 62
    7
 10
948.51715165949372
 20
1662.3799611699114
 11
945.93015367365388
 21
1663.8989888798724
  0
LINE
  8
_0-0_
  6
CONTINUOUS
 62
    7
 10
944.56147844172028
 20
1663.5430013310443
 11
933.21155816889313
 21
1644.0738393437396
  0
LINE
  8
_0-0_
  6
CONTINUOUS
 62
    7
 10
933.21155816889313
 20
1644.0738393437396
 11
944.56147844172028
 21
1663.5430013310443
  0
LINE
  8
_0-0_
  6
CONTINUOUS
 62
    7
 10
925.27104646540192
 20
1958.8434163701068
 11
925.27104646540192
 21
1694.5210897099505
  0
LINE
  8
_0-0_
  6
CONTINUOUS
 62
    7
 10
913.27104646540192
 20
1958.8434163701068
 11
913.27104646540192
 21
1691.7301503788958
  0
LINE
  8
_0-0_
  6
CONTINUOUS
 62
    7
 10
881.90795022821931
 20
1259.2326070439349
 11
893.25786859369782
 21
1278.7017690312396
  0
LINE
  8
_0-0_
  6
CONTINUOUS
 62
    7
 10
897.21354371881989
 20
1277.5387288701068
 11
884.85093957758454
 21
1256.3449117314349
  0
LINE
  8
_0-0_
  6
CONTINUOUS
 62
    7
 10
894.62654382563142
 20
1279.0577565800677
 11
897.21354371881989
 21
1277.5387288701068
  0
LINE
  8
_0-0_
  6
CONTINUOUS
 62
    7
 10
905.33053476191071
 20
1271.6129933964739
 11
893.98061448908356
 21
1252.1438314091693
  0
LINE
  8
_0-0_
  6
CONTINUOUS
 62
    7
 10
893.98061448908356
 20
1252.1438314091693
 11
905.33053476191071
 21
1271.6129933964739
  0
LINE
  8
_0-0_
  6
CONTINUOUS
 62
    7
 10
890.02494127131013
 20
1253.3068715703021
 11
902.38754159784821
 21
1274.5006887089739
  0
LINE
  8
_0-0_
  6
CONTINUOUS
 62
    7
 10
902.38754159784821
 20
1274.5006887089739
 11
904.97454244471101
 21
1272.981660999013
  0
LINE
  8
_0-0_
  6
CONTINUOUS
 62
    7
 10
890.02494127131013
 20
1253.3068715703021
 11
892.61193925714997
 21
1251.7878438603411
  0
LINE
  8
_0-0_
  6
CONTINUOUS
 62
    7
 10
884.85093957758454
 20
1256.3449117314349
 11
882.2639415917447
 21
1257.8639394413958
  0
LINE
  8
_0-0_
  6
CONTINUOUS
 62
    7
 10
913.27104646540192
 20
958.84341637010675
 11
913.27104646540192
 21
1221.1188375126849
  0
LINE
  8
_0-0_
  6
CONTINUOUS
 62
    7
 10
925.27104646540192
 20
958.84341637010675
 11
925.27104646540192
 21
1223.9566823613177
  0
ARC
  8
_0-0_
  6
CONTINUOUS
 62
    7
 10
933.95778066492585
 20
1346.0114690434466
 40
82.063636779785156
 50
248.06556701660156
 51
262.55422973632812
  0
ARC
  8
_0-0_
  6
CONTINUOUS
 62
    7
 10
899.31888467646149
 20
1573.5503560673724
 40
86.200981140136719
 50
39.426895141601563
 51
59.545776367187507
  0
ARC
  8
_0-0_
  6
CONTINUOUS
 62
    7
 10
892.80602533197907
 20
1566.4819738041888
 40
95.72998046875
 50
346.95829772949224
 51
40.219116210937543
  0
ARC
  8
_0-0_
  6
CONTINUOUS
 62
    7
 10
893.06711274958161
 20
1564.2792607914935
 40
95.001487731933594
 50
309.87507629394531
 51
348.21705627441406
  0
ARC
  8
_0-0_
  6
CONTINUOUS
 62
    7
 10
1773.4379070458465
 20
607.62759605760675
 40
1205.2066650390625
 50
132.83865356445315
 51
134.598388671875
  0
ARC
  8
_0-0_
  6
CONTINUOUS
 62
    7
 10
491.44190484858058
 20
1937.4584066044818
 40
637.31048583984375
 50
311.45156860351562
 51
311.60635375976562
  0
ARC
  8
_0-0_
  6
CONTINUOUS
 62
    7
 10
893.06711274958161
 20
1564.2792607914935
 40
89.702293395996108
 50
309.87507629394531
 51
348.21705627441406
  0
ARC
  8
_0-0_
  6
CONTINUOUS
 62
    7
 10
892.80602533197907
 20
1566.4819738041888
 40
90.430778503417969
 50
346.95829772949224
 51
40.2139282226563
  0
ARC
  8
_0-0_
  6
CONTINUOUS
 62
    7
 10
898.56777078485993
 20
1572.6356679570208
 40
82.063636779785156
 50
39.530258178710938
 51
59.403594970703132
  0
ARC
  8
_0-0_
  6
CONTINUOUS
 62
    7
 10
872.25287134027985
 20
1489.5685502659808
 40
15.745687484741211
 50
298.31166076660156
 51
30.136123657226584
  0
ARC
  8
_0-0_
  6
CONTINUOUS
 62
    7
 10
871.93733865595368
 20
1485.7322847020159
 40
18.220582962036133
 50
40.12127685546875
 51
137.73832702636719
  0
ARC
  8
_0-0_
  6
CONTINUOUS
 62
    7
 10
878.06485254145173
 20
1480.1973477971087
 40
26.477790832519531
 50
137.79145812988281
 51
232.05558776855469
  0
ARC
  8
_0-0_
  6
CONTINUOUS
 62
    7
 10
885.05015451288727
 20
1494.6831761967669
 40
42.333316802978516
 50
236.66038513183594
 51
305.18659973144531
  0
ARC
  8
_0-0_
  6
CONTINUOUS
 62
    7
 10
849.99135095453767
 20
1539.9044133793841
 40
99.527862548828125
 50
306.68035888671875
 51
309.15345764160156
  0
ARC
  8
_0-0_
  6
CONTINUOUS
 62
    7
 10
880.6389301476529
 20
1523.6632100712786
 40
64.933265686035156
 50
326.95433044433594
 51
7.1892852783203294
  0
ARC
  8
_0-0_
  6
CONTINUOUS
 62
    7
 10
912.8015483079007
 20
1528.3966695439349
 40
32.438064575195313
 50
6.0037078857421884
 51
81.41455078125
  0
ARC
  8
_0-0_
  6
CONTINUOUS
 62
    7
 10
915.81165797091035
 20
1536.0814534794818
 40
24.458534240722656
 50
85.703506469726577
 51
160.27153015136722
  0
ARC
  8
_0-0_
  6
CONTINUOUS
 62
    7
 10
908.38426477289704
 20
1539.1150609623919
 40
16.446762084960937
 50
161.485107421875
 51
286.41397094726562
  0
ARC
  8
_0-0_
  6
CONTINUOUS
 62
    7
 10
909.96970826960114
 20
1534.4781819951068
 40
11.552763938903809
 50
285.36965942382812
 51
4.4507293701171768
  0
ARC
  8
_0-0_
  6
CONTINUOUS
 62
    7
 10
872.25287134027985
 20
1489.5685502659808
 40
10.446488380432129
 50
298.31166076660156
 51
27.634323120117216
  0
ARC
  8
_0-0_
  6
CONTINUOUS
 62
    7
 10
871.93733865595368
 20
1485.7322847020159
 40
12.921381950378418
 50
42.212371826171875
 51
137.72775268554687
  0
ARC
  8
_0-0_
  6
CONTINUOUS
 62
    7
 10
878.06485254145173
 20
1480.1973477971087
 40
21.178590774536133
 50
137.7983093261719
 51
232.05558776855472
  0
ARC
  8
_0-0_
  6
CONTINUOUS
 62
    7
 10
885.05015451288727
 20
1494.6831761967669
 40
37.034114837646484
 50
236.66038513183594
 51
305.08183288574219
  0
ARC
  8
_0-0_
  6
CONTINUOUS
 62
    7
 10
849.99135095453767
 20
1539.9044133793841
 40
94.228660583496108
 50
306.72320556640631
 51
308.83267211914068
  0
ARC
  8
_0-0_
  6
CONTINUOUS
 62
    7
 10
880.6389301476529
 20
1523.6632100712786
 40
59.634063720703132
 50
326.87565612792974
 51
7.2431945800781792
  0
ARC
  8
_0-0_
  6
CONTINUOUS
 62
    7
 10
912.8015483079007
 20
1528.3966695439349
 40
27.13886833190918
 50
5.890655517578125
 51
80.9886474609375
  0
ARC
  8
_0-0_
  6
CONTINUOUS
 62
    7
 10
915.81165797091035
 20
1536.0814534794818
 40
19.159334182739258
 50
86.287246704101563
 51
160.09761047363281
  0
ARC
  8
_0-0_
  6
CONTINUOUS
 62
    7
 10
908.38426477289704
 20
1539.1150609623919
 40
11.147561073303223
 50
161.76313781738281
 51
286.41397094726557
  0
ARC
  8
_0-0_
  6
CONTINUOUS
 62
    7
 10
909.96970826960114
 20
1534.4781819951068
 40
6.253563880920411
 50
285.36965942382812
 51
4.4507293701171768
  0
ARC
  8
_0-0_
  6
CONTINUOUS
 62
    7
 10
918.95456836200265
 20
1533.7745534550677
 40
2.9961419105529785
 50
32.280670166015625
 51
156.62077331542969
  0
ARC
  8
_0-0_
  6
CONTINUOUS
 62
    7
 10
879.57554513788727
 20
1478.6378461491595
 40
2.9350829124450684
 50
143.79180908203125
 51
272.83149719238281
  0
ARC
  8
_0-0_
  6
CONTINUOUS
 62
    7
 10
933.2066677269986
 20
1345.096780933095
 40
86.200981140136719
 50
219.4268798828125
 51
239.54576110839847
  0
ARC
  8
_0-0_
  6
CONTINUOUS
 62
    7
 10
939.45843965387849
 20
1354.3678762089739
 40
95.001487731933594
 50
129.87507629394531
 51
168.21705627441406
  0
ARC
  8
_0-0_
  6
CONTINUOUS
 62
    7
 10
939.45843965387849
 20
1354.3678762089739
 40
89.702293395996108
 50
129.87507629394531
 51
168.21705627441406
  0
ARC
  8
_0-0_
  6
CONTINUOUS
 62
    7
 10
933.95778066492585
 20
1346.0114690434466
 40
82.063636779785156
 50
219.53025817871097
 51
239.40359497070312
  0
ARC
  8
_0-0_
  6
CONTINUOUS
 62
    7
 10
919.79555684900788
 20
1383.7599355351458
 40
24.458534240722656
 50
265.70350646972656
 51
340.27153015136719
  0
ARC
  8
_0-0_
  6
CONTINUOUS
 62
    7
 10
927.22295076227692
 20
1380.7263204228411
 40
11.147561073303223
 50
341.76313781738281
 51
106.41397094726564
  0
ARC
  8
_0-0_
  6
CONTINUOUS
 62
    7
 10
919.79555684900788
 20
1383.7599355351458
 40
19.159334182739258
 50
266.28724670410156
 51
340.09761047363281
  0
ARC
  8
_0-0_
  6
CONTINUOUS
 62
    7
 10
927.22295076227692
 20
1380.7263204228411
 40
16.446762084960937
 50
341.485107421875
 51
106.41397094726567
  0
ARC
  8
_0-0_
  6
CONTINUOUS
 62
    7
 10
950.55705720758942
 20
1425.1582090031634
 40
37.034114837646484
 50
56.660385131835937
 51
115.76351928710937
  0
ARC
  8
_0-0_
  6
CONTINUOUS
 62
    7
 10
950.55705720758942
 20
1425.1582090031634
 40
42.333316802978516
 50
56.660385131835937
 51
118.22586059570312
  0
ARC
  8
_0-0_
  6
CONTINUOUS
 62
    7
 10
963.66987497187165
 20
1434.1091062199603
 40
12.921381950378418
 50
222.21235656738281
 51
317.72775268554687
  0
ARC
  8
_0-0_
  6
CONTINUOUS
 62
    7
 10
963.66987497187165
 20
1434.1091062199603
 40
18.220582962036133
 50
220.12127685546875
 51
317.73832702636719
  0
ARC
  8
_0-0_
  6
CONTINUOUS
 62
    7
 10
957.5423610863736
 20
1439.6440412175189
 40
21.178590774536133
 50
317.79830932617193
 51
52.05558776855473
  0
ARC
  8
_0-0_
  6
CONTINUOUS
 62
    7
 10
957.5423610863736
 20
1439.6440412175189
 40
26.477790832519531
 50
317.79145812988281
 51
52.05558776855468
  0
ARC
  8
_0-0_
  6
CONTINUOUS
 62
    7
 10
963.35434610224274
 20
1430.2728406559954
 40
15.745687484741211
 50
118.31166076660156
 51
210.13612365722656
  0
ARC
  8
_0-0_
  6
CONTINUOUS
 62
    7
 10
963.35434610224274
 20
1430.2728406559954
 40
10.446488380432129
 50
118.31166076660156
 51
207.63432312011719
  0
ARC
  8
_0-0_
  6
CONTINUOUS
 62
    7
 10
956.03166848993806
 20
1441.2035409581194
 40
2.9350829124450684
 50
323.79180908203125
 51
92.831497192382841
  0
ARC
  8
_0-0_
  6
CONTINUOUS
 62
    7
 10
985.6158703026822
 20
1379.9369756352435
 40
94.228660583496108
 50
130.72198486328125
 51
148.78883361816409
  0
ARC
  8
_0-0_
  6
CONTINUOUS
 62
    7
 10
985.6158703026822
 20
1379.9369756352435
 40
99.527862548828125
 50
130.94143676757812
 51
148.73828125
  0
ARC
  8
_0-0_
  6
CONTINUOUS
 62
    7
 10
922.8056667504361
 20
1391.4447194706927
 40
27.13886833190918
 50
185.89065551757813
 51
260.9886474609375
  0
ARC
  8
_0-0_
  6
CONTINUOUS
 62
    7
 10
922.8056667504361
 20
1391.4447194706927
 40
32.438064575195313
 50
186.00370788574219
 51
261.41455078125
  0
ARC
  8
_0-0_
  6
CONTINUOUS
 62
    7
 10
1633.9655559716277
 20
653.89493004198175
 40
1081.09619140625
 50
131.80331420898437
 51
134.32666015625
  0
ARC
  8
_0-0_
  6
CONTINUOUS
 62
    7
 10
1533.8350017724088
 20
755.02993980760675
 40
933.48687744140636
 50
131.3011474609375
 51
134.28083801269528
  0
ARC
  8
_0-0_
  6
CONTINUOUS
 62
    7
 10
925.63750678873566
 20
1385.3632070195208
 40
11.552763938903809
 50
105.36965942382814
 51
184.45072937011722
  0
ARC
  8
_0-0_
  6
CONTINUOUS
 62
    7
 10
925.63750678873566
 20
1385.3632070195208
 40
6.253563880920411
 50
105.36965942382814
 51
184.45072937011722
  0
ARC
  8
_0-0_
  6
CONTINUOUS
 62
    7
 10
916.65264636850861
 20
1386.0668355595599
 40
2.9961419105529785
 50
212.28067016601562
 51
336.62077331542969
  0
ARC
  8
_0-0_
  6
CONTINUOUS
 62
    7
 10
954.9682872948697
 20
1396.1781789433489
 40
64.933265686035156
 50
146.95433044433594
 51
187.18928527832031
  0
ARC
  8
_0-0_
  6
CONTINUOUS
 62
    7
 10
954.9682872948697
 20
1396.1781789433489
 40
59.634063720703132
 50
146.87565612792969
 51
187.24319458007813
  0
ARC
  8
_0-0_
  6
CONTINUOUS
 62
    7
 10
939.71952707148102
 20
1352.1651631962786
 40
95.72998046875
 50
166.95829772949222
 51
220.21911621093753
  0
ARC
  8
_0-0_
  6
CONTINUOUS
 62
    7
 10
939.71952707148102
 20
1352.1651631962786
 40
90.430778503417969
 50
166.95829772949222
 51
220.21392822265628
  0
ARC
  8
_0-0_
  6
CONTINUOUS
 62
    7
 10
911.912841146951
 20
1472.4212476384173
 40
2.6496000289916992
 50
44.586257934570313
 51
224.58625793457034
  0
ARC
  8
_0-0_
  6
CONTINUOUS
 62
    7
 10
930.79620439386872
 20
1453.4246837269793
 40
2.6496000289916992
 50
224.58625793457034
 51
44.586257934570327
  0
ARC
  8
_0-0_
  6
CONTINUOUS
 62
    7
 10
916.31140167093781
 20
1476.1366826664935
 40
0.4415999948978424
 50
44.586257934570313
 51
134.58625793457034
  0
ARC
  8
_0-0_
  6
CONTINUOUS
 62
    7
 10
934.57477266169099
 20
1457.7691294323931
 40
0.4415999948978424
 50
314.58625793457031
 51
44.586257934570327
  0
ARC
  8
_0-0_
  6
CONTINUOUS
 62
    7
 10
926.3976438698819
 20
1449.7092477452288
 40
0.4415999948978424
 50
224.58625793457034
 51
314.58625793457031
  0
ARC
  8
_0-0_
  6
CONTINUOUS
 62
    7
 10
908.13427144861726
 20
1468.0768024098406
 40
0.4415999948978424
 50
134.58625793457031
 51
224.58625793457031
  0
ARC
  8
_0-0_
  6
CONTINUOUS
 62
    7
 10
849.99135095453767
 20
1539.9044133793841
 40
99.527862548828125
 50
316.28097534179687
 51
328.73828125
  0
ARC
  8
_0-0_
  6
CONTINUOUS
 62
    7
 10
849.99135095453767
 20
1539.9044133793841
 40
94.228660583496108
 50
316.36219787597656
 51
328.78883361816412
  0
ARC
  8
_0-0_
  6
CONTINUOUS
 62
    7
 10
491.44190484858058
 20
1937.4584066044818
 40
637.31048583984375
 50
312.71919250488281
 51
316.07044982910156
  0
ARC
  8
_0-0_
  6
CONTINUOUS
 62
    7
 10
1773.4379070458465
 20
607.62759605760675
 40
1205.2066650390625
 50
135.18621826171875
 51
135.23648071289062
  0
ARC
  8
_0-0_
  6
CONTINUOUS
 62
    7
 10
899.31888467646149
 20
1573.5503560673724
 40
86.200981140136719
 50
67.790603637695313
 51
83.089874267578125
  0
ARC
  8
_0-0_
  6
CONTINUOUS
 62
    7
 10
898.56777078485993
 20
1572.6356679570208
 40
82.063636779785156
 50
68.065567016601562
 51
82.554229736328125
  0
ARC
  8
_0-0_
  6
CONTINUOUS
 62
    7
 10
1003.4996898827603
 20
1486.9328977238665
 40
239.05583190917969
 50
242.24906921386722
 51
245.22007751464847
  0
ARC
  8
_0-0_
  6
CONTINUOUS
 62
    7
 10
1004.2374294457486
 20
1488.615902103139
 40
246.19061279296875
 50
242.22584533691406
 51
245.11050415039062
  0
ARC
  8
_0-0_
  6
CONTINUOUS
 62
    7
 10
901.3383815941861
 20
1577.6308004033099
 40
81.660575866699219
 50
59.316131591796875
 51
68.020233154296875
  0
ARC
  8
_0-0_
  6
CONTINUOUS
 62
    7
 10
897.85367090082673
 20
1571.1885930668841
 40
83.67279052734375
 50
59.487030029296882
 51
67.98211669921875
  0
ARC
  8
_0-0_
  6
CONTINUOUS
 62
    7
 10
939.22164422846345
 20
1316.8891011845599
 40
54.641468048095703
 50
340.45314025878906
 51
63.256805419921861
  0
ARC
  8
_0-0_
  6
CONTINUOUS
 62
    7
 10
937.99212724543122
 20
1337.3106938969622
 40
20.724941253662109
 50
170.89453125
 51
294.47195434570312
  0
ARC
  8
_0-0_
  6
CONTINUOUS
 62
    7
 10
950.65975648737458
 20
1334.712991870595
 40
33.648696899414063
 50
66.995315551757813
 51
169.94044494628906
  0
ARC
  8
_0-0_
  6
CONTINUOUS
 62
    7
 10
932.09105283594636
 20
1321.7904531132708
 40
63.040561676025391
 50
264.75874328613281
 51
338.42306518554687
  0
ARC
  8
_0-0_
  6
CONTINUOUS
 62
    7
 10
950.65975648737458
 20
1334.712991870595
 40
28.084539413452152
 50
66.995315551757813
 51
169.94044494628906
  0
ARC
  8
_0-0_
  6
CONTINUOUS
 62
    7
 10
937.99212724543122
 20
1337.3106938969622
 40
15.160781860351564
 50
170.89453125
 51
294.47195434570312
  0
ARC
  8
_0-0_
  6
CONTINUOUS
 62
    7
 10
939.22164422846345
 20
1316.8891011845599
 40
49.077308654785163
 50
340.61567687988281
 51
63.256805419921903
  0
ARC
  8
_0-0_
  6
CONTINUOUS
 62
    7
 10
945.24332696772126
 20
1320.9099904667864
 40
2.800551176071167
 50
298.44778442382812
 51
73.611938476562514
  0
ARC
  8
_0-0_
  6
CONTINUOUS
 62
    7
 10
929.74284536219147
 20
1323.7717610966693
 40
60.395946502685547
 50
337.43936157226562
 51
337.57272338867187
  0
ARC
  8
_0-0_
  6
CONTINUOUS
 62
    7
 10
931.74594098902253
 20
1322.0861074101458
 40
57.906707763671875
 50
261.65888977050781
 51
338.35832214355469
  0
ARC
  8
_0-0_
  6
CONTINUOUS
 62
    7
 10
898.26157266474274
 20
1582.8782903325091
 40
20.132801055908203
 50
350.89453125000006
 51
114.47195434570315
  0
ARC
  8
_0-0_
  6
CONTINUOUS
 62
    7
 10
885.95587426996735
 20
1585.4017736088763
 40
32.687305450439453
 50
246.99531555175781
 51
349.94044494628906
  0
ARC
  8
_0-0_
  6
CONTINUOUS
 62
    7
 10
897.06718332148102
 20
1602.7164022099505
 40
53.080284118652344
 50
160.45314025878906
 51
243.25680541992187
  0
ARC
  8
_0-0_
  6
CONTINUOUS
 62
    7
 10
903.9940441308072
 20
1597.9550954472552
 40
61.239402770996101
 50
84.758743286132827
 51
158.4230651855469
  0
ARC
  8
_0-0_
  6
CONTINUOUS
 62
    7
 10
891.2175491509488
 20
1598.8103963505755
 40
2.7205352783203125
 50
118.44778442382815
 51
253.61193847656253
  0
ARC
  8
_0-0_
  6
CONTINUOUS
 62
    7
 10
906.2751606164029
 20
1596.0303975712786
 40
58.67034912109375
 50
157.43936157226562
 51
157.57272338867187
  0
ARC
  8
_0-0_
  6
CONTINUOUS
 62
    7
 10
897.06718332148102
 20
1602.7164022099505
 40
47.675098419189453
 50
160.61567687988284
 51
243.2568054199219
  0
ARC
  8
_0-0_
  6
CONTINUOUS
 62
    7
 10
885.95587426996735
 20
1585.4017736088763
 40
27.282123565673828
 50
246.99531555175781
 51
349.94044494628906
  0
ARC
  8
_0-0_
  6
CONTINUOUS
 62
    7
 10
898.26157266474274
 20
1582.8782903325091
 40
14.727616310119629
 50
350.89453125000006
 51
114.47195434570315
  0
ARC
  8
_0-0_
  6
CONTINUOUS
 62
    7
 10
904.3292959389737
 20
1597.6678945195208
 40
56.252227783203132
 50
85.144363403320312
 51
158.35832214355466
  0
ARC
  8
_0-0_
  6
CONTINUOUS
 62
    7
 10
959.75905496454743
 20
1676.1328145634661
 40
32.248359680175781
 50
252.68052673339844
 51
342.73356628417969
  0
ARC
  8
_0-0_
  6
CONTINUOUS
 62
    7
 10
981.67721826410798
 20
1669.5911122929583
 40
9.3798322677612305
 50
341.15289306640631
 51
80.42204284667973
  0
ARC
  8
_0-0_
  6
CONTINUOUS
 62
    7
 10
974.39029580927399
 20
1645.7449056279193
 40
34.257526397705078
 50
75.032669067382827
 51
123.4276123046875
  0
ARC
  8
_0-0_
  6
CONTINUOUS
 62
    7
 10
959.26982766962556
 20
1676.9601918828021
 40
21.259286880493168
 50
262.01129150390625
 51
326.87174987792969
  0
ARC
  8
_0-0_
  6
CONTINUOUS
 62
    7
 10
973.28946191645173
 20
1668.4371663701068
 40
4.888786792755127
 50
320.71481323242187
 51
68.572555541992202
  0
ARC
  8
_0-0_
  6
CONTINUOUS
 62
    7
 10
968.57707864618806
 20
1650.979707874013
 40
22.947662353515629
 50
73.549774169921875
 51
118.86578369140625
  0
ARC
  8
_0-0_
  6
CONTINUOUS
 62
    7
 10
957.85001642084626
 20
1673.5209523808489
 40
2.4698450565338135
 50
160.74028015136719
 51
261.82646179199219
  0
ARC
  8
_0-0_
  6
CONTINUOUS
 62
    7
 10
938.74154931879548
 20
1639.6671315800677
 40
3.0000000000000004
 50
149.57957458496097
 51
329.57957458496094
  0
ARC
  8
_0-0_
  6
CONTINUOUS
 62
    7
 10
951.10415346003083
 20
1660.8609487187396
 40
3.0000000000000004
 50
329.57957458496094
 51
149.57957458496097
  0
ARC
  8
_0-0_
  6
CONTINUOUS
 62
    7
 10
934.07389146662263
 20
1643.5675069462786
 40
1
 50
149.57957458496097
 51
239.57957458496097
  0
ARC
  8
_0-0_
  6
CONTINUOUS
 62
    7
 10
944.42189103937653
 20
1637.4914113652239
 40
1
 50
239.57957458496094
 51
329.57957458496094
  0
ARC
  8
_0-0_
  6
CONTINUOUS
 62
    7
 10
955.77181131220368
 20
1656.9605580937396
 40
1
 50
329.57957458496094
 51
59.579574584960952
  0
ARC
  8
_0-0_
  6
CONTINUOUS
 62
    7
 10
945.42381173944977
 20
1663.0366536747943
 40
1
 50
59.579574584960945
 51
149.57957458496097
  0
ARC
  8
_0-0_
  6
CONTINUOUS
 62
    7
 10
972.04806405878571
 20
1699.3591329228411
 40
47.021743774414063
 50
185.90498352050781
 51
232.7869873046875
  0
ARC
  8
_0-0_
  6
CONTINUOUS
 62
    7
 10
968.80254251337556
 20
1698.2246114384661
 40
55.909973144531257
 50
186.67048645019534
 51
236.19537353515628
  0
ARC
  8
_0-0_
  6
CONTINUOUS
 62
    7
 10
878.78303796625642
 20
1239.5540181767474
 40
32.248359680175781
 50
72.680526733398438
 51
162.73356628417969
  0
ARC
  8
_0-0_
  6
CONTINUOUS
 62
    7
 10
864.15179712152985
 20
1269.9419271122943
 40
34.257526397705078
 50
255.03266906738281
 51
303.4276123046875
  0
ARC
  8
_0-0_
  6
CONTINUOUS
 62
    7
 10
879.27226526117829
 20
1238.7266408574114
 40
21.259286880493168
 50
82.011291503906264
 51
146.87174987792969
  0
ARC
  8
_0-0_
  6
CONTINUOUS
 62
    7
 10
869.96501428461579
 20
1264.7071248662005
 40
22.947662353515629
 50
253.5497741699219
 51
298.86578369140631
  0
ARC
  8
_0-0_
  6
CONTINUOUS
 62
    7
 10
887.43794137812165
 20
1254.8258840214739
 40
3.0000000000000004
 50
149.57957458496097
 51
329.57957458496094
  0
ARC
  8
_0-0_
  6
CONTINUOUS
 62
    7
 10
899.80054361200837
 20
1276.0197011601458
 40
3.0000000000000004
 50
329.57957458496094
 51
149.57957458496097
  0
ARC
  8
_0-0_
  6
CONTINUOUS
 62
    7
 10
894.12020189142731
 20
1278.1954213749896
 40
1
 50
59.579574584960945
 51
149.57957458496097
  0
ARC
  8
_0-0_
  6
CONTINUOUS
 62
    7
 10
904.46820146418122
 20
1272.1193257939349
 40
1
 50
329.57957458496094
 51
59.579574584960952
  0
ARC
  8
_0-0_
  6
CONTINUOUS
 62
    7
 10
893.11828119135407
 20
1252.6501790654193
 40
1
 50
239.57957458496094
 51
329.57957458496094
  0
ARC
  8
_0-0_
  6
CONTINUOUS
 62
    7
 10
880.69207650995759
 20
1242.1658803593646
 40
2.4698450565338135
 50
340.74028015136719
 51
81.826461791992188
  0
ARC
  8
_0-0_
  6
CONTINUOUS
 62
    7
 10
882.77028161860017
 20
1258.7262746464739
 40
1
 50
149.57957458496097
 51
239.57957458496097
  0
ARC
  8
_0-0_
  6
CONTINUOUS
 62
    7
 10
865.25263101435212
 20
1247.2496663701068
 40
4.888786792755127
 50
140.71481323242187
 51
248.57255554199219
  0
ARC
  8
_0-0_
  6
CONTINUOUS
 62
    7
 10
856.86487466669587
 20
1246.0957204472552
 40
9.3798322677612305
 50
161.15289306640625
 51
260.42204284667969
  0
ARC
  8
_0-0_
  6
CONTINUOUS
 62
    7
 10
933.2066677269986
 20
1345.096780933095
 40
86.200981140136719
 50
247.79060363769534
 51
265.43421936035156
  0
ARC
  8
_0-0_
  6
CONTINUOUS
 62
    7
 10
866.49402887201813
 20
1216.3276998173724
 40
47.021743774414063
 50
5.8481292724609366
 51
52.787002563476563
  0
ARC
  8
_0-0_
  6
CONTINUOUS
 62
    7
 10
869.73955041742829
 20
1217.4622213017474
 40
55.909973144531257
 50
6.6704864501953125
 51
56.19537353515625
  0
ENDSEC
  0
EOF
