  0
SECTION
  2
HEADER
  9
$ACADVER
  1
AC1009
  9
$INSBASE
 10
0
 20
0
 30
0
  9
$EXTMIN
 10
0
 20
0
  9
$EXTMAX
 10
2970
 20
2100
  9
$LIMMIN
 10
0
 20
0
  9
$LIMMAX
 10
2970
 20
2100
  9
$LTSCALE
 40
5
  0
ENDSEC
  0
SECTION
  2
TABLES
  0
TABLE
  2
LTYPE
 70
     9
  0
LTYPE
  2
CONTINUOUS
 70
    64
  3
実線
 72
    65
 73
     0
 40
0.0
  0
LTYPE
  2
DASHED1
 70
    64
  3
--  --  --  --  --  --  --  --  
 72
    65
 73
     2
 40
2.5
 49
1.25
 49
-1.25
  0
LTYPE
  2
DASHED2
 70
    64
  3
----    ----    ----    ----    
 72
    65
 73
     2
 40
5.0
 49
2.5
 49
-2.5
  0
LTYPE
  2
DASHED3
 70
    64
  3
------  ------  ------  ------  
 72
    65
 73
     2
 40
5.0
 49
3.75
 49
-1.25
  0
LTYPE
  2
CENTER1
 70
    64
  3
----- - ----- - ----- - ----- - 
 72
    65
 73
     4
 40
10.0
 49
6.25
 49
-1.25
 49
1.25
 49
-1.25
  0
LTYPE
  2
CENTER2
 70
    64
  3
----------  --  ----------  --  
 72
    65
 73
     4
 40
20.0
 49
12.5
 49
-2.5
 49
2.5
 49
-2.5
  0
LTYPE
  2
PHANTOM1
 70
    64
  3
--- - - --- - - --- - - --- - - 
 72
    65
 73
     6
 40
10.0
 49
3.25
 49
-1.25
 49
1.25
 49
-1.25
 49
1.25
 49
-1.25
  0
LTYPE
  2
PHANTOM2
 70
    64
  3
--------  -  -  --------  -  -  
 72
    65
 73
     6
 40
20.0
 49
10.0
 49
-2.5
 49
1.25
 49
-2.5
 49
1.25
 49
-2.5
  0
LTYPE
  2
DOT
 70
    64
  3
-   -   -   -   -   -   -   -   
 72
    65
 73
     2
 40
2.5
 49
0.625
 49
-1.875
  0
LTYPE
  2
DUMMY
 70
    64
  3
ダミー
 72
    65
 73
     0
 40
0.0
  0
LTYPE
  2
RAND1
 70
    64
  3
ランダム線1
 72
    65
 73
     4
 40
10.0
 49
1.0
 49
-2.0
 49
3.0
 49
-4.0
  0
LTYPE
  2
RAND2
 70
    64
  3
ランダム線2
 72
    65
 73
     4
 40
14.0
 49
2.0
 49
-3.0
 49
4.0
 49
-5.0
  0
LTYPE
  2
RAND3
 70
    64
  3
ランダム線3
 72
    65
 73
     4
 40
18.0
 49
3.0
 49
-4.0
 49
5.0
 49
-6.0
  0
LTYPE
  2
RAND4
 70
    64
  3
ランダム線4
 72
    65
 73
     4
 40
22.0
 49
4.0
 49
-5.0
 49
6.0
 49
-7.0
  0
LTYPE
  2
RAND5
 70
    64
  3
ランダム線5
 72
    65
 73
     4
 40
26.0
 49
5.0
 49
-6.0
 49
7.0
 49
-8.0
  0
LTYPE
  2
LONG1
 70
    64
  3
----------  --  ----------  --  
 72
    65
 73
     4
 40
40.0
 49
32.5
 49
-2.5
 49
2.5
 49
-2.5
  0
LTYPE
  2
LONG2
 70
    64
  3
--------  -  -  --------  -  -  
 72
    65
 73
     6
 40
40.0
 49
30.0
 49
-2.5
 49
1.25
 49
-2.5
 49
1.25
 49
-2.5
  0
LTYPE
  2
LONG3
 70
    64
  3
+++++++++++++++..+++++++++++++++
 72
    65
 73
     2
 40
40.0
 49
37.5
 49
-2.5
  0
LTYPE
  2
LONG4
 70
    64
  3
+++++++++++++++..+++++++++++++++
 72
    65
 73
     2
 40
80.0
 49
75.0
 49
-5.0
  0
LTYPE
  2
LONG5
 70
    64
  3
----------  --  ----------  --  
 72
    65
 73
     4
 40
60.0
 49
37.5
 49
-7.5
 49
7.5
 49
-7.5
  0
LTYPE
  2
dashed
 70
   64
  3
-------   -------------   ------
 72
   65
 73
    2
 40
7.5
 49
6
 49
-1.5
  0
LTYPE
  2
dashed_spaced
 70
   64
  3
----        --------        ----
 72
   65
 73
    2
 40
12
 49
6
 49
-6
  0
LTYPE
  2
long_dashed_dotted
 70
   64
  3
------------- --- --------------
 72
   65
 73
    4
 40
15.25
 49
12
 49
-1.5
 49
0.25
 49
-1.5
  0
LTYPE
  2
long_dashed_double-dotted
 70
   64
  3
----------- --- --- ------------
 72
   65
 73
    6
 40
17
 49
12
 49
-1.5
 49
0.25
 49
-1.5
 49
0.25
 49
-1.5
  0
LTYPE
  2
long_dashed_triplicate-dotted
 70
   64
  3
--------- --- --- --- ----------
 72
   65
 73
    8
 40
18.75
 49
12
 49
-1.5
 49
0.25
 49
-1.5
 49
0.25
 49
-1.5
 49
0.25
 49
-1.5
  0
LTYPE
  2
dotted
 70
   64
  3
   -       -       -       -    
 72
   65
 73
    2
 40
1.75
 49
0.25
 49
-1.5
  0
LTYPE
  2
chain
 70
   64
  3
-------------- -- --------------
 72
   65
 73
    4
 40
18.5
 49
12
 49
-1.5
 49
3.5
 49
-1.5
  0
LTYPE
  2
chain_double_dash
 70
   64
  3
------------ -- -- -------------
 72
   65
 73
    6
 40
23.5
 49
12
 49
-1.5
 49
3.5
 49
-1.5
 49
3.5
 49
-1.5
  0
LTYPE
  2
dashed_dotted
 70
   64
  3
-----------     -     ----------
 72
   65
 73
    4
 40
9.25
 49
6
 49
-1.5
 49
0.25
 49
-1.5
  0
LTYPE
  2
double-dashed_dotted
 70
   64
  3
------   -----------   -   -----
 72
   65
 73
    6
 40
16.75
 49
6
 49
-1.5
 49
6
 49
-1.5
 49
0.25
 49
-1.5
  0
LTYPE
  2
dashed_double-dotted
 70
   64
  3
---------    -    -    ---------
 72
   65
 73
    6
 40
11
 49
6
 49
-1.5
 49
0.25
 49
-1.5
 49
0.25
 49
-1.5
  0
LTYPE
  2
double-dashed_double-dotted
 70
   64
  3
-----   ---------   -   -   ----
 72
   65
 73
    8
 40
18.5
 49
6
 49
-1.5
 49
6
 49
-1.5
 49
0.25
 49
-1.5
 49
0.25
 49
-1.5
  0
LTYPE
  2
dashed_triplicate-dotted
 70
   64
  3
-------    -    -    -    ------
 72
   65
 73
    8
 40
12.75
 49
6
 49
-1.5
 49
0.25
 49
-1.5
 49
0.25
 49
-1.5
 49
0.25
 49
-1.5
  0
LTYPE
  2
double-dashed_triplicate-dotted
 70
   64
  3
-----  ---------  -  -  -  -----
 72
   65
 73
   10
 40
20.25
 49
6
 49
-1.5
 49
6
 49
-1.5
 49
0.25
 49
-1.5
 49
0.25
 49
-1.5
 49
0.25
 49
-1.5
  0
LTYPE
  2
undefined
 70
   64
  3
--------------------------------
 72
   65
 73
    0
 40
0
  0
ENDTAB
  0
TABLE
  2
STYLE
  5
3
100
AcDbSymbolTable
 70
     1
  0
STYLE
  5
10
100
AcDbSymbolTableRecord
100
AcDbTextStyleTableRecord
  2
STANDARD
 70
     0
 40
0.0
 41
1.0
 50
0.0
 71
     0
 42
0.2
  3
txt
  4
bigfont.shx
  0
STYLE
  5
26
100
AcDbSymbolTableRecord
100
AcDbTextStyleTableRecord
  2
TATEGAKI
 70
    68
 40
0.0
 41
1.0
 50
0.0
 71
     0
 42
1.0
  3
txt
  4
bigfont.shx
  0
ENDTAB
  0
TABLE
  2
LAYER
 70
    2
  0
LAYER
  2
_0-0_0
 70
   64
 62
    7
  6
CONTINUOUS
  0
LAYER
  2
ADD_LINE
 70
   64
 62
    7
  6
CONTINUOUS
  0
ENDTAB
  0
ENDSEC
  0
SECTION
  2
BLOCKS
  0
ENDSEC
  0
SECTION
  2
ENTITIES
  0
ARC
  8
_0-0_0
  6
CONTINUOUS
 62
    7
 10
2208.5096369999956
 20
1879.0773739999968
 40
1009.045029
 50
219.48516499999999
 51
222.31615500000007
  0
LINE
  8
_0-0_0
  6
CONTINUOUS
 62
    7
 10
1500.5982799999983
 20
1163.4339669999972
 11
1468.298950999997
 21
1163.4339669999972
  0
LINE
  8
_0-0_0
  6
CONTINUOUS
 62
    7
 10
1468.298950999997
 20
1159.4339679999975
 11
1500.5982799999983
 21
1159.4339679999975
  0
ARC
  8
_0-0_0
  6
CONTINUOUS
 62
    7
 10
1468.298950999997
 20
1161.4339669999972
 40
2
 50
90.000003000000007
 51
270.00000100000005
  0
ARC
  8
_0-0_0
  6
CONTINUOUS
 62
    7
 10
1500.5982799999983
 20
1161.4339669999972
 40
2
 50
270.000001
 51
90.000002999999992
  0
LINE
  8
_0-0_0
  6
CONTINUOUS
 62
    7
 10
1468.298950999997
 20
1163.4339669999972
 11
1468.298950999997
 21
1166.9339669999972
  0
ARC
  8
_0-0_0
  6
CONTINUOUS
 62
    7
 10
1469.798950999997
 20
1166.9339669999972
 40
1.5000000000000002
 50
90.000003000000007
 51
180.00000499999999
  0
ARC
  8
_0-0_0
  6
CONTINUOUS
 62
    7
 10
1469.798950999997
 20
1155.9339679999975
 40
1.5000000000000002
 50
180.00000500000002
 51
270.00000100000005
  0
LINE
  8
_0-0_0
  6
CONTINUOUS
 62
    7
 10
1468.298950999997
 20
1155.9339679999975
 11
1468.298950999997
 21
1159.4339679999975
  0
LINE
  8
_0-0_0
  6
CONTINUOUS
 62
    7
 10
1500.5982799999983
 20
1159.4339679999975
 11
1500.5982799999983
 21
1155.9339679999975
  0
ARC
  8
_0-0_0
  6
CONTINUOUS
 62
    7
 10
1499.0982799999983
 20
1155.9339679999975
 40
1.5000000000000002
 50
270.000001
 51
0
  0
LINE
  8
_0-0_0
  6
CONTINUOUS
 62
    7
 10
1499.0982799999983
 20
1154.4339679999975
 11
1469.798950999997
 21
1154.4339679999975
  0
LINE
  8
_0-0_0
  6
CONTINUOUS
 62
    7
 10
1500.5982799999983
 20
1163.4339669999972
 11
1500.5982799999983
 21
1166.9339669999972
  0
ARC
  8
_0-0_0
  6
CONTINUOUS
 62
    7
 10
1499.0982799999983
 20
1166.9339669999972
 40
1.5000000000000002
 50
0
 51
90.000003000000007
  0
LINE
  8
_0-0_0
  6
CONTINUOUS
 62
    7
 10
1499.0982799999983
 20
1168.4339669999972
 11
1469.798950999997
 21
1168.4339669999972
  0
LINE
  8
_0-0_0
  6
CONTINUOUS
 62
    7
 10
1501.352942999998
 20
766.70733499999915
 11
1468.298950999997
 21
766.70733499999915
  0
LINE
  8
_0-0_0
  6
CONTINUOUS
 62
    7
 10
1468.298950999997
 20
762.70733499999915
 11
1501.352942999998
 21
762.70733499999915
  0
ARC
  8
_0-0_0
  6
CONTINUOUS
 62
    7
 10
1468.298950999997
 20
764.70733499999915
 40
2
 50
90.000003000000007
 51
270.00000100000005
  0
ARC
  8
_0-0_0
  6
CONTINUOUS
 62
    7
 10
1501.352942999998
 20
764.70733499999915
 40
2
 50
270.000001
 51
90.000002999999992
  0
LINE
  8
_0-0_0
  6
CONTINUOUS
 62
    7
 10
1468.298950999997
 20
766.70733499999915
 11
1468.298950999997
 21
770.20731899999737
  0
ARC
  8
_0-0_0
  6
CONTINUOUS
 62
    7
 10
1469.798950999997
 20
770.20731899999737
 40
1.5000000000000002
 50
90.000003000000007
 51
180.00000499999999
  0
ARC
  8
_0-0_0
  6
CONTINUOUS
 62
    7
 10
1469.798950999997
 20
759.20733499999915
 40
1.5000000000000002
 50
180.00000500000002
 51
270.00000100000005
  0
LINE
  8
_0-0_0
  6
CONTINUOUS
 62
    7
 10
1468.298950999997
 20
759.20733499999915
 11
1468.298950999997
 21
762.70733499999915
  0
LINE
  8
_0-0_0
  6
CONTINUOUS
 62
    7
 10
1501.352942999998
 20
762.70733499999915
 11
1501.352942999998
 21
759.20733499999915
  0
ARC
  8
_0-0_0
  6
CONTINUOUS
 62
    7
 10
1499.852942999998
 20
759.20733499999915
 40
1.5000000000000002
 50
270.000001
 51
0
  0
LINE
  8
_0-0_0
  6
CONTINUOUS
 62
    7
 10
1499.852942999998
 20
757.70733499999915
 11
1469.798950999997
 21
757.70733499999915
  0
LINE
  8
_0-0_0
  6
CONTINUOUS
 62
    7
 10
1501.352942999998
 20
766.70733499999915
 11
1501.352942999998
 21
770.20731899999737
  0
ARC
  8
_0-0_0
  6
CONTINUOUS
 62
    7
 10
1499.852942999998
 20
770.20731899999737
 40
1.5000000000000002
 50
0
 51
90.000003000000007
  0
LINE
  8
_0-0_0
  6
CONTINUOUS
 62
    7
 10
1499.852942999998
 20
771.70731899999737
 11
1469.798950999997
 21
771.70731899999737
  0
LINE
  8
_0-0_0
  6
CONTINUOUS
 62
    7
 10
1484.8368189999965
 20
1339.4777119999999
 11
1484.2236369999955
 21
1339.4777119999999
  0
ARC
  8
_0-0_0
  6
CONTINUOUS
 62
    7
 10
1507.0825399999958
 20
1210.2521129999986
 40
28.304127999999999
 50
142.27908300000001
 51
183.68069800000001
  0
ARC
  8
_0-0_0
  6
CONTINUOUS
 62
    7
 10
1523.5781459999998
 20
1206.0725469999998
 40
38.813319999999997
 50
148.45519999999999
 51
176.51026999999999
  0
ARC
  8
_0-0_0
  6
CONTINUOUS
 62
    7
 10
1506.2550259999989
 20
1208.4977179999987
 40
15.418323999999998
 50
157.34609800000001
 51
180.23271000000003
  0
ARC
  8
_0-0_0
  6
CONTINUOUS
 62
    7
 10
1474.9969679999995
 20
1219.6929079999973
 40
17.822109000000001
 50
342.84557999999998
 51
26.195962999999995
  0
ARC
  8
_0-0_0
  6
CONTINUOUS
 62
    7
 10
1675.7606979999982
 20
1274.7300319999995
 40
207.34469300000001
 50
197.745383
 51
198.22493
  0
LINE
  8
_0-0_0
  6
CONTINUOUS
 62
    7
 10
1478.7795599999954
 20
1209.9962529999975
 11
1478.2753489999959
 21
1211.5068729999984
  0
ARC
  8
_0-0_0
  6
CONTINUOUS
 62
    7
 10
1450.2899370000014
 20
1363.6849869999969
 40
47.126975000000002
 50
318.35402399999998
 51
329.09201100000001
  0
ARC
  8
_0-0_0
  6
CONTINUOUS
 62
    7
 10
1510.9538170000014
 20
1309.7959499999997
 40
34.015765999999999
 50
138.42702
 51
160.45627900000005
  0
ARC
  8
_0-0_0
  6
CONTINUOUS
 62
    7
 10
1513.8418789999996
 20
1307.3307399999976
 40
37.586615999999999
 50
158.38718299999999
 51
166.42247700000001
  0
ARC
  8
_0-0_0
  6
CONTINUOUS
 62
    7
 10
1488.6202599999961
 20
1312.984669999998
 40
11.750183
 50
164.34903600000001
 51
201.83666600000001
  0
ARC
  8
_0-0_0
  6
CONTINUOUS
 62
    7
 10
1450.1777539999966
 20
1335.2780049999965
 40
47.126975000000002
 50
318.35413399999999
 51
329.09214700000001
  0
ARC
  8
_0-0_0
  6
CONTINUOUS
 62
    7
 10
1510.841634999997
 20
1281.3889679999993
 40
34.015765999999999
 50
138.42687000000001
 51
160.45627899999999
  0
ARC
  8
_0-0_0
  6
CONTINUOUS
 62
    7
 10
1513.7296960000021
 20
1278.9237579999972
 40
37.586615999999999
 50
158.38718299999999
 51
166.42247700000001
  0
ARC
  8
_0-0_0
  6
CONTINUOUS
 62
    7
 10
1531.1248980000018
 20
1284.4385279999988
 40
54.032809
 50
149.00732500000004
 51
176.48889200000002
  0
ARC
  8
_0-0_0
  6
CONTINUOUS
 62
    7
 10
1447.0785109999997
 20
1334.7173359999979
 40
43.904978999999997
 50
329.238587
 51
6.2246660000000347
  0
ARC
  8
_0-0_0
  6
CONTINUOUS
 62
    7
 10
1457.5898630000011
 20
1325.4049579999992
 40
35.999374000000003
 50
336.53574200000003
 51
23.011724000000036
  0
ARC
  8
_0-0_0
  6
CONTINUOUS
 62
    7
 10
1463.6631669999988
 20
1338.2527359999985
 40
27.089162000000005
 50
323.90131300000002
 51
2.5920640000000104
  0
ARC
  8
_0-0_0
  6
CONTINUOUS
 62
    7
 10
1502.0737509999963
 20
1303.7396749999971
 40
24.843418
 50
131.68722199999999
 51
197.60309599999999
  0
ARC
  8
_0-0_0
  6
CONTINUOUS
 62
    7
 10
1488.5080779999989
 20
1284.5778099999989
 40
11.750183
 50
164.34959599999999
 51
202.38138699999999
  0
ARC
  8
_0-0_0
  6
CONTINUOUS
 62
    7
 10
1487.1487029999989
 20
1327.1669209999964
 40
10.748529
 50
154.24179100000003
 51
155.74614
  0
ARC
  8
_0-0_0
  6
CONTINUOUS
 62
    7
 10
1450.2899370000014
 20
1307.3994649999986
 40
47.126975000000002
 50
318.35402399999998
 51
329.09201100000001
  0
ARC
  8
_0-0_0
  6
CONTINUOUS
 62
    7
 10
1510.9538170000014
 20
1253.510413
 40
34.015765999999999
 50
138.42702
 51
160.45608799999999
  0
ARC
  8
_0-0_0
  6
CONTINUOUS
 62
    7
 10
1513.8418789999996
 20
1251.0452029999979
 40
37.586615999999999
 50
158.38701900000001
 51
166.42229900000001
  0
ARC
  8
_0-0_0
  6
CONTINUOUS
 62
    7
 10
1531.2370809999993
 20
1256.5598659999996
 40
54.032809
 50
149.007216
 51
176.488632
  0
ARC
  8
_0-0_0
  6
CONTINUOUS
 62
    7
 10
1447.1906939999972
 20
1306.8389179999976
 40
43.904978999999997
 50
329.23845000000006
 51
6.2245080000000721
  0
ARC
  8
_0-0_0
  6
CONTINUOUS
 62
    7
 10
1457.7021069999973
 20
1297.5264179999976
 40
35.999374000000003
 50
336.53552400000007
 51
23.011763000000013
  0
ARC
  8
_0-0_0
  6
CONTINUOUS
 62
    7
 10
1463.7753489999959
 20
1310.3743189999986
 40
27.089162000000005
 50
323.901094
 51
2.5918060000000271
  0
ARC
  8
_0-0_0
  6
CONTINUOUS
 62
    7
 10
1502.185934000001
 20
1275.8611359999995
 40
24.843418
 50
131.68722199999999
 51
197.60309599999999
  0
ARC
  8
_0-0_0
  6
CONTINUOUS
 62
    7
 10
1488.6202599999961
 20
1256.6992709999977
 40
11.750183
 50
164.34903600000001
 51
202.38138699999999
  0
ARC
  8
_0-0_0
  6
CONTINUOUS
 62
    7
 10
1450.1777539999966
 20
1278.9924829999982
 40
47.126975000000002
 50
318.35413399999999
 51
329.09214700000001
  0
ARC
  8
_0-0_0
  6
CONTINUOUS
 62
    7
 10
1510.841634999997
 20
1225.1034309999995
 40
34.015765999999999
 50
138.42687000000001
 51
160.45608799999999
  0
ARC
  8
_0-0_0
  6
CONTINUOUS
 62
    7
 10
1513.7296960000021
 20
1222.6383429999987
 40
37.586615999999999
 50
158.38718299999999
 51
166.42247700000001
  0
ARC
  8
_0-0_0
  6
CONTINUOUS
 62
    7
 10
1531.1248980000018
 20
1228.152990999999
 40
54.032809
 50
149.007216
 51
176.488755
  0
ARC
  8
_0-0_0
  6
CONTINUOUS
 62
    7
 10
1447.0785109999997
 20
1278.4319359999972
 40
43.904978999999997
 50
329.238587
 51
6.2245080000000339
  0
ARC
  8
_0-0_0
  6
CONTINUOUS
 62
    7
 10
1457.5898630000011
 20
1269.1194359999972
 40
35.999374000000003
 50
336.53574200000003
 51
23.011724000000036
  0
ARC
  8
_0-0_0
  6
CONTINUOUS
 62
    7
 10
1463.6631669999988
 20
1281.9673369999982
 40
27.089162000000005
 50
323.901094
 51
2.5918060000000271
  0
ARC
  8
_0-0_0
  6
CONTINUOUS
 62
    7
 10
1502.0737509999963
 20
1247.4541379999973
 40
24.843418
 50
131.68722199999999
 51
197.60309599999999
  0
ARC
  8
_0-0_0
  6
CONTINUOUS
 62
    7
 10
1487.1487029999989
 20
1270.8815209999993
 40
10.748529
 50
154.24179100000003
 51
155.74614
  0
ARC
  8
_0-0_0
  6
CONTINUOUS
 62
    7
 10
1488.5080779999989
 20
1228.2922729999991
 40
11.750183
 50
164.34903600000001
 51
185.544343
  0
ARC
  8
_0-0_0
  6
CONTINUOUS
 62
    7
 10
1446.9662669999962
 20
1250.024938999999
 40
43.904978999999997
 50
329.23845000000006
 51
6.2245080000000721
  0
ARC
  8
_0-0_0
  6
CONTINUOUS
 62
    7
 10
1457.4776809999967
 20
1240.712438999999
 40
35.999374000000003
 50
336.53574200000003
 51
23.011762999999988
  0
ARC
  8
_0-0_0
  6
CONTINUOUS
 62
    7
 10
1463.5509840000013
 20
1253.5603389999997
 40
27.089162000000005
 50
323.90101199999998
 51
2.5918120000000129
  0
ARC
  8
_0-0_0
  6
CONTINUOUS
 62
    7
 10
1501.9615080000003
 20
1219.0471559999969
 40
24.843418
 50
131.68722199999999
 51
197.60313699999998
  0
ARC
  8
_0-0_0
  6
CONTINUOUS
 62
    7
 10
1487.0365200000015
 20
1242.4744019999998
 40
10.748529
 50
154.24134000000001
 51
155.745552
  0
ARC
  8
_0-0_0
  6
CONTINUOUS
 62
    7
 10
1510.5693570000003
 20
1222.4181279999975
 40
34.087493000000002
 50
172.00877900000003
 51
198.66868799999997
  0
ARC
  8
_0-0_0
  6
CONTINUOUS
 62
    7
 10
1502.185934000001
 20
1332.1466569999975
 40
24.843418
 50
162.83703700000001
 51
197.60337000000001
  0
ARC
  8
_0-0_0
  6
CONTINUOUS
 62
    7
 10
1531.2370809999993
 20
1312.8453879999979
 40
54.032809
 50
150.469177
 51
176.488755
  0
ARC
  8
_0-0_0
  6
CONTINUOUS
 62
    7
 10
1450.2899370000014
 20
864.71117799999774
 40
47.126975000000002
 50
30.907853000000006
 51
41.645876000000008
  0
ARC
  8
_0-0_0
  6
CONTINUOUS
 62
    7
 10
1510.9538170000014
 20
918.60021599999891
 40
34.015765999999999
 50
199.54392200000001
 51
221.573126
  0
ARC
  8
_0-0_0
  6
CONTINUOUS
 62
    7
 10
1513.8418789999996
 20
921.0653029999994
 40
37.586615999999999
 50
193.57753299999999
 51
201.61281399999999
  0
ARC
  8
_0-0_0
  6
CONTINUOUS
 62
    7
 10
1531.2370809999993
 20
915.5506549999991
 40
54.032809
 50
183.51124100000001
 51
210.992671
  0
ARC
  8
_0-0_0
  6
CONTINUOUS
 62
    7
 10
1447.1906939999972
 20
865.2717249999987
 40
43.904978999999997
 50
353.77549499999998
 51
30.761546000000092
  0
ARC
  8
_0-0_0
  6
CONTINUOUS
 62
    7
 10
1457.7021069999973
 20
874.5842249999987
 40
35.999374000000003
 50
336.98822800000005
 51
23.464287000000155
  0
ARC
  8
_0-0_0
  6
CONTINUOUS
 62
    7
 10
1463.7753489999959
 20
861.73632499999803
 40
27.089162000000005
 50
357.40819900000008
 51
36.09869000000004
  0
ARC
  8
_0-0_0
  6
CONTINUOUS
 62
    7
 10
1439.3203319999957
 20
857.63097799999741
 40
45.607520000000001
 50
3.6209600000000006
 51
26.670086000000005
  0
ARC
  8
_0-0_0
  6
CONTINUOUS
 62
    7
 10
1437.1170239999992
 20
857.57348299999649
 40
41.823073999999998
 50
4.0280630000000004
 51
14.650001000000003
  0
ARC
  8
_0-0_0
  6
CONTINUOUS
 62
    7
 10
1502.185934000001
 20
896.2493859999995
 40
24.843418
 50
162.39663999999999
 51
228.31277399999999
  0
ARC
  8
_0-0_0
  6
CONTINUOUS
 62
    7
 10
1510.793783000001
 20
892.87853599999653
 40
34.087493000000002
 50
161.33130800000001
 51
205.68908400000001
  0
ARC
  8
_0-0_0
  6
CONTINUOUS
 62
    7
 10
1487.2608849999961
 20
872.82213999999658
 40
10.748529
 50
138.253848
 51
205.75821899999997
  0
ARC
  8
_0-0_0
  6
CONTINUOUS
 62
    7
 10
1488.6202599999961
 20
915.411372999999
 40
11.750183
 50
157.61862300000001
 51
195.65097399999999
  0
ARC
  8
_0-0_0
  6
CONTINUOUS
 62
    7
 10
1507.0825399999958
 20
1046.2896669999973
 40
28.304127999999999
 50
176.31954400000001
 51
217.72110399999997
  0
ARC
  8
_0-0_0
  6
CONTINUOUS
 62
    7
 10
1523.5781459999998
 20
1050.4691099999982
 40
38.813319999999997
 50
183.48972599999999
 51
211.54464600000003
  0
ARC
  8
_0-0_0
  6
CONTINUOUS
 62
    7
 10
1506.2550259999989
 20
1048.0439389999992
 40
15.418323999999998
 50
179.76728700000001
 51
202.65348900000001
  0
ARC
  8
_0-0_0
  6
CONTINUOUS
 62
    7
 10
1474.9969679999995
 20
1036.848748999997
 40
17.822109000000001
 50
333.80404900000002
 51
17.15480899999999
  0
ARC
  8
_0-0_0
  6
CONTINUOUS
 62
    7
 10
1675.7606979999982
 20
981.8116399999999
 40
207.34469300000001
 50
161.77506600000001
 51
162.254627
  0
LINE
  8
_0-0_0
  6
CONTINUOUS
 62
    7
 10
1478.7795599999954
 20
1046.5455259999981
 11
1478.2753489999959
 21
1045.0349059999971
  0
ARC
  8
_0-0_0
  6
CONTINUOUS
 62
    7
 10
1450.2899370000014
 20
892.85680799999682
 40
47.126975000000002
 50
30.907979000000008
 51
41.645876000000008
  0
ARC
  8
_0-0_0
  6
CONTINUOUS
 62
    7
 10
1510.9538170000014
 20
946.74584499999764
 40
34.015765999999999
 50
199.54392200000001
 51
221.573126
  0
ARC
  8
_0-0_0
  6
CONTINUOUS
 62
    7
 10
1513.8418789999996
 20
949.21105499999976
 40
37.586615999999999
 50
193.57771099999997
 51
201.61299099999997
  0
ARC
  8
_0-0_0
  6
CONTINUOUS
 62
    7
 10
1531.2370809999993
 20
943.69640699999945
 40
54.032809
 50
183.51137800000001
 51
210.99278100000001
  0
ARC
  8
_0-0_0
  6
CONTINUOUS
 62
    7
 10
1447.1906939999972
 20
893.41747699999905
 40
43.904978999999997
 50
353.77533099999994
 51
30.761409999999984
  0
ARC
  8
_0-0_0
  6
CONTINUOUS
 62
    7
 10
1457.7021069999973
 20
902.72985499999777
 40
35.999374000000003
 50
336.98822800000005
 51
23.464464000000163
  0
ARC
  8
_0-0_0
  6
CONTINUOUS
 62
    7
 10
1463.7753489999959
 20
889.88195399999677
 40
27.089162000000005
 50
357.40819900000008
 51
36.098899000000081
  0
ARC
  8
_0-0_0
  6
CONTINUOUS
 62
    7
 10
1502.185934000001
 20
924.39513699999952
 40
24.843418
 50
162.39690000000002
 51
228.31277400000002
  0
ARC
  8
_0-0_0
  6
CONTINUOUS
 62
    7
 10
1488.6202599999961
 20
943.55700199999774
 40
11.750183
 50
158.16333000000003
 51
195.65097400000002
  0
ARC
  8
_0-0_0
  6
CONTINUOUS
 62
    7
 10
1450.1777539999966
 20
921.26378999999724
 40
47.126975000000002
 50
30.907853000000006
 51
41.645876000000008
  0
ARC
  8
_0-0_0
  6
CONTINUOUS
 62
    7
 10
1510.841634999997
 20
975.15282699999807
 40
34.015765999999999
 50
199.54392200000001
 51
221.573126
  0
ARC
  8
_0-0_0
  6
CONTINUOUS
 62
    7
 10
1513.7296960000021
 20
977.6179149999989
 40
37.586615999999999
 50
193.57753299999999
 51
201.61281399999999
  0
ARC
  8
_0-0_0
  6
CONTINUOUS
 62
    7
 10
1531.1248980000018
 20
972.1032669999986
 40
54.032809
 50
183.51124100000001
 51
210.992671
  0
ARC
  8
_0-0_0
  6
CONTINUOUS
 62
    7
 10
1447.0785109999997
 20
921.8243369999982
 40
43.904978999999997
 50
353.77549499999998
 51
30.761546000000092
  0
ARC
  8
_0-0_0
  6
CONTINUOUS
 62
    7
 10
1457.5898630000011
 20
931.1368369999982
 40
35.999374000000003
 50
336.98828300000014
 51
23.464247000000142
  0
ARC
  8
_0-0_0
  6
CONTINUOUS
 62
    7
 10
1463.6631669999988
 20
918.28893599999719
 40
27.089162000000005
 50
357.40819900000008
 51
36.09869000000004
  0
ARC
  8
_0-0_0
  6
CONTINUOUS
 62
    7
 10
1502.0737509999963
 20
952.80199699999866
 40
24.843418
 50
162.39663999999999
 51
228.31277399999999
  0
ARC
  8
_0-0_0
  6
CONTINUOUS
 62
    7
 10
1488.5080779999989
 20
971.96398399999816
 40
11.750183
 50
157.61862300000001
 51
195.65097399999999
  0
ARC
  8
_0-0_0
  6
CONTINUOUS
 62
    7
 10
1487.1487029999989
 20
929.37475199999972
 40
10.748529
 50
204.25385600000001
 51
205.758219
  0
ARC
  8
_0-0_0
  6
CONTINUOUS
 62
    7
 10
1450.2899370000014
 20
949.14220699999714
 40
47.126975000000002
 50
30.907979000000008
 51
41.645989000000007
  0
ARC
  8
_0-0_0
  6
CONTINUOUS
 62
    7
 10
1510.9538170000014
 20
1003.0313669999996
 40
34.015765999999999
 50
199.54392200000001
 51
221.573126
  0
ARC
  8
_0-0_0
  6
CONTINUOUS
 62
    7
 10
1513.8418789999996
 20
1005.4964549999968
 40
37.586615999999999
 50
193.57753299999999
 51
201.61281399999999
  0
ARC
  8
_0-0_0
  6
CONTINUOUS
 62
    7
 10
1531.2370809999993
 20
999.98180599999978
 40
54.032809
 50
183.51124100000001
 51
210.992671
  0
ARC
  8
_0-0_0
  6
CONTINUOUS
 62
    7
 10
1447.1906939999972
 20
949.70287599999938
 40
43.904978999999997
 50
353.77549499999998
 51
30.761546000000092
  0
ARC
  8
_0-0_0
  6
CONTINUOUS
 62
    7
 10
1457.7021069999973
 20
959.01525399999809
 40
35.999374000000003
 50
336.98842000000002
 51
23.464464000000014
  0
ARC
  8
_0-0_0
  6
CONTINUOUS
 62
    7
 10
1463.7753489999959
 20
946.16747599999871
 40
27.089162000000005
 50
357.40819900000008
 51
36.09869000000004
  0
ARC
  8
_0-0_0
  6
CONTINUOUS
 62
    7
 10
1502.185934000001
 20
980.68053699999655
 40
24.843418
 50
162.39663999999999
 51
228.31277399999999
  0
ARC
  8
_0-0_0
  6
CONTINUOUS
 62
    7
 10
1488.6202599999961
 20
999.8424019999984
 40
11.750183
 50
157.61862300000001
 51
195.65039999999999
  0
ARC
  8
_0-0_0
  6
CONTINUOUS
 62
    7
 10
1450.1777539999966
 20
977.54918899999757
 40
47.126975000000002
 50
30.907979000000008
 51
41.645989000000007
  0
ARC
  8
_0-0_0
  6
CONTINUOUS
 62
    7
 10
1510.841634999997
 20
1031.4382269999987
 40
34.015765999999999
 50
199.54392200000001
 51
221.57297600000001
  0
ARC
  8
_0-0_0
  6
CONTINUOUS
 62
    7
 10
1513.7296960000021
 20
1033.9034369999972
 40
37.586615999999999
 50
193.57771099999997
 51
201.61299099999997
  0
ARC
  8
_0-0_0
  6
CONTINUOUS
 62
    7
 10
1531.1248980000018
 20
1028.3887879999966
 40
54.032809
 50
183.51137800000001
 51
210.99278100000001
  0
ARC
  8
_0-0_0
  6
CONTINUOUS
 62
    7
 10
1447.0785109999997
 20
978.1098579999998
 40
43.904978999999997
 50
353.77533099999994
 51
30.761409999999984
  0
ARC
  8
_0-0_0
  6
CONTINUOUS
 62
    7
 10
1457.5898630000011
 20
987.42223599999852
 40
35.999374000000003
 50
336.98828300000014
 51
23.464427000000143
  0
ARC
  8
_0-0_0
  6
CONTINUOUS
 62
    7
 10
1463.6631669999988
 20
974.57433599999786
 40
27.089162000000005
 50
357.40819900000008
 51
36.098899000000081
  0
ARC
  8
_0-0_0
  6
CONTINUOUS
 62
    7
 10
1502.0737509999963
 20
1009.087518999997
 40
24.843418
 50
162.39690000000002
 51
228.31277400000002
  0
ARC
  8
_0-0_0
  6
CONTINUOUS
 62
    7
 10
1487.1487029999989
 20
985.66027299999769
 40
10.748529
 50
204.25385600000001
 51
205.758219
  0
ARC
  8
_0-0_0
  6
CONTINUOUS
 62
    7
 10
1488.5080779999989
 20
1028.2493839999988
 40
11.750183
 50
174.45506599999999
 51
195.65097399999999
  0
ARC
  8
_0-0_0
  6
CONTINUOUS
 62
    7
 10
1446.9662669999962
 20
1006.5168399999966
 40
43.904978999999997
 50
353.77549499999998
 51
30.761410000000037
  0
ARC
  8
_0-0_0
  6
CONTINUOUS
 62
    7
 10
1457.4776809999967
 20
1015.8292179999989
 40
35.999374000000003
 50
336.98842000000002
 51
23.464427000000004
  0
ARC
  8
_0-0_0
  6
CONTINUOUS
 62
    7
 10
1463.5509840000013
 20
1002.9813179999983
 40
27.089162000000005
 50
357.40844499999997
 51
36.09897400000002
  0
ARC
  8
_0-0_0
  6
CONTINUOUS
 62
    7
 10
1501.9615080000003
 20
1037.4945009999974
 40
24.843418
 50
162.39685900000003
 51
228.31277400000002
  0
ARC
  8
_0-0_0
  6
CONTINUOUS
 62
    7
 10
1487.0365200000015
 20
1014.0672549999981
 40
10.748529
 50
204.25385600000001
 51
205.75806900000006
  0
ARC
  8
_0-0_0
  6
CONTINUOUS
 62
    7
 10
1510.5693570000003
 20
1034.1236509999981
 40
34.087493000000002
 50
161.33130800000001
 51
187.991231
  0
ARC
  8
_0-0_0
  6
CONTINUOUS
 62
    7
 10
1430.9981130000015
 20
1164.0168839999969
 40
47.667175
 50
5.6557180000000002
 51
49.687703999999997
  0
ARC
  8
_0-0_0
  6
CONTINUOUS
 62
    7
 10
1448.7635309999969
 20
762.44415099999969
 40
5.3864130000000001
 50
309.79689000000002
 51
19.299834999999991
  0
ARC
  8
_0-0_0
  6
CONTINUOUS
 62
    7
 10
1449.4227259999971
 20
1370.5394179999967
 40
29.110344999999995
 50
325.29800499999999
 51
55.435161000000001
  0
ARC
  8
_0-0_0
  6
CONTINUOUS
 62
    7
 10
1441.33122
 20
1365.7954909999971
 40
31.427799000000004
 50
16.178543000000001
 51
46.668176000000003
  0
ARC
  8
_0-0_0
  6
CONTINUOUS
 62
    7
 10
1453.9472469999964
 20
1370.6919139999991
 40
17.986324
 50
300.84734800000001
 51
12.39364799999999
  0
ARC
  8
_0-0_0
  6
CONTINUOUS
 62
    7
 10
1278.7921979999956
 20
683.43887299999915
 40
223.51228000000006
 50
29.826875999999995
 51
37.331058000000006
  0
ARC
  8
_0-0_0
  6
CONTINUOUS
 62
    7
 10
1377.6649679999973
 20
1161.0701369999988
 40
93.455290000000005
 50
4.5193180000000011
 51
5.0811720000000005
  0
ARC
  8
_0-0_0
  6
CONTINUOUS
 62
    7
 10
1377.6649679999973
 20
1161.0701369999988
 40
101.45528999999999
 50
4.1623039999999998
 51
4.2838269999999996
  0
ARC
  8
_0-0_0
  6
CONTINUOUS
 62
    7
 10
1377.6649679999973
 20
1161.0701369999988
 40
101.45528999999999
 50
334.49761400000011
 51
356.24960800000014
  0
ARC
  8
_0-0_0
  6
CONTINUOUS
 62
    7
 10
1377.6649679999973
 20
1161.0701369999988
 40
93.455290000000005
 50
334.56001400000008
 51
355.92804200000006
  0
ARC
  8
_0-0_0
  6
CONTINUOUS
 62
    7
 10
1405.4900789999956
 20
764.33080899999914
 40
65.712157000000005
 50
6.4453149999999999
 51
23.920373000000001
  0
ARC
  8
_0-0_0
  6
CONTINUOUS
 62
    7
 10
1405.4900789999956
 20
764.33080899999914
 40
73.71217200000001
 50
5.7076170000000008
 51
24.253267000000005
  0
ARC
  8
_0-0_0
  6
CONTINUOUS
 62
    7
 10
1405.4900789999956
 20
764.33080899999914
 40
73.71217200000001
 50
320.57391799999999
 51
354.84466500000002
  0
ARC
  8
_0-0_0
  6
CONTINUOUS
 62
    7
 10
1405.4900789999956
 20
764.33080899999914
 40
65.712157000000005
 50
321.029
 51
354.21503100000001
  0
ARC
  8
_0-0_0
  6
CONTINUOUS
 62
    7
 10
1538.6755149999954
 20
1164.0168839999969
 40
47.667175
 50
130.31229099999999
 51
174.344281
  0
ARC
  8
_0-0_0
  6
CONTINUOUS
 62
    7
 10
1520.9100929999986
 20
762.44415099999969
 40
5.3864130000000001
 50
160.70015799999999
 51
230.20311099999998
  0
ARC
  8
_0-0_0
  6
CONTINUOUS
 62
    7
 10
1520.2508979999984
 20
1370.5394179999967
 40
29.110344999999995
 50
124.564837
 51
214.7019830000001
  0
ARC
  8
_0-0_0
  6
CONTINUOUS
 62
    7
 10
1528.3424089999971
 20
1365.7954909999971
 40
31.427799000000004
 50
133.33182199999999
 51
163.82145899999998
  0
ARC
  8
_0-0_0
  6
CONTINUOUS
 62
    7
 10
1515.726376999999
 20
1370.6919139999991
 40
17.986324
 50
167.60635400000001
 51
239.15265300000002
  0
ARC
  8
_0-0_0
  6
CONTINUOUS
 62
    7
 10
1690.8814249999996
 20
683.43887299999915
 40
215.51228000000006
 50
142.83174100000002
 51
150.06754800000002
  0
ARC
  8
_0-0_0
  6
CONTINUOUS
 62
    7
 10
1690.8814249999996
 20
683.43887299999915
 40
223.51228000000006
 50
142.668937
 51
150.17312900000002
  0
ARC
  8
_0-0_0
  6
CONTINUOUS
 62
    7
 10
1592.0086620000002
 20
1161.0701369999988
 40
101.45528999999999
 50
175.71617899999998
 51
175.83770100000001
  0
ARC
  8
_0-0_0
  6
CONTINUOUS
 62
    7
 10
1592.0086620000002
 20
1161.0701369999988
 40
93.455290000000005
 50
174.91882200000001
 51
175.48068699999999
  0
ARC
  8
_0-0_0
  6
CONTINUOUS
 62
    7
 10
1592.0086620000002
 20
1161.0701369999988
 40
101.45528999999999
 50
183.75038000000001
 51
205.502374
  0
ARC
  8
_0-0_0
  6
CONTINUOUS
 62
    7
 10
1592.0086620000002
 20
1161.0701369999988
 40
93.455290000000005
 50
184.071945
 51
205.43998700000006
  0
ARC
  8
_0-0_0
  6
CONTINUOUS
 62
    7
 10
1564.1835429999992
 20
764.33080899999914
 40
73.71217200000001
 50
155.74672700000002
 51
174.29245300000002
  0
ARC
  8
_0-0_0
  6
CONTINUOUS
 62
    7
 10
1564.1835429999992
 20
764.33080899999914
 40
65.712157000000005
 50
156.07963100000001
 51
173.55468300000001
  0
ARC
  8
_0-0_0
  6
CONTINUOUS
 62
    7
 10
1564.1835429999992
 20
764.33080899999914
 40
73.71217200000001
 50
185.15533600000003
 51
219.42608400000003
  0
ARC
  8
_0-0_0
  6
CONTINUOUS
 62
    7
 10
1564.1835429999992
 20
764.33080899999914
 40
65.712157000000005
 50
185.78498400000001
 51
218.971002
  0
ARC
  8
_0-0_0
  6
CONTINUOUS
 62
    7
 10
1439.5531740000006
 20
741.70983699999852
 40
33.294967
 50
193.53148399999998
 51
313.39741099999998
  0
ARC
  8
_0-0_0
  6
CONTINUOUS
 62
    7
 10
1439.5531740000006
 20
741.70983699999852
 40
25.294971
 50
196.63662500000001
 51
312.305947
  0
ARC
  8
_0-0_0
  6
CONTINUOUS
 62
    7
 10
1530.1204500000022
 20
741.70983699999852
 40
33.294967
 50
226.60259100000002
 51
346.46850400000005
  0
ARC
  8
_0-0_0
  6
CONTINUOUS
 62
    7
 10
1530.1204500000022
 20
741.70983699999852
 40
25.294971
 50
227.69406900000001
 51
343.36336299999999
  0
ARC
  8
_0-0_0
  6
CONTINUOUS
 62
    7
 10
1420.2646229999955
 20
944.40017299999818
 40
162.44285300000001
 50
312.16030000000006
 51
326.04839600000003
  0
ARC
  8
_0-0_0
  6
CONTINUOUS
 62
    7
 10
1414.2741220000025
 20
949.73896299999979
 40
162.44285300000001
 50
312.16030000000006
 51
326.04839600000003
  0
ARC
  8
_0-0_0
  6
CONTINUOUS
 62
    7
 10
1497.1060639999996
 20
943.18223099999886
 40
92.419539
 50
342.06726600000002
 51
0.1283310000000082
  0
ARC
  8
_0-0_0
  6
CONTINUOUS
 62
    7
 10
1540.291237999998
 20
924.38299099999858
 40
35.446810999999997
 50
331.39954899999998
 51
76.803333000000023
  0
ARC
  8
_0-0_0
  6
CONTINUOUS
 62
    7
 10
1427.8480039999995
 20
937.50108699999691
 40
153.78454400000004
 50
2.1371440000000006
 51
27.452380000000002
  0
ARC
  8
_0-0_0
  6
CONTINUOUS
 62
    7
 10
1265.1118690000003
 20
862.14513799999986
 40
341.03539500000005
 50
26.066042000000003
 51
36.174355000000006
  0
ARC
  8
_0-0_0
  6
CONTINUOUS
 62
    7
 10
1265.1118690000003
 20
862.14513799999986
 40
333.03542600000003
 50
26.049631000000002
 51
36.219239999999999
  0
ARC
  8
_0-0_0
  6
CONTINUOUS
 62
    7
 10
2131.4907170000006
 20
1438.6794009999976
 40
708.13469400000008
 50
206.98222999999999
 51
212.43008499999999
  0
ARC
  8
_0-0_0
  6
CONTINUOUS
 62
    7
 10
2131.4907170000006
 20
1438.6794009999976
 40
700.13469400000008
 50
206.99080900000001
 51
212.408638
  0
ARC
  8
_0-0_0
  6
CONTINUOUS
 62
    7
 10
1541.8256239999973
 20
937.50108699999691
 40
161.784559
 50
152.58239600000002
 51
177.91425600000002
  0
ARC
  8
_0-0_0
  6
CONTINUOUS
 62
    7
 10
1704.5617530000018
 20
862.14513799999986
 40
341.03539500000005
 50
143.82564300000004
 51
153.93395400000003
  0
ARC
  8
_0-0_0
  6
CONTINUOUS
 62
    7
 10
838.1828749999986
 20
1438.6794009999976
 40
700.13469400000008
 50
327.59136300000006
 51
333.00917900000007
  0
ARC
  8
_0-0_0
  6
CONTINUOUS
 62
    7
 10
838.1828749999986
 20
1438.6794009999976
 40
708.13469400000008
 50
327.56991699999998
 51
333.017785
  0
ARC
  8
_0-0_0
  6
CONTINUOUS
 62
    7
 10
1704.5617530000018
 20
862.14513799999986
 40
333.03542600000003
 50
143.78075500000003
 51
153.95037400000004
  0
ARC
  8
_0-0_0
  6
CONTINUOUS
 62
    7
 10
1541.8256239999973
 20
937.50108699999691
 40
153.78454400000004
 50
152.54761700000003
 51
177.86285199999995
  0
ARC
  8
_0-0_0
  6
CONTINUOUS
 62
    7
 10
1612.1958329999979
 20
988.72920499999964
 40
239.28864700000005
 50
198.014779
 51
214.35994099999999
  0
ARC
  8
_0-0_0
  6
CONTINUOUS
 62
    7
 10
1472.5675619999965
 20
943.18223099999886
 40
92.419539
 50
179.87166600000003
 51
197.93273500000004
  0
ARC
  8
_0-0_0
  6
CONTINUOUS
 62
    7
 10
1555.3995009999999
 20
949.73896299999979
 40
162.44285300000001
 50
213.95160499999997
 51
227.83970199999996
  0
ARC
  8
_0-0_0
  6
CONTINUOUS
 62
    7
 10
1549.4089999999997
 20
944.40017299999818
 40
162.44285300000001
 50
213.95160499999997
 51
227.83970199999996
  0
ARC
  8
_0-0_0
  6
CONTINUOUS
 62
    7
 10
1400.8757990000013
 20
775.07372799999939
 40
62.870578000000002
 50
37.840074000000001
 51
51.076585000000001
  0
ARC
  8
_0-0_0
  6
CONTINUOUS
 62
    7
 10
1278.7921979999956
 20
683.43887299999915
 40
215.51228000000006
 50
29.932450000000006
 51
37.168257000000004
  0
ARC
  8
_0-0_0
  6
CONTINUOUS
 62
    7
 10
1429.3823899999988
 20
924.38299099999858
 40
35.446810999999997
 50
103.19666599999999
 51
208.60045200000002
  0
ARC
  8
_0-0_0
  6
CONTINUOUS
 62
    7
 10
1433.0159960000019
 20
968.73953499999698
 40
7.5492200000000009
 50
57.119385999999999
 51
152.14387099999999
  0
ARC
  8
_0-0_0
  6
CONTINUOUS
 62
    7
 10
1427.4009829999995
 20
971.65491799999654
 40
1.2234970000000001
 50
149.98569499999999
 51
269.63111600000002
  0
ARC
  8
_0-0_0
  6
CONTINUOUS
 62
    7
 10
1431.5881850000005
 20
965.37805099999969
 40
11.164909000000002
 50
274.72039899999999
 51
60.332707000000006
  0
ARC
  8
_0-0_0
  6
CONTINUOUS
 62
    7
 10
1431.1793719999987
 20
1177.8010019999965
 40
33.883270000000003
 50
90.216943000000015
 51
150.27488500000001
  0
ARC
  8
_0-0_0
  6
CONTINUOUS
 62
    7
 10
1418.7152070000011
 20
1185.7968669999973
 40
19.10981
 50
152.56465100000003
 51
186.01797500000004
  0
ARC
  8
_0-0_0
  6
CONTINUOUS
 62
    7
 10
1348.0218109999987
 20
1186.5338049999991
 40
51.761496999999999
 50
323.93396100000001
 51
356.96516600000001
  0
ARC
  8
_0-0_0
  6
CONTINUOUS
 62
    7
 10
1387.0640469999998
 20
1151.2638469999983
 40
1.8616190000000001
 50
139.38418899999999
 51
201.85861800000001
  0
ARC
  8
_0-0_0
  6
CONTINUOUS
 62
    7
 10
1563.2841059999992
 20
1354.8371169999991
 40
185.58733899999999
 50
206.99091800000002
 51
218.91727500000002
  0
ARC
  8
_0-0_0
  6
CONTINUOUS
 62
    7
 10
1447.7874650000012
 20
1291.0925199999983
 40
53.918807000000001
 50
105.633336
 51
202.32789299999996
  0
CIRCLE
  8
_0-0_0
  6
CONTINUOUS
 62
    7
 10
1445.1939899999998
 20
1372.7099499999968
 40
3.8639540000000001
  0
ARC
  8
_0-0_0
  6
CONTINUOUS
 62
    7
 10
1418.1416749999989
 20
1422.6637459999984
 40
81.068770000000001
 50
280.74601899999999
 51
303.74039800000003
  0
ARC
  8
_0-0_0
  6
CONTINUOUS
 62
    7
 10
1450.3955280000009
 20
1384.743854999997
 40
13.344228999999999
 50
123.171424
 51
229.85698500000001
  0
ARC
  8
_0-0_0
  6
CONTINUOUS
 62
    7
 10
1453.1861849999987
 20
1373.5431409999983
 40
24.541353000000004
 50
58.693817000000003
 51
114.281496
  0
ARC
  8
_0-0_0
  6
CONTINUOUS
 62
    7
 10
1454.132458
 20
1378.945972999998
 40
13.080902000000004
 50
47.926956000000004
 51
120.423379
  0
ARC
  8
_0-0_0
  6
CONTINUOUS
 62
    7
 10
1516.4874439999985
 20
1373.5431409999983
 40
24.541353000000004
 50
65.718502000000001
 51
121.306181
  0
ARC
  8
_0-0_0
  6
CONTINUOUS
 62
    7
 10
1515.5411659999954
 20
1378.945972999998
 40
13.080902000000004
 50
59.576619000000001
 51
132.07304600000001
  0
ARC
  8
_0-0_0
  6
CONTINUOUS
 62
    7
 10
1519.2781009999962
 20
1384.743854999997
 40
13.344228999999999
 50
310.14301699999999
 51
56.82857400000001
  0
ARC
  8
_0-0_0
  6
CONTINUOUS
 62
    7
 10
1515.9527640000015
 20
1381.7924389999971
 40
10.474447
 50
329.88414899999998
 51
53.622776999999999
  0
CIRCLE
  8
_0-0_0
  6
CONTINUOUS
 62
    7
 10
1524.4796349999961
 20
1372.7099499999968
 40
3.8639540000000001
  0
ARC
  8
_0-0_0
  6
CONTINUOUS
 62
    7
 10
1453.7208639999953
 20
1381.7924389999971
 40
10.474447
 50
126.377228
 51
210.11585299999996
  0
ARC
  8
_0-0_0
  6
CONTINUOUS
 62
    7
 10
1515.4318249999997
 20
1281.7159019999999
 40
56.527045000000001
 50
34.481274000000006
 51
76.595934
  0
ARC
  8
_0-0_0
  6
CONTINUOUS
 62
    7
 10
1521.8861590000015
 20
1291.0925199999983
 40
53.918807000000001
 50
337.672122
 51
74.366663000000031
  0
ARC
  8
_0-0_0
  6
CONTINUOUS
 62
    7
 10
1541.7492760000023
 20
1400.0557139999983
 40
64.715911000000006
 50
225.41215700000001
 51
258.21866199999999
  0
ARC
  8
_0-0_0
  6
CONTINUOUS
 62
    7
 10
1551.5319469999959
 20
1422.6637459999984
 40
81.068770000000001
 50
236.25960399999997
 51
259.25398199999995
  0
ARC
  8
_0-0_0
  6
CONTINUOUS
 62
    7
 10
1406.3895159999956
 20
1354.8371169999991
 40
185.58733899999999
 50
321.08274
 51
333.00907000000001
  0
ARC
  8
_0-0_0
  6
CONTINUOUS
 62
    7
 10
1415.8513840000014
 20
1347.8932699999968
 40
166.116849
 50
318.327742
 51
331.38624399999998
  0
ARC
  8
_0-0_0
  6
CONTINUOUS
 62
    7
 10
1520.4441619999998
 20
1291.3459679999978
 40
47.21966900000001
 50
330.84179599999993
 51
28.280285999999958
  0
ARC
  8
_0-0_0
  6
CONTINUOUS
 62
    7
 10
761.16395499999624
 20
1879.0773739999968
 40
1009.045029
 50
317.68384600000002
 51
320.51482299999998
  0
ARC
  8
_0-0_0
  6
CONTINUOUS
 62
    7
 10
1538.4942559999981
 20
1177.8010019999965
 40
33.883270000000003
 50
29.725113000000004
 51
89.783055000000004
  0
LINE
  8
_0-0_0
  6
CONTINUOUS
 62
    7
 10
1550.7864639999971
 20
1238.2515929999972
 11
1525.399354000001
 21
1209.7979189999969
  0
ARC
  8
_0-0_0
  6
CONTINUOUS
 62
    7
 10
1539.279466
 20
1181.0194469999988
 40
23.447670000000002
 50
16.80968
 51
82.197550000000021
  0
ARC
  8
_0-0_0
  6
CONTINUOUS
 62
    7
 10
1538.0800640000016
 20
1165.1061929999996
 40
39.388423000000003
 50
83.611671999999999
 51
173.81891600000003
  0
ARC
  8
_0-0_0
  6
CONTINUOUS
 62
    7
 10
1427.8480039999995
 20
937.50108699999691
 40
161.784559
 50
2.0857410000000001
 51
27.417605000000012
  0
ARC
  8
_0-0_0
  6
CONTINUOUS
 62
    7
 10
1514.6976529999956
 20
890.40636799999993
 40
47.823032000000005
 50
8.9108509999999992
 51
34.425973999999989
  0
ARC
  8
_0-0_0
  6
CONTINUOUS
 62
    7
 10
1537.5070159999959
 20
939.22498599999744
 40
4.1771989999999999
 50
133.56993600000001
 51
232.99362600000001
  0
ARC
  8
_0-0_0
  6
CONTINUOUS
 62
    7
 10
1553.8222380000007
 20
1347.8932699999968
 40
166.116849
 50
208.61375699999999
 51
221.672246
  0
LINE
  8
_0-0_0
  6
CONTINUOUS
 62
    7
 10
1418.8871589999981
 20
1238.2515929999972
 11
1444.2742739999958
 21
1209.7979189999969
  0
ARC
  8
_0-0_0
  6
CONTINUOUS
 62
    7
 10
1430.9981130000015
 20
1164.0168839999969
 40
47.667175
 50
73.828225000000003
 51
89.936338000000006
  0
ARC
  8
_0-0_0
  6
CONTINUOUS
 62
    7
 10
1431.5935640000025
 20
1165.1061929999996
 40
39.388423000000003
 50
6.1810870000000007
 51
96.388325999999964
  0
ARC
  8
_0-0_0
  6
CONTINUOUS
 62
    7
 10
1430.3941619999969
 20
1181.0194469999988
 40
23.447670000000002
 50
97.802454999999995
 51
163.19032200000004
  0
ARC
  8
_0-0_0
  6
CONTINUOUS
 62
    7
 10
1424.8123369999958
 20
1187.9546889999983
 40
16.864649
 50
180.52431800000002
 51
239.96815100000003
  0
ARC
  8
_0-0_0
  6
CONTINUOUS
 62
    7
 10
1424.4616979999992
 20
1193.1826239999973
 40
21.415244999999999
 50
247.80505500000004
 51
285.67003899999997
  0
ARC
  8
_0-0_0
  6
CONTINUOUS
 62
    7
 10
1433.6321529999987
 20
1167.3924479999987
 40
3.3249149999999998
 50
337.60734400000001
 51
72.292635000000004
  0
ARC
  8
_0-0_0
  6
CONTINUOUS
 62
    7
 10
1440.7815140000021
 20
1160.388297999998
 40
5.4910180000000004
 50
359.09036500000008
 51
93.811644000000086
  0
ARC
  8
_0-0_0
  6
CONTINUOUS
 62
    7
 10
1429.8624009999985
 20
1165.8936079999985
 40
6.6807239999999997
 50
44.303708000000007
 51
86.70932700000003
  0
ARC
  8
_0-0_0
  6
CONTINUOUS
 62
    7
 10
1407.2644629999995
 20
1170.6417009999968
 40
41.188029999999998
 50
315.87406500000003
 51
342.18990900000006
  0
ARC
  8
_0-0_0
  6
CONTINUOUS
 62
    7
 10
1404.9277010000005
 20
1174.1251289999964
 40
43.594043000000006
 50
314.09575699999999
 51
341.51188999999999
  0
ARC
  8
_0-0_0
  6
CONTINUOUS
 62
    7
 10
1441.3948789999995
 20
1159.8240889999979
 40
5.3864130000000001
 50
340.70016299999997
 51
50.203177999999994
  0
ARC
  8
_0-0_0
  6
CONTINUOUS
 62
    7
 10
1431.8353849999985
 20
1154.9728779999969
 40
14.514451000000001
 50
223.81303199999999
 51
268.79900800000001
  0
ARC
  8
_0-0_0
  6
CONTINUOUS
 62
    7
 10
1432.3783540000004
 20
1156.8629839999994
 40
15.021506000000002
 50
228.03206700000001
 51
267.33398699999998
  0
ARC
  8
_0-0_0
  6
CONTINUOUS
 62
    7
 10
1431.9656190000023
 20
1147.9628679999987
 40
6.1118270000000008
 50
267.31814100000003
 51
302.65065499999997
  0
ARC
  8
_0-0_0
  6
CONTINUOUS
 62
    7
 10
1432.0468489999985
 20
1148.7327349999978
 40
8.2871790000000001
 50
266.43234699999999
 51
305.24946
  0
ARC
  8
_0-0_0
  6
CONTINUOUS
 62
    7
 10
1424.1269729999985
 20
1145.2501759999977
 40
10.130442000000002
 50
154.50172000000001
 51
191.33631600000001
  0
ARC
  8
_0-0_0
  6
CONTINUOUS
 62
    7
 10
1412.095319
 20
1137.7529069999982
 40
12.956829000000001
 50
37.799813999999998
 51
69.624510000000001
  0
ARC
  8
_0-0_0
  6
CONTINUOUS
 62
    7
 10
1401.7820869999996
 20
1126.3497239999997
 40
26.988536000000003
 50
43.491247000000008
 51
55.933611000000006
  0
ARC
  8
_0-0_0
  6
CONTINUOUS
 62
    7
 10
1416.0817840000018
 20
1147.5290299999979
 40
1.4339230000000001
 50
55.216714000000003
 51
124.78327999999999
  0
ARC
  8
_0-0_0
  6
CONTINUOUS
 62
    7
 10
1415.8478600000017
 20
1149.456382999997
 40
0.8783469999999998
 50
30.262669000000002
 51
169.85015300000001
  0
ARC
  8
_0-0_0
  6
CONTINUOUS
 62
    7
 10
1393.6406070000012
 20
1138.6620259999981
 40
21.047502000000001
 50
314.15537
 51
10.786637999999998
  0
ARC
  8
_0-0_0
  6
CONTINUOUS
 62
    7
 10
1389.4877909999996
 20
1141.9807209999999
 40
25.159412
 50
317.27944400000001
 51
351.91404999999997
  0
ARC
  8
_0-0_0
  6
CONTINUOUS
 62
    7
 10
1402.0327049999978
 20
1129.8562549999988
 40
7.7276950000000006
 50
232.307301
 51
320.22224499999999
  0
ARC
  8
_0-0_0
  6
CONTINUOUS
 62
    7
 10
1402.5832799999989
 20
1128.8703539999988
 40
7.8034239999999997
 50
239.774911
 51
317.13032800000002
  0
ARC
  8
_0-0_0
  6
CONTINUOUS
 62
    7
 10
1412.0752159999975
 20
1141.5428999999967
 40
23.601862000000004
 50
191.52223400000003
 51
235.34692700000005
  0
ARC
  8
_0-0_0
  6
CONTINUOUS
 62
    7
 10
1412.2288489999992
 20
1142.4843979999969
 40
23.957066999999999
 50
193.13342100000006
 51
231.47726900000004
  0
ARC
  8
_0-0_0
  6
CONTINUOUS
 62
    7
 10
1397.8015880000021
 20
1153.5130689999969
 40
12.934977
 50
201.89582900000002
 51
214.78035299999999
  0
ARC
  8
_0-0_0
  6
CONTINUOUS
 62
    7
 10
1391.8147640000025
 20
1137.9415819999995
 40
3.0522739999999997
 50
115.06513700000002
 51
197.16295900000009
  0
ARC
  8
_0-0_0
  6
CONTINUOUS
 62
    7
 10
1390.809110000002
 20
1148.8961109999982
 40
8.1947430000000008
 50
267.98990300000003
 51
348.553515
  0
ARC
  8
_0-0_0
  6
CONTINUOUS
 62
    7
 10
1385.4921929999982
 20
1163.6708909999979
 40
19.047428000000004
 50
288.83670599999999
 51
306.42091900000003
  0
ARC
  8
_0-0_0
  6
CONTINUOUS
 62
    7
 10
1388.4002820000023
 20
1157.8830639999978
 40
11.971624
 50
285.18558800000005
 51
311.24699400000009
  0
ARC
  8
_0-0_0
  6
CONTINUOUS
 62
    7
 10
1397.2395529999994
 20
1147.5582959999992
 40
1.6270929999999997
 50
349.788522
 51
125.56260500000002
  0
ARC
  8
_0-0_0
  6
CONTINUOUS
 62
    7
 10
1392.8266579999981
 20
1151.696265999999
 40
7.5744860000000003
 50
188.54554200000007
 51
220.56137000000007
  0
ARC
  8
_0-0_0
  6
CONTINUOUS
 62
    7
 10
1389.8259409999955
 20
1149.6734389999983
 40
4.4201759999999997
 50
233.18962500000004
 51
294.259658
  0
ARC
  8
_0-0_0
  6
CONTINUOUS
 62
    7
 10
1389.7166569999972
 20
1150.7210919999998
 40
4.7536500000000004
 50
236.20037199999996
 51
292.50531000000001
  0
ARC
  8
_0-0_0
  6
CONTINUOUS
 62
    7
 10
1383.0606740000003
 20
1159.7851489999994
 40
7.7547979999999992
 50
289.51281299999999
 51
331.29838000000001
  0
ARC
  8
_0-0_0
  6
CONTINUOUS
 62
    7
 10
1417.5654579999973
 20
1177.3050609999991
 40
12.809951999999999
 50
235.79331999999999
 51
284.770804
  0
ARC
  8
_0-0_0
  6
CONTINUOUS
 62
    7
 10
1433.8608749999985
 20
1098.5712819999972
 40
67.614431999999994
 50
84.436096000000006
 51
101.11054799999999
  0
ARC
  8
_0-0_0
  6
CONTINUOUS
 62
    7
 10
1430.2760359999957
 20
1017.9732129999975
 40
142.153593
 50
86.037638999999999
 51
93.962366000000003
  0
ARC
  8
_0-0_0
  6
CONTINUOUS
 62
    7
 10
1415.1254929999996
 20
1120.8350379999974
 40
34.166679000000002
 50
56.741530000000004
 51
86.80196500000001
  0
ARC
  8
_0-0_0
  6
CONTINUOUS
 62
    7
 10
1562.4091599999956
 20
1170.6417009999968
 40
41.188029999999998
 50
197.810078
 51
224.12593699999999
  0
ARC
  8
_0-0_0
  6
CONTINUOUS
 62
    7
 10
1564.7459210000015
 20
1174.1251289999964
 40
43.594043000000006
 50
198.48809800000001
 51
225.90423100000001
  0
ARC
  8
_0-0_0
  6
CONTINUOUS
 62
    7
 10
1528.892114000002
 20
1160.388297999998
 40
5.4910180000000004
 50
86.188354000000004
 51
180.90965
  0
ARC
  8
_0-0_0
  6
CONTINUOUS
 62
    7
 10
1528.2787489999973
 20
1159.8240889999979
 40
5.3864130000000001
 50
129.796817
 51
199.29985199999999
  0
ARC
  8
_0-0_0
  6
CONTINUOUS
 62
    7
 10
1536.0414709999968
 20
1167.3924479999987
 40
3.3249149999999998
 50
107.70736999999998
 51
202.39264399999999
  0
ARC
  8
_0-0_0
  6
CONTINUOUS
 62
    7
 10
1539.811222999997
 20
1165.8936079999985
 40
6.6807239999999997
 50
93.290678000000014
 51
135.69629699999999
  0
ARC
  8
_0-0_0
  6
CONTINUOUS
 62
    7
 10
1545.2119299999977
 20
1193.1826239999973
 40
21.415244999999999
 50
254.32996200000002
 51
292.19494600000002
  0
ARC
  8
_0-0_0
  6
CONTINUOUS
 62
    7
 10
1544.8612910000011
 20
1187.9546889999983
 40
16.864649
 50
300.03185100000002
 51
359.47566999999998
  0
ARC
  8
_0-0_0
  6
CONTINUOUS
 62
    7
 10
1550.958415000001
 20
1185.7968669999973
 40
19.10981
 50
353.98203999999998
 51
27.435342000000002
  0
ARC
  8
_0-0_0
  6
CONTINUOUS
 62
    7
 10
1621.6518119999964
 20
1186.5338049999991
 40
51.761496999999999
 50
183.03483600000004
 51
216.06602700000008
  0
ARC
  8
_0-0_0
  6
CONTINUOUS
 62
    7
 10
1586.6129559999972
 20
1159.7851489999994
 40
7.7547979999999992
 50
208.70160700000005
 51
250.487188
  0
ARC
  8
_0-0_0
  6
CONTINUOUS
 62
    7
 10
1582.6095760000026
 20
1151.2638469999983
 40
1.8616190000000001
 50
338.14138300000002
 51
40.61581200000002
  0
ARC
  8
_0-0_0
  6
CONTINUOUS
 62
    7
 10
1571.8720350000003
 20
1153.5130689999969
 40
12.934977
 50
325.219649
 51
338.10417200000001
  0
ARC
  8
_0-0_0
  6
CONTINUOUS
 62
    7
 10
1576.846964999997
 20
1151.696265999999
 40
7.5744860000000003
 50
319.43863099999999
 51
351.45445999999998
  0
ARC
  8
_0-0_0
  6
CONTINUOUS
 62
    7
 10
1584.1814289999966
 20
1163.6708909999979
 40
19.047428000000004
 50
233.57908200000003
 51
251.16329500000001
  0
ARC
  8
_0-0_0
  6
CONTINUOUS
 62
    7
 10
1581.2733410000001
 20
1157.8830639999978
 40
11.971624
 50
228.75302100000005
 51
254.814414
  0
ARC
  8
_0-0_0
  6
CONTINUOUS
 62
    7
 10
1579.8476819999996
 20
1149.6734389999983
 40
4.4201759999999997
 50
245.74031600000001
 51
306.81037600000002
  0
ARC
  8
_0-0_0
  6
CONTINUOUS
 62
    7
 10
1578.8645120000001
 20
1148.8961109999982
 40
8.1947430000000008
 50
191.446473
 51
272.01009800000003
  0
ARC
  8
_0-0_0
  6
CONTINUOUS
 62
    7
 10
1577.8588589999999
 20
1137.9415819999995
 40
3.0522739999999997
 50
342.83705600000013
 51
64.934861000000112
  0
ARC
  8
_0-0_0
  6
CONTINUOUS
 62
    7
 10
1538.6755149999954
 20
1164.0168839999969
 40
47.667175
 50
90.063659999999999
 51
106.171773
  0
ARC
  8
_0-0_0
  6
CONTINUOUS
 62
    7
 10
1567.0903419999959
 20
1128.8703539999988
 40
7.8034239999999997
 50
222.869687
 51
300.22509000000002
  0
ARC
  8
_0-0_0
  6
CONTINUOUS
 62
    7
 10
1567.6409179999973
 20
1129.8562549999988
 40
7.7276950000000006
 50
219.77775600000001
 51
307.6927
  0
ARC
  8
_0-0_0
  6
CONTINUOUS
 62
    7
 10
1557.444773999996
 20
1142.4843979999969
 40
23.957066999999999
 50
308.52273200000002
 51
346.86656699999997
  0
ARC
  8
_0-0_0
  6
CONTINUOUS
 62
    7
 10
1557.5984069999977
 20
1141.5428999999967
 40
23.601862000000004
 50
304.653075
 51
348.477754
  0
ARC
  8
_0-0_0
  6
CONTINUOUS
 62
    7
 10
1576.0330150000009
 20
1138.6620259999981
 40
21.047502000000001
 50
169.21336000000005
 51
225.84463100000005
  0
ARC
  8
_0-0_0
  6
CONTINUOUS
 62
    7
 10
1580.1858319999956
 20
1141.9807209999999
 40
25.159412
 50
188.085938
 51
222.72055700000004
  0
ARC
  8
_0-0_0
  6
CONTINUOUS
 62
    7
 10
1545.5466509999969
 20
1145.2501759999977
 40
10.130442000000002
 50
348.66367200000008
 51
25.498286000000054
  0
ARC
  8
_0-0_0
  6
CONTINUOUS
 62
    7
 10
1567.8915359999955
 20
1126.3497239999997
 40
26.988536000000003
 50
124.066384
 51
136.508748
  0
ARC
  8
_0-0_0
  6
CONTINUOUS
 62
    7
 10
1557.5783030000021
 20
1137.7529069999982
 40
12.956829000000001
 50
110.375488
 51
142.20018099999999
  0
ARC
  8
_0-0_0
  6
CONTINUOUS
 62
    7
 10
1553.5918380000003
 20
1147.5290299999979
 40
1.4339230000000001
 50
55.216714000000003
 51
124.78327999999999
  0
ARC
  8
_0-0_0
  6
CONTINUOUS
 62
    7
 10
1553.8257630000007
 20
1149.456382999997
 40
0.8783469999999998
 50
10.149851
 51
149.737336
  0
ARC
  8
_0-0_0
  6
CONTINUOUS
 62
    7
 10
1537.2952739999964
 20
1156.8629839999994
 40
15.021506000000002
 50
272.66601500000002
 51
311.96793400000001
  0
ARC
  8
_0-0_0
  6
CONTINUOUS
 62
    7
 10
1537.838238999997
 20
1154.9728779999969
 40
14.514451000000001
 50
271.20099399999998
 51
316.18696899999998
  0
ARC
  8
_0-0_0
  6
CONTINUOUS
 62
    7
 10
1537.626774999997
 20
1148.7327349999978
 40
8.2871790000000001
 50
234.750542
 51
273.567654
  0
ARC
  8
_0-0_0
  6
CONTINUOUS
 62
    7
 10
1537.7080090000018
 20
1147.9628679999987
 40
6.1118270000000008
 50
237.34934700000002
 51
272.68186100000008
  0
ARC
  8
_0-0_0
  6
CONTINUOUS
 62
    7
 10
1449.229465999997
 20
1291.3459679999978
 40
47.21966900000001
 50
151.71971600000001
 51
209.15820600000001
  0
ARC
  8
_0-0_0
  6
CONTINUOUS
 62
    7
 10
1454.2418029999972
 20
1281.7159019999999
 40
56.527045000000001
 50
103.404071
 51
145.51872399999999
  0
ARC
  8
_0-0_0
  6
CONTINUOUS
 62
    7
 10
1427.9243520000018
 20
1400.0557139999983
 40
64.715911000000006
 50
281.781339
 51
314.58785799999998
  0
ARC
  8
_0-0_0
  6
CONTINUOUS
 62
    7
 10
1410.4087799999979
 20
895.53741099999752
 40
12.359299999999998
 50
152.83876100000003
 51
202.75062700000001
  0
ARC
  8
_0-0_0
  6
CONTINUOUS
 62
    7
 10
1391.904638
 20
903.01676599999701
 40
7.7293270000000005
 50
346.24821600000013
 51
34.679592000000113
  0
ARC
  8
_0-0_0
  6
CONTINUOUS
 62
    7
 10
1415.7759450000012
 20
982.58116399999926
 40
24.320775999999999
 50
283.10437400000001
 51
305.57067000000001
  0
ARC
  8
_0-0_0
  6
CONTINUOUS
 62
    7
 10
1427.6872529999964
 20
966.29313899999761
 40
4.1487470000000002
 50
302.61680400000006
 51
94.065700000000049
  0
ARC
  8
_0-0_0
  6
CONTINUOUS
 62
    7
 10
1433.0701489999992
 20
953.30898599999637
 40
1.09754
 50
120.87202700000002
 51
243.78289300000003
  0
ARC
  8
_0-0_0
  6
CONTINUOUS
 62
    7
 10
1431.9854169999962
 20
951.2276869999987
 40
1.250006
 50
308.214089
 51
61.321452000000079
  0
ARC
  8
_0-0_0
  6
CONTINUOUS
 62
    7
 10
1434.3541689999984
 20
949.75149099999908
 40
1.6702340000000002
 50
162.79441700000001
 51
217.34283500000001
  0
ARC
  8
_0-0_0
  6
CONTINUOUS
 62
    7
 10
1429.798824999998
 20
945.40257599999677
 40
4.6415490000000004
 50
345.65740499999998
 51
45.945377999999984
  0
ARC
  8
_0-0_0
  6
CONTINUOUS
 62
    7
 10
1437.0141270000022
 20
944.13037399999666
 40
2.7211789999999998
 50
177.421964
 51
223.66644299999999
  0
ARC
  8
_0-0_0
  6
CONTINUOUS
 62
    7
 10
1432.1666079999995
 20
939.22498599999744
 40
4.1771989999999999
 50
307.00637500000005
 51
46.43005800000001
  0
ARC
  8
_0-0_0
  6
CONTINUOUS
 62
    7
 10
1430.5463759999984
 20
915.99573899999814
 40
20.318570999999999
 50
78.259235000000004
 51
121.36922400000002
  0
ARC
  8
_0-0_0
  6
CONTINUOUS
 62
    7
 10
1420.6123169999992
 20
931.28097899999921
 40
2.1611769999999999
 50
107.30303000000001
 51
274.233926
  0
ARC
  8
_0-0_0
  6
CONTINUOUS
 62
    7
 10
1422.0838289999956
 20
920.90501799999765
 40
8.3247099999999996
 50
54.798299999999998
 51
99.067487999999997
  0
ARC
  8
_0-0_0
  6
CONTINUOUS
 62
    7
 10
1424.2952470000018
 20
925.54520799999955
 40
3.3718959999999996
 50
269.71531800000002
 51
39.883752000000015
  0
ARC
  8
_0-0_0
  6
CONTINUOUS
 62
    7
 10
1423.411076999997
 20
913.32075899999836
 40
8.8949800000000003
 50
84.403741999999994
 51
152.39329599999999
  0
ARC
  8
_0-0_0
  6
CONTINUOUS
 62
    7
 10
1454.9759720000002
 20
890.40636799999993
 40
47.823032000000005
 50
145.57402099999999
 51
171.08914900000008
  0
ARC
  8
_0-0_0
  6
CONTINUOUS
 62
    7
 10
1441.4541749999989
 20
895.53081899999961
 40
34.874813000000003
 50
135.35879
 51
175.14863099999999
  0
ARC
  8
_0-0_0
  6
CONTINUOUS
 62
    7
 10
1421.8954749999975
 20
916.17071099999885
 40
6.5239000000000011
 50
72.173140000000018
 51
143.66526999999999
  0
ARC
  8
_0-0_0
  6
CONTINUOUS
 62
    7
 10
1419.5199559999965
 20
932.01869499999884
 40
2.2334649999999998
 50
104.83635500000001
 51
223.54449600000007
  0
ARC
  8
_0-0_0
  6
CONTINUOUS
 62
    7
 10
1429.1921050000019
 20
918.21810499999992
 40
18.964416
 50
77.304654999999997
 51
122.69534600000001
  0
ARC
  8
_0-0_0
  6
CONTINUOUS
 62
    7
 10
1427.975231999997
 20
910.14696099999856
 40
21.053184000000002
 50
116.42047900000001
 51
164.38908900000004
  0
ARC
  8
_0-0_0
  6
CONTINUOUS
 62
    7
 10
1435.039807000001
 20
911.79489499999909
 40
27.844638000000007
 50
131.423768
 51
166.45922300000004
  0
ARC
  8
_0-0_0
  6
CONTINUOUS
 62
    7
 10
1447.9706010000009
 20
893.08080699999846
 40
44.139212999999998
 50
139.41275300000004
 51
170.78886700000004
  0
ARC
  8
_0-0_0
  6
CONTINUOUS
 62
    7
 10
1422.4683509999959
 20
916.47275099999752
 40
9.6251309999999997
 50
84.377663999999996
 51
146.408725
  0
ARC
  8
_0-0_0
  6
CONTINUOUS
 62
    7
 10
1432.9697919999962
 20
966.7946039999988
 40
7.4882360000000006
 50
32.678528
 51
132.02265299999999
  0
ARC
  8
_0-0_0
  6
CONTINUOUS
 62
    7
 10
1430.9884309999979
 20
965.8537209999995
 40
9.6679709999999996
 50
308.33165100000008
 51
31.031769000000079
  0
ARC
  8
_0-0_0
  6
CONTINUOUS
 62
    7
 10
1430.2333119999967
 20
965.56053099999917
 40
7.7413160000000012
 50
272.60774000000004
 51
88.805150000000111
  0
ARC
  8
_0-0_0
  6
CONTINUOUS
 62
    7
 10
1428.4777879999965
 20
965.1191239999971
 40
6.5853819999999992
 50
297.63338900000008
 51
89.246277000000134
  0
ARC
  8
_0-0_0
  6
CONTINUOUS
 62
    7
 10
1436.6557590000011
 20
919.61172799999986
 40
40.002662000000001
 50
97.358732000000003
 51
191.563748
  0
ARC
  8
_0-0_0
  6
CONTINUOUS
 62
    7
 10
1435.8768130000026
 20
914.46582399999897
 40
35.684097000000001
 50
96.563929999999999
 51
178.42404800000003
  0
ARC
  8
_0-0_0
  6
CONTINUOUS
 62
    7
 10
1437.3895080000002
 20
909.18229299999803
 40
34.492941999999999
 50
96.518666999999994
 51
176.33444700000001
  0
ARC
  8
_0-0_0
  6
CONTINUOUS
 62
    7
 10
1559.2648419999969
 20
895.53741099999752
 40
12.359299999999998
 50
337.24936000000002
 51
27.161233999999958
  0
ARC
  8
_0-0_0
  6
CONTINUOUS
 62
    7
 10
1577.7689850000024
 20
903.01676599999701
 40
7.7293270000000005
 50
145.320403
 51
193.75178500000001
  0
ARC
  8
_0-0_0
  6
CONTINUOUS
 62
    7
 10
1553.8976770000008
 20
982.58116399999926
 40
24.320775999999999
 50
234.42933200000004
 51
256.89565400000004
  0
ARC
  8
_0-0_0
  6
CONTINUOUS
 62
    7
 10
1541.9863750000004
 20
966.29313899999761
 40
4.1487470000000002
 50
85.934304999999995
 51
237.383197
  0
ARC
  8
_0-0_0
  6
CONTINUOUS
 62
    7
 10
1542.2726449999973
 20
971.65491799999654
 40
1.2234970000000001
 50
270.36888599999997
 51
30.014306999999921
  0
ARC
  8
_0-0_0
  6
CONTINUOUS
 62
    7
 10
1536.6576280000008
 20
968.73953499999698
 40
7.5492200000000009
 50
27.856131000000005
 51
122.880608
  0
ARC
  8
_0-0_0
  6
CONTINUOUS
 62
    7
 10
1538.0854429999963
 20
965.37805099999969
 40
11.164909000000002
 50
119.66729100000001
 51
265.27957500000008
  0
ARC
  8
_0-0_0
  6
CONTINUOUS
 62
    7
 10
1536.6034749999963
 20
953.30898599999637
 40
1.09754
 50
296.217108
 51
59.127978000000056
  0
ARC
  8
_0-0_0
  6
CONTINUOUS
 62
    7
 10
1537.6882110000006
 20
951.2276869999987
 40
1.250006
 50
118.67853900000001
 51
231.785912
  0
ARC
  8
_0-0_0
  6
CONTINUOUS
 62
    7
 10
1535.3194589999985
 20
949.75149099999908
 40
1.6702340000000002
 50
322.65717999999998
 51
17.205577999999996
  0
ARC
  8
_0-0_0
  6
CONTINUOUS
 62
    7
 10
1539.8748029999988
 20
945.40257599999677
 40
4.6415490000000004
 50
134.05462
 51
194.34261000000001
  0
ARC
  8
_0-0_0
  6
CONTINUOUS
 62
    7
 10
1532.6594980000009
 20
944.13037399999666
 40
2.7211789999999998
 50
316.33354500000002
 51
2.5780310000000184
  0
ARC
  8
_0-0_0
  6
CONTINUOUS
 62
    7
 10
1539.1272479999971
 20
915.99573899999814
 40
20.318570999999999
 50
58.630774000000009
 51
101.74076300000002
  0
ARC
  8
_0-0_0
  6
CONTINUOUS
 62
    7
 10
1549.0613129999983
 20
931.28097899999921
 40
2.1611769999999999
 50
265.76599399999998
 51
72.697064000000026
  0
ARC
  8
_0-0_0
  6
CONTINUOUS
 62
    7
 10
1547.5898010000019
 20
920.90501799999765
 40
8.3247099999999996
 50
80.932536999999996
 51
125.201725
  0
ARC
  8
_0-0_0
  6
CONTINUOUS
 62
    7
 10
1545.3783770000009
 20
925.54520799999955
 40
3.3718959999999996
 50
140.11624900000001
 51
270.28468299999997
  0
ARC
  8
_0-0_0
  6
CONTINUOUS
 62
    7
 10
1546.2625530000005
 20
913.32075899999836
 40
8.8949800000000003
 50
27.606708999999999
 51
95.596257000000023
  0
ARC
  8
_0-0_0
  6
CONTINUOUS
 62
    7
 10
1528.2194529999979
 20
895.53081899999961
 40
34.874813000000003
 50
4.8513630000000001
 51
44.641215000000003
  0
ARC
  8
_0-0_0
  6
CONTINUOUS
 62
    7
 10
1547.778155
 20
916.17071099999885
 40
6.5239000000000011
 50
36.334749000000002
 51
107.826892
  0
ARC
  8
_0-0_0
  6
CONTINUOUS
 62
    7
 10
1550.1536669999987
 20
932.01869499999884
 40
2.2334649999999998
 50
316.45550500000002
 51
75.163642999999979
  0
ARC
  8
_0-0_0
  6
CONTINUOUS
 62
    7
 10
1540.4815190000008
 20
918.21810499999992
 40
18.964416
 50
57.304651999999997
 51
102.69534299999999
  0
ARC
  8
_0-0_0
  6
CONTINUOUS
 62
    7
 10
1541.6983959999998
 20
910.14696099999856
 40
21.053184000000002
 50
15.610915
 51
63.579518999999998
  0
ARC
  8
_0-0_0
  6
CONTINUOUS
 62
    7
 10
1534.6338170000017
 20
911.79489499999909
 40
27.844638000000007
 50
13.540778000000001
 51
48.576226999999996
  0
ARC
  8
_0-0_0
  6
CONTINUOUS
 62
    7
 10
1521.7030269999959
 20
893.08080699999846
 40
44.139212999999998
 50
9.2111370000000008
 51
40.587240999999999
  0
ARC
  8
_0-0_0
  6
CONTINUOUS
 62
    7
 10
1547.2052719999992
 20
916.47275099999752
 40
9.6251309999999997
 50
33.591277000000005
 51
95.622333999999995
  0
ARC
  8
_0-0_0
  6
CONTINUOUS
 62
    7
 10
1536.7038319999992
 20
966.7946039999988
 40
7.4882360000000006
 50
47.977345999999997
 51
147.32147000000001
  0
ARC
  8
_0-0_0
  6
CONTINUOUS
 62
    7
 10
1538.6851929999975
 20
965.8537209999995
 40
9.6679709999999996
 50
148.96822900000001
 51
231.66832300000002
  0
ARC
  8
_0-0_0
  6
CONTINUOUS
 62
    7
 10
1539.4403129999992
 20
965.56053099999917
 40
7.7413160000000012
 50
91.194855000000018
 51
267.39226200000007
  0
ARC
  8
_0-0_0
  6
CONTINUOUS
 62
    7
 10
1541.195835999999
 20
965.1191239999971
 40
6.5853819999999992
 50
90.753720999999999
 51
242.366613
  0
ARC
  8
_0-0_0
  6
CONTINUOUS
 62
    7
 10
1533.017866000002
 20
919.61172799999986
 40
40.002662000000001
 50
348.43625400000002
 51
82.641273000000012
  0
ARC
  8
_0-0_0
  6
CONTINUOUS
 62
    7
 10
1533.7968150000015
 20
914.46582399999897
 40
35.684097000000001
 50
1.5759480000000001
 51
83.436075000000002
  0
ARC
  8
_0-0_0
  6
CONTINUOUS
 62
    7
 10
1532.2841160000025
 20
909.18229299999803
 40
34.492941999999999
 50
3.6655550000000008
 51
83.481330999999997
  0
ARC
  8
_0-0_0
  6
CONTINUOUS
 62
    7
 10
1614.2831440000009
 20
735.73443499999848
 40
51.761496999999999
 50
143.93395599999999
 51
176.96516100000002
  0
ARC
  8
_0-0_0
  6
CONTINUOUS
 62
    7
 10
1579.2442880000017
 20
762.48309099999824
 40
7.7547979999999992
 50
109.512815
 51
151.29833400000001
  0
ARC
  8
_0-0_0
  6
CONTINUOUS
 62
    7
 10
1575.2409160000025
 20
771.00439299999925
 40
1.8616190000000001
 50
319.38404400000002
 51
21.85861700000012
  0
ARC
  8
_0-0_0
  6
CONTINUOUS
 62
    7
 10
1569.4782970000015
 20
770.57197399999859
 40
7.5744860000000003
 50
8.5455310000000022
 51
40.561297000000003
  0
ARC
  8
_0-0_0
  6
CONTINUOUS
 62
    7
 10
1572.5883130000002
 20
771.54714799999783
 40
4.7536500000000004
 50
56.200367
 51
112.50529800000001
  0
ARC
  8
_0-0_0
  6
CONTINUOUS
 62
    7
 10
1573.9046889999954
 20
764.38519099999758
 40
11.971624
 50
105.18558899999999
 51
131.247016
  0
ARC
  8
_0-0_0
  6
CONTINUOUS
 62
    7
 10
1565.0654099999956
 20
774.70994399999836
 40
1.6270929999999997
 50
169.78849
 51
305.56261000000001
  0
ARC
  8
_0-0_0
  6
CONTINUOUS
 62
    7
 10
1571.4958449999976
 20
773.3721289999994
 40
8.1947430000000008
 50
87.989837000000009
 51
168.55350999999999
  0
ARC
  8
_0-0_0
  6
CONTINUOUS
 62
    7
 10
1570.4901989999998
 20
784.32665799999813
 40
3.0522739999999997
 50
295.06512800000007
 51
17.162957000000141
  0
ARC
  8
_0-0_0
  6
CONTINUOUS
 62
    7
 10
1550.0761060000004
 20
779.78384199999709
 40
23.957066999999999
 50
13.133421
 51
51.477254000000002
  0
ARC
  8
_0-0_0
  6
CONTINUOUS
 62
    7
 10
1560.2722579999972
 20
792.41198499999882
 40
7.7276950000000006
 50
52.307271999999998
 51
140.22219899999999
  0
ARC
  8
_0-0_0
  6
CONTINUOUS
 62
    7
 10
1572.817164
 20
780.2875189999977
 40
25.159412
 50
137.27941200000001
 51
171.91405800000001
  0
ARC
  8
_0-0_0
  6
CONTINUOUS
 62
    7
 10
1562.5609389999954
 20
782.03083599999809
 40
14.762664000000001
 50
173.01388299999999
 51
191.810112
  0
ARC
  8
_0-0_0
  6
CONTINUOUS
 62
    7
 10
1538.1779909999968
 20
777.01806399999987
 40
10.130442000000002
 50
334.50173900000004
 51
11.336319000000058
  0
ARC
  8
_0-0_0
  6
CONTINUOUS
 62
    7
 10
1546.4571030000006
 20
772.81185699999696
 40
0.8783469999999998
 50
210.262674
 51
349.85023999999999
  0
ARC
  8
_0-0_0
  6
CONTINUOUS
 62
    7
 10
1550.2096509999974
 20
784.51533299999937
 40
12.956829000000001
 50
217.79977500000001
 51
249.624481
  0
ARC
  8
_0-0_0
  6
CONTINUOUS
 62
    7
 10
1529.9266179999977
 20
765.40527199999997
 40
15.021506000000002
 50
48.032093000000003
 51
87.334023000000002
  0
ARC
  8
_0-0_0
  6
CONTINUOUS
 62
    7
 10
1530.3393529999958
 20
774.3053719999989
 40
6.1118270000000008
 50
87.318217999999987
 51
122.650649
  0
ARC
  8
_0-0_0
  6
CONTINUOUS
 62
    7
 10
1557.3772539999991
 20
748.14312599999903
 40
43.594043000000006
 50
134.095752
 51
161.511899
  0
ARC
  8
_0-0_0
  6
CONTINUOUS
 62
    7
 10
1521.5234500000006
 20
761.87994199999957
 40
5.4910180000000004
 50
179.09036
 51
273.81176499999992
  0
ARC
  8
_0-0_0
  6
CONTINUOUS
 62
    7
 10
1537.4926269999996
 20
734.31353599999784
 40
16.864649
 50
0.524421
 51
59.968166000000032
  0
ARC
  8
_0-0_0
  6
CONTINUOUS
 62
    7
 10
1528.4440889999969
 20
823.69695799999681
 40
67.614431999999994
 50
264.43610100000001
 51
281.11056000000002
  0
ARC
  8
_0-0_0
  6
CONTINUOUS
 62
    7
 10
1544.7394989999957
 20
744.96319399999993
 40
12.809951999999999
 50
55.793281
 51
104.77077800000001
  0
ARC
  8
_0-0_0
  6
CONTINUOUS
 62
    7
 10
1537.8432739999989
 20
729.0856309999981
 40
21.415244999999999
 50
67.805057000000005
 51
105.670055
  0
ARC
  8
_0-0_0
  6
CONTINUOUS
 62
    7
 10
1532.4425629999969
 20
756.37463199999911
 40
6.6807239999999997
 50
224.303754
 51
266.70932499999998
  0
ARC
  8
_0-0_0
  6
CONTINUOUS
 62
    7
 10
1528.6728189999994
 20
754.87579199999891
 40
3.3249149999999998
 50
157.60738000000001
 51
252.2926260000001
  0
ARC
  8
_0-0_0
  6
CONTINUOUS
 62
    7
 10
1564.5033829999957
 20
768.7551859999985
 40
12.934977
 50
21.895831000000001
 51
34.780374999999992
  0
ARC
  8
_0-0_0
  6
CONTINUOUS
 62
    7
 10
1572.4790290000019
 20
772.59480099999928
 40
4.4201759999999997
 50
53.189715999999997
 51
114.25967300000001
  0
ARC
  8
_0-0_0
  6
CONTINUOUS
 62
    7
 10
1576.8127699999968
 20
758.59734899999967
 40
19.047428000000004
 50
108.836674
 51
126.420928
  0
ARC
  8
_0-0_0
  6
CONTINUOUS
 62
    7
 10
1564.8126479999992
 20
775.25471299999845
 40
1.499287
 50
203.65195299999999
 51
297.46241500000002
  0
ARC
  8
_0-0_0
  6
CONTINUOUS
 62
    7
 10
1559.7216750000007
 20
793.39788599999883
 40
7.8034239999999997
 50
59.774872000000009
 51
137.13028200000002
  0
ARC
  8
_0-0_0
  6
CONTINUOUS
 62
    7
 10
1550.2297469999976
 20
780.72533999999723
 40
23.601862000000004
 50
11.522240000000004
 51
55.346918000000009
  0
ARC
  8
_0-0_0
  6
CONTINUOUS
 62
    7
 10
1568.6643629999962
 20
783.60621399999945
 40
21.047502000000001
 50
134.155393
 51
190.78663599999996
  0
ARC
  8
_0-0_0
  6
CONTINUOUS
 62
    7
 10
1546.2231699999975
 20
774.73920999999973
 40
1.4339230000000001
 50
235.21696199999997
 51
304.78353099999998
  0
ARC
  8
_0-0_0
  6
CONTINUOUS
 62
    7
 10
1560.5228829999978
 20
795.91851599999791
 40
26.988536000000003
 50
223.49123500000005
 51
235.93358499999999
  0
ARC
  8
_0-0_0
  6
CONTINUOUS
 62
    7
 10
1530.4695720000018
 20
767.29534699999931
 40
14.514451000000001
 50
43.813006999999999
 51
88.798968000000002
  0
ARC
  8
_0-0_0
  6
CONTINUOUS
 62
    7
 10
1530.2581149999969
 20
773.53550499999983
 40
8.2871790000000001
 50
86.432349000000002
 51
125.249427
  0
ARC
  8
_0-0_0
  6
CONTINUOUS
 62
    7
 10
1555.0404920000001
 20
751.62652399999934
 40
41.188029999999998
 50
135.87404599999999
 51
162.18991800000001
  0
ARC
  8
_0-0_0
  6
CONTINUOUS
 62
    7
 10
1539.652737999997
 20
778.30994999999893
 40
8.7827739999999999
 50
327.27179300000012
 51
350.15882800000014
  0
ARC
  8
_0-0_0
  6
CONTINUOUS
 62
    7
 10
1575.6393689999968
 20
772.38871599999766
 40
17.538238
 50
108.959378
 51
192.51563000000002
  0
ARC
  8
_0-0_0
  6
CONTINUOUS
 62
    7
 10
1579.5900219999967
 20
776.61749099999724
 40
25.724064999999996
 50
131.82409899999999
 51
196.54357000000002
  0
ARC
  8
_0-0_0
  6
CONTINUOUS
 62
    7
 10
1589.0079899999982
 20
756.64074499999697
 40
28.722078
 50
145.61186000000001
 51
189.38176200000001
  0
ARC
  8
_0-0_0
  6
CONTINUOUS
 62
    7
 10
1532.0289279999997
 20
904.29503999999724
 40
142.153593
 50
266.03764400000006
 51
273.96235700000005
  0
ARC
  8
_0-0_0
  6
CONTINUOUS
 62
    7
 10
1547.1794690000024
 20
801.4331949999978
 40
34.166679000000002
 50
236.74151499999999
 51
266.80196999999998
  0
ARC
  8
_0-0_0
  6
CONTINUOUS
 62
    7
 10
1543.325208000002
 20
747.93154799999684
 40
14.624084000000002
 50
36.397705999999999
 51
95.781990000000008
  0
ARC
  8
_0-0_0
  6
CONTINUOUS
 62
    7
 10
1544.0293249999959
 20
754.90063299999747
 40
12.481254000000002
 50
8.7400269999999995
 51
84.279494000000014
  0
ARC
  8
_0-0_0
  6
CONTINUOUS
 62
    7
 10
1537.8818639999954
 20
736.27636599999823
 40
18.432366999999999
 50
30.109441
 51
111.988485
  0
ARC
  8
_0-0_0
  6
CONTINUOUS
 62
    7
 10
1355.3904780000012
 20
735.73443499999848
 40
51.761496999999999
 50
3.0348389999999994
 51
36.066035000000014
  0
ARC
  8
_0-0_0
  6
CONTINUOUS
 62
    7
 10
1390.4293340000004
 20
762.48309099999824
 40
7.7547979999999992
 50
28.701667000000004
 51
70.487183000000002
  0
ARC
  8
_0-0_0
  6
CONTINUOUS
 62
    7
 10
1394.4327059999996
 20
771.00439299999925
 40
1.8616190000000001
 50
158.141378
 51
220.615971
  0
ARC
  8
_0-0_0
  6
CONTINUOUS
 62
    7
 10
1400.1953250000006
 20
770.57197399999859
 40
7.5744860000000003
 50
139.43870800000002
 51
171.45446799999999
  0
ARC
  8
_0-0_0
  6
CONTINUOUS
 62
    7
 10
1397.0853100000022
 20
771.54714799999783
 40
4.7536500000000004
 50
67.494699999999995
 51
123.799638
  0
ARC
  8
_0-0_0
  6
CONTINUOUS
 62
    7
 10
1395.7689339999997
 20
764.38519099999758
 40
11.971624
 50
48.752988999999999
 51
74.814409000000026
  0
ARC
  8
_0-0_0
  6
CONTINUOUS
 62
    7
 10
1404.6082129999995
 20
774.70994399999836
 40
1.6270929999999997
 50
234.43739100000002
 51
10.211514000000008
  0
ARC
  8
_0-0_0
  6
CONTINUOUS
 62
    7
 10
1398.1777779999975
 20
773.3721289999994
 40
8.1947430000000008
 50
11.446496
 51
92.010160999999997
  0
ARC
  8
_0-0_0
  6
CONTINUOUS
 62
    7
 10
1399.1834240000026
 20
784.32665799999813
 40
3.0522739999999997
 50
162.83703700000001
 51
244.93487299999998
  0
ARC
  8
_0-0_0
  6
CONTINUOUS
 62
    7
 10
1419.5975160000016
 20
779.78384199999709
 40
23.957066999999999
 50
128.522741
 51
166.86657600000001
  0
ARC
  8
_0-0_0
  6
CONTINUOUS
 62
    7
 10
1409.4013649999979
 20
792.41198499999882
 40
7.7276950000000006
 50
39.777802999999999
 51
127.69272200000002
  0
ARC
  8
_0-0_0
  6
CONTINUOUS
 62
    7
 10
1396.856458000002
 20
780.2875189999977
 40
25.159412
 50
8.0859430000000003
 51
42.720585999999997
  0
ARC
  8
_0-0_0
  6
CONTINUOUS
 62
    7
 10
1407.1126839999997
 20
782.03083599999809
 40
14.762664000000001
 50
348.18990300000002
 51
6.9861129999999969
  0
ARC
  8
_0-0_0
  6
CONTINUOUS
 62
    7
 10
1431.4956329999986
 20
777.01806399999987
 40
10.130442000000002
 50
168.66368
 51
205.49826199999998
  0
ARC
  8
_0-0_0
  6
CONTINUOUS
 62
    7
 10
1423.2165190000014
 20
772.81185699999696
 40
0.8783469999999998
 50
190.14976200000001
 51
329.73732699999999
  0
ARC
  8
_0-0_0
  6
CONTINUOUS
 62
    7
 10
1419.4639709999974
 20
784.51533299999937
 40
12.956829000000001
 50
290.37551999999999
 51
322.20024100000001
  0
ARC
  8
_0-0_0
  6
CONTINUOUS
 62
    7
 10
1439.7470059999978
 20
765.40527199999997
 40
15.021506000000002
 50
92.665976000000001
 51
131.96790200000001
  0
ARC
  8
_0-0_0
  6
CONTINUOUS
 62
    7
 10
1439.3342709999997
 20
774.3053719999989
 40
6.1118270000000008
 50
57.349356000000007
 51
92.681781000000001
  0
ARC
  8
_0-0_0
  6
CONTINUOUS
 62
    7
 10
1412.296368999996
 20
748.14312599999903
 40
43.594043000000006
 50
18.488098999999998
 51
45.904246999999991
  0
ARC
  8
_0-0_0
  6
CONTINUOUS
 62
    7
 10
1448.1501740000022
 20
761.87994199999957
 40
5.4910180000000004
 50
266.18823600000002
 51
0.9096460000000194
  0
ARC
  8
_0-0_0
  6
CONTINUOUS
 62
    7
 10
1432.1809969999958
 20
734.31353599999784
 40
16.864649
 50
120.03185900000001
 51
179.47567900000001
  0
ARC
  8
_0-0_0
  6
CONTINUOUS
 62
    7
 10
1441.2295349999986
 20
823.69695799999681
 40
67.614431999999994
 50
258.88944099999998
 51
275.56389999999999
  0
ARC
  8
_0-0_0
  6
CONTINUOUS
 62
    7
 10
1424.9341249999998
 20
744.96319399999993
 40
12.809951999999999
 50
75.229226999999995
 51
124.206717
  0
ARC
  8
_0-0_0
  6
CONTINUOUS
 62
    7
 10
1431.8303499999965
 20
729.0856309999981
 40
21.415244999999999
 50
74.329956999999993
 51
112.194928
  0
ARC
  8
_0-0_0
  6
CONTINUOUS
 62
    7
 10
1437.2310609999986
 20
756.37463199999911
 40
6.6807239999999997
 50
273.29067700000002
 51
315.69626099999999
  0
ARC
  8
_0-0_0
  6
CONTINUOUS
 62
    7
 10
1441.0008059999964
 20
754.87579199999891
 40
3.3249149999999998
 50
287.70737500000001
 51
22.392622000000006
  0
ARC
  8
_0-0_0
  6
CONTINUOUS
 62
    7
 10
1405.1702399999995
 20
768.7551859999985
 40
12.934977
 50
145.21963000000002
 51
158.10416699999999
  0
ARC
  8
_0-0_0
  6
CONTINUOUS
 62
    7
 10
1397.1945930000002
 20
772.59480099999928
 40
4.4201759999999997
 50
65.740331999999995
 51
126.810289
  0
ARC
  8
_0-0_0
  6
CONTINUOUS
 62
    7
 10
1392.8608529999983
 20
758.59734899999967
 40
19.047428000000004
 50
53.579076999999998
 51
71.163324000000003
  0
ARC
  8
_0-0_0
  6
CONTINUOUS
 62
    7
 10
1404.860974999996
 20
775.25471299999845
 40
1.499287
 50
242.53755899999999
 51
336.34804800000001
  0
ARC
  8
_0-0_0
  6
CONTINUOUS
 62
    7
 10
1409.9519480000017
 20
793.39788599999883
 40
7.8034239999999997
 50
42.869720000000001
 51
120.22512599999999
  0
ARC
  8
_0-0_0
  6
CONTINUOUS
 62
    7
 10
1419.4438749999972
 20
780.72533999999723
 40
23.601862000000004
 50
124.65308300000001
 51
168.47776300000004
  0
ARC
  8
_0-0_0
  6
CONTINUOUS
 62
    7
 10
1401.0092599999989
 20
783.60621399999945
 40
21.047502000000001
 50
349.21336500000001
 51
45.844608999999991
  0
ARC
  8
_0-0_0
  6
CONTINUOUS
 62
    7
 10
1423.4504519999973
 20
774.73920999999973
 40
1.4339230000000001
 50
235.21647000000002
 51
304.78304000000009
  0
ARC
  8
_0-0_0
  6
CONTINUOUS
 62
    7
 10
1409.150738999997
 20
795.91851599999791
 40
26.988536000000003
 50
304.06638900000002
 51
316.50875300000001
  0
ARC
  8
_0-0_0
  6
CONTINUOUS
 62
    7
 10
1439.2040530000013
 20
767.29534699999931
 40
14.514451000000001
 50
91.201036999999985
 51
136.186992
  0
ARC
  8
_0-0_0
  6
CONTINUOUS
 62
    7
 10
1439.4155089999986
 20
773.53550499999983
 40
8.2871790000000001
 50
54.750568000000001
 51
93.567649000000017
  0
ARC
  8
_0-0_0
  6
CONTINUOUS
 62
    7
 10
1414.633130000002
 20
751.62652399999934
 40
41.188029999999998
 50
17.810082000000001
 51
44.125952000000005
  0
ARC
  8
_0-0_0
  6
CONTINUOUS
 62
    7
 10
1430.0208859999984
 20
778.30994999999893
 40
8.7827739999999999
 50
189.84117400000002
 51
212.72820900000008
  0
ARC
  8
_0-0_0
  6
CONTINUOUS
 62
    7
 10
1394.0342539999983
 20
772.38871599999766
 40
17.538238
 50
347.48437099999995
 51
71.040619999999947
  0
ARC
  8
_0-0_0
  6
CONTINUOUS
 62
    7
 10
1390.0836009999985
 20
776.61749099999724
 40
25.724064999999996
 50
343.45641799999993
 51
48.175902999999963
  0
ARC
  8
_0-0_0
  6
CONTINUOUS
 62
    7
 10
1380.6656399999993
 20
756.64074499999697
 40
28.722078
 50
350.61825299999998
 51
34.388144999999994
  0
ARC
  8
_0-0_0
  6
CONTINUOUS
 62
    7
 10
1437.6446959999957
 20
904.29503999999724
 40
142.153593
 50
266.03761700000001
 51
273.962357
  0
ARC
  8
_0-0_0
  6
CONTINUOUS
 62
    7
 10
1422.4941529999996
 20
801.4331949999978
 40
34.166679000000002
 50
273.19803200000001
 51
303.25845900000002
  0
ARC
  8
_0-0_0
  6
CONTINUOUS
 62
    7
 10
1426.3484160000007
 20
747.93154799999684
 40
14.624084000000002
 50
84.218014999999994
 51
143.602296
  0
ARC
  8
_0-0_0
  6
CONTINUOUS
 62
    7
 10
1425.6442999999999
 20
754.90063299999747
 40
12.481254000000002
 50
95.720505000000031
 51
171.25997200000006
  0
ARC
  8
_0-0_0
  6
CONTINUOUS
 62
    7
 10
1431.7917600000001
 20
736.27636599999823
 40
18.432366999999999
 50
68.011499000000001
 51
149.89060500000008
  0
ARC
  8
_0-0_0
  6
CONTINUOUS
 62
    7
 10
1399.7440159999969
 20
1140.2374039999995
 40
14.762664000000001
 50
353.01390099999998
 51
11.810100999999957
  0
ARC
  8
_0-0_0
  6
CONTINUOUS
 62
    7
 10
1397.4923149999959
 20
1147.0135269999992
 40
1.499287
 50
23.652066000000001
 51
117.46242399999998
  0
ARC
  8
_0-0_0
  6
CONTINUOUS
 62
    7
 10
1422.652234000001
 20
1143.9582899999987
 40
8.7827739999999999
 50
147.271815
 51
170.15883600000001
  0
ARC
  8
_0-0_0
  6
CONTINUOUS
 62
    7
 10
1386.6656010000006
 20
1149.8795239999999
 40
17.538238
 50
288.95934899999997
 51
12.515637000000035
  0
ARC
  8
_0-0_0
  6
CONTINUOUS
 62
    7
 10
1382.7149559999962
 20
1145.6507489999967
 40
25.724064999999996
 50
311.82409000000001
 51
16.54357000000001
  0
ARC
  8
_0-0_0
  6
CONTINUOUS
 62
    7
 10
1373.2969719999965
 20
1165.6275099999984
 40
28.722078
 50
325.61186500000008
 51
9.3817540000000541
  0
ARC
  8
_0-0_0
  6
CONTINUOUS
 62
    7
 10
1418.9797639999961
 20
1174.3366929999975
 40
14.624084000000002
 50
216.39770100000001
 51
275.78200199999998
  0
ARC
  8
_0-0_0
  6
CONTINUOUS
 62
    7
 10
1418.2756319999971
 20
1167.3676069999965
 40
12.481254000000002
 50
188.74003800000003
 51
264.27952599999998
  0
ARC
  8
_0-0_0
  6
CONTINUOUS
 62
    7
 10
1424.4231079999954
 20
1185.9918589999979
 40
18.432366999999999
 50
210.10939099999999
 51
291.98848299999997
  0
ARC
  8
_0-0_0
  6
CONTINUOUS
 62
    7
 10
1579.9569649999976
 20
1150.7210919999998
 40
4.7536500000000004
 50
247.49469099999999
 51
303.79962899999998
  0
ARC
  8
_0-0_0
  6
CONTINUOUS
 62
    7
 10
1572.4340689999954
 20
1147.5582959999992
 40
1.6270929999999997
 50
54.437399999999997
 51
190.211466
  0
ARC
  8
_0-0_0
  6
CONTINUOUS
 62
    7
 10
1569.9296059999979
 20
1140.2374039999995
 40
14.762664000000001
 50
168.189898
 51
186.98609999999999
  0
ARC
  8
_0-0_0
  6
CONTINUOUS
 62
    7
 10
1535.8127529999983
 20
1098.5712819999972
 40
67.614431999999994
 50
78.889450000000011
 51
95.563902000000013
  0
ARC
  8
_0-0_0
  6
CONTINUOUS
 62
    7
 10
1552.1081649999978
 20
1177.3050609999991
 40
12.809951999999999
 50
255.22922500000001
 51
304.206681
  0
ARC
  8
_0-0_0
  6
CONTINUOUS
 62
    7
 10
1572.1813079999993
 20
1147.0135269999992
 40
1.499287
 50
62.537574000000006
 51
156.34793400000001
  0
ARC
  8
_0-0_0
  6
CONTINUOUS
 62
    7
 10
1547.0213959999965
 20
1143.9582899999987
 40
8.7827739999999999
 50
9.84117
 51
32.728203999999998
  0
ARC
  8
_0-0_0
  6
CONTINUOUS
 62
    7
 10
1583.0080210000015
 20
1149.8795239999999
 40
17.538238
 50
167.48436599999997
 51
251.04065199999999
  0
ARC
  8
_0-0_0
  6
CONTINUOUS
 62
    7
 10
1586.9586740000013
 20
1145.6507489999967
 40
25.724064999999996
 50
163.45642599999999
 51
228.17591100000001
  0
ARC
  8
_0-0_0
  6
CONTINUOUS
 62
    7
 10
1596.376658000001
 20
1165.6275099999984
 40
28.722078
 50
170.61824799999999
 51
214.38815000000002
  0
ARC
  8
_0-0_0
  6
CONTINUOUS
 62
    7
 10
1539.3975920000012
 20
1017.9732129999975
 40
142.153593
 50
86.037632000000016
 51
93.962366000000031
  0
ARC
  8
_0-0_0
  6
CONTINUOUS
 62
    7
 10
1554.5481290000025
 20
1120.8350379999974
 40
34.166679000000002
 50
93.198041000000018
 51
123.25846800000002
  0
ARC
  8
_0-0_0
  6
CONTINUOUS
 62
    7
 10
1550.6938660000014
 20
1174.3366929999975
 40
14.624084000000002
 50
264.21797199999997
 51
323.60228699999999
  0
ARC
  8
_0-0_0
  6
CONTINUOUS
 62
    7
 10
1551.3979899999977
 20
1167.3676069999965
 40
12.481254000000002
 50
275.72047500000002
 51
351.25996300000003
  0
ARC
  8
_0-0_0
  6
CONTINUOUS
 62
    7
 10
1545.2505200000014
 20
1185.9918589999979
 40
18.432366999999999
 50
248.011518
 51
329.89059600000002
  0
ARC
  8
_0-0_0
  6
CONTINUOUS
 62
    7
 10
1612.1958329999979
 20
988.72920499999964
 40
231.28864700000003
 50
198.016077
 51
202.6541170000001
  0
ARC
  8
_0-0_0
  6
CONTINUOUS
 62
    7
 10
1472.5675619999965
 20
943.18223099999886
 40
84.419539
 50
179.96354500000001
 51
197.928528
  0
ARC
  8
_0-0_0
  6
CONTINUOUS
 62
    7
 10
1469.0126000000018
 20
896.24955399999817
 40
61.302431999999996
 50
178.53760700000001
 51
206.90588200000002
  0
ARC
  8
_0-0_0
  6
CONTINUOUS
 62
    7
 10
1406.8663000000015
 20
780.4125189999977
 40
62.870581999999999
 50
37.840071000000002
 51
51.076585000000001
  0
ARC
  8
_0-0_0
  6
CONTINUOUS
 62
    7
 10
1568.7978240000011
 20
775.07372799999939
 40
62.870578000000002
 50
128.92341300000001
 51
142.15992399999999
  0
ARC
  8
_0-0_0
  6
CONTINUOUS
 62
    7
 10
1562.8073220000006
 20
780.4125189999977
 40
62.870581999999999
 50
128.92341300000001
 51
142.15992399999999
  0
ARC
  8
_0-0_0
  6
CONTINUOUS
 62
    7
 10
1357.4777889999968
 20
988.72920499999964
 40
231.28864700000003
 50
325.723635
 51
329.31921
  0
ARC
  8
_0-0_0
  6
CONTINUOUS
 62
    7
 10
1500.6610280000023
 20
896.24955399999817
 40
61.302431999999996
 50
333.09411900000009
 51
1.4623900000001262
  0
ARC
  8
_0-0_0
  6
CONTINUOUS
 62
    7
 10
1508.7603299999973
 20
896.58077599999888
 40
54.242263000000008
 50
334.06862300000006
 51
2.0067820000000482
  0
ARC
  8
_0-0_0
  6
CONTINUOUS
 62
    7
 10
1497.1060639999996
 20
943.18223099999886
 40
84.419539
 50
342.07147400000014
 51
0.0364590000000798
  0
ARC
  8
_0-0_0
  6
CONTINUOUS
 62
    7
 10
1357.4777889999968
 20
988.72920499999964
 40
239.28864700000005
 50
325.64006000000006
 51
341.98522200000008
  0
ARC
  8
_0-0_0
  6
CONTINUOUS
 62
    7
 10
1357.4777889999968
 20
988.72920499999964
 40
231.28864700000003
 50
337.34588400000007
 51
341.98391100000003
  0
ARC
  8
_0-0_0
  6
CONTINUOUS
 62
    7
 10
1612.1958329999979
 20
988.72920499999964
 40
231.28864700000003
 50
210.68080499999999
 51
214.276353
  0
ARC
  8
_0-0_0
  6
CONTINUOUS
 62
    7
 10
1460.9132959999988
 20
896.58077599999888
 40
54.242258999999997
 50
177.993213
 51
205.93139199999999
  0
LINE
  8
_0-0_0
  6
CONTINUOUS
 62
    7
 10
1490.4489509999971
 20
1339.4777331797045
 11
1490.4489509999971
 21
1553.1664669327542
  0
LINE
  8
_0-0_0
  6
CONTINUOUS
 62
    7
 10
1478.4489509999969
 20
1339.4777131316253
 11
1478.4489509999969
 21
1553.1664669327542
  0
LINE
  8
_0-0_0
  6
CONTINUOUS
 62
    7
 10
1490.4489509999971
 20
1168.4339669999972
 11
1490.4489509999971
 21
1208.4350957904085
  0
LINE
  8
_0-0_0
  6
CONTINUOUS
 62
    7
 10
1478.4489509999969
 20
1168.6485677857038
 11
1478.4489509999969
 21
1208.4350977079102
  0
LINE
  8
_0-0_0
  6
CONTINUOUS
 62
    7
 10
1490.4489509999971
 20
1048.1065620168843
 11
1490.4489509999971
 21
1154.4339679999975
  0
LINE
  8
_0-0_0
  6
CONTINUOUS
 62
    7
 10
1478.4489509999969
 20
1048.1065629906063
 11
1478.4489509999969
 21
1154.4339509176682
  0
LINE
  8
_0-0_0
  6
CONTINUOUS
 62
    7
 10
1490.4489509999971
 20
771.70731899999737
 11
1490.4489509999971
 21
860.51134797302723
  0
LINE
  8
_0-0_0
  6
CONTINUOUS
 62
    7
 10
1478.4489509999969
 20
771.70731899999737
 11
1478.4489509999969
 21
860.51134750969231
  0
LINE
  8
_0-0_0
  6
CONTINUOUS
 62
    7
 10
1490.4489509999971
 20
553.16646693275413
 11
1490.4489509999971
 21
757.70733499999915
  0
LINE
  8
_0-0_0
  6
CONTINUOUS
 62
    7
 10
1478.4489509999969
 20
553.16646693275413
 11
1490.4489509999971
 21
553.16646693275413
  0
LINE
  8
_0-0_0
  6
CONTINUOUS
 62
    7
 10
1478.4489509999969
 20
553.16646693275413
 11
1478.4489509999969
 21
757.70733499999915
  0
LINE
  8
_0-0_0
  6
CONTINUOUS
 62
    7
 10
1478.4489509999969
 20
1553.1664669327542
 11
1490.4489509999971
 21
1553.1664669327542
  0
ENDSEC
  0
EOF
