  0
SECTION
  2
HEADER
  9
$ACADVER
  1
AC1009
  9
$INSBASE
 10
0
 20
0
 30
0
  9
$EXTMIN
 10
0
 20
0
  9
$EXTMAX
 10
1260
 20
891
  9
$LIMMIN
 10
0
 20
0
  9
$LIMMAX
 10
1260
 20
891
  9
$LTSCALE
 40
3
  0
ENDSEC
  0
SECTION
  2
TABLES
  0
TABLE
  2
LTYPE
 70
     9
  0
LTYPE
  2
CONTINUOUS
 70
    64
  3
実線
 72
    65
 73
     0
 40
0.0
  0
LTYPE
  2
DASHED1
 70
    64
  3
--  --  --  --  --  --  --  --  
 72
    65
 73
     2
 40
2.5
 49
1.25
 49
-1.25
  0
LTYPE
  2
DASHED2
 70
    64
  3
----    ----    ----    ----    
 72
    65
 73
     2
 40
5.0
 49
2.5
 49
-2.5
  0
LTYPE
  2
DASHED3
 70
    64
  3
------  ------  ------  ------  
 72
    65
 73
     2
 40
5.0
 49
3.75
 49
-1.25
  0
LTYPE
  2
CENTER1
 70
    64
  3
----- - ----- - ----- - ----- - 
 72
    65
 73
     4
 40
10.0
 49
6.25
 49
-1.25
 49
1.25
 49
-1.25
  0
LTYPE
  2
CENTER2
 70
    64
  3
----------  --  ----------  --  
 72
    65
 73
     4
 40
20.0
 49
12.5
 49
-2.5
 49
2.5
 49
-2.5
  0
LTYPE
  2
PHANTOM1
 70
    64
  3
--- - - --- - - --- - - --- - - 
 72
    65
 73
     6
 40
10.0
 49
3.25
 49
-1.25
 49
1.25
 49
-1.25
 49
1.25
 49
-1.25
  0
LTYPE
  2
PHANTOM2
 70
    64
  3
--------  -  -  --------  -  -  
 72
    65
 73
     6
 40
20.0
 49
10.0
 49
-2.5
 49
1.25
 49
-2.5
 49
1.25
 49
-2.5
  0
LTYPE
  2
DOT
 70
    64
  3
-   -   -   -   -   -   -   -   
 72
    65
 73
     2
 40
2.5
 49
0.625
 49
-1.875
  0
LTYPE
  2
DUMMY
 70
    64
  3
ダミー
 72
    65
 73
     0
 40
0.0
  0
LTYPE
  2
RAND1
 70
    64
  3
ランダム線1
 72
    65
 73
     4
 40
10.0
 49
1.0
 49
-2.0
 49
3.0
 49
-4.0
  0
LTYPE
  2
RAND2
 70
    64
  3
ランダム線2
 72
    65
 73
     4
 40
14.0
 49
2.0
 49
-3.0
 49
4.0
 49
-5.0
  0
LTYPE
  2
RAND3
 70
    64
  3
ランダム線3
 72
    65
 73
     4
 40
18.0
 49
3.0
 49
-4.0
 49
5.0
 49
-6.0
  0
LTYPE
  2
RAND4
 70
    64
  3
ランダム線4
 72
    65
 73
     4
 40
22.0
 49
4.0
 49
-5.0
 49
6.0
 49
-7.0
  0
LTYPE
  2
RAND5
 70
    64
  3
ランダム線5
 72
    65
 73
     4
 40
26.0
 49
5.0
 49
-6.0
 49
7.0
 49
-8.0
  0
LTYPE
  2
LONG1
 70
    64
  3
----------  --  ----------  --  
 72
    65
 73
     4
 40
40.0
 49
32.5
 49
-2.5
 49
2.5
 49
-2.5
  0
LTYPE
  2
LONG2
 70
    64
  3
--------  -  -  --------  -  -  
 72
    65
 73
     6
 40
40.0
 49
30.0
 49
-2.5
 49
1.25
 49
-2.5
 49
1.25
 49
-2.5
  0
LTYPE
  2
LONG3
 70
    64
  3
+++++++++++++++..+++++++++++++++
 72
    65
 73
     2
 40
40.0
 49
37.5
 49
-2.5
  0
LTYPE
  2
LONG4
 70
    64
  3
+++++++++++++++..+++++++++++++++
 72
    65
 73
     2
 40
80.0
 49
75.0
 49
-5.0
  0
LTYPE
  2
LONG5
 70
    64
  3
----------  --  ----------  --  
 72
    65
 73
     4
 40
60.0
 49
37.5
 49
-7.5
 49
7.5
 49
-7.5
  0
LTYPE
  2
dashed
 70
   64
  3
-------   -------------   ------
 72
   65
 73
    2
 40
7.5
 49
6
 49
-1.5
  0
LTYPE
  2
dashed_spaced
 70
   64
  3
----        --------        ----
 72
   65
 73
    2
 40
12
 49
6
 49
-6
  0
LTYPE
  2
long_dashed_dotted
 70
   64
  3
------------- --- --------------
 72
   65
 73
    4
 40
15.25
 49
12
 49
-1.5
 49
0.25
 49
-1.5
  0
LTYPE
  2
long_dashed_double-dotted
 70
   64
  3
----------- --- --- ------------
 72
   65
 73
    6
 40
17
 49
12
 49
-1.5
 49
0.25
 49
-1.5
 49
0.25
 49
-1.5
  0
LTYPE
  2
long_dashed_triplicate-dotted
 70
   64
  3
--------- --- --- --- ----------
 72
   65
 73
    8
 40
18.75
 49
12
 49
-1.5
 49
0.25
 49
-1.5
 49
0.25
 49
-1.5
 49
0.25
 49
-1.5
  0
LTYPE
  2
dotted
 70
   64
  3
   -       -       -       -    
 72
   65
 73
    2
 40
1.75
 49
0.25
 49
-1.5
  0
LTYPE
  2
chain
 70
   64
  3
-------------- -- --------------
 72
   65
 73
    4
 40
18.5
 49
12
 49
-1.5
 49
3.5
 49
-1.5
  0
LTYPE
  2
chain_double_dash
 70
   64
  3
------------ -- -- -------------
 72
   65
 73
    6
 40
23.5
 49
12
 49
-1.5
 49
3.5
 49
-1.5
 49
3.5
 49
-1.5
  0
LTYPE
  2
dashed_dotted
 70
   64
  3
-----------     -     ----------
 72
   65
 73
    4
 40
9.25
 49
6
 49
-1.5
 49
0.25
 49
-1.5
  0
LTYPE
  2
double-dashed_dotted
 70
   64
  3
------   -----------   -   -----
 72
   65
 73
    6
 40
16.75
 49
6
 49
-1.5
 49
6
 49
-1.5
 49
0.25
 49
-1.5
  0
LTYPE
  2
dashed_double-dotted
 70
   64
  3
---------    -    -    ---------
 72
   65
 73
    6
 40
11
 49
6
 49
-1.5
 49
0.25
 49
-1.5
 49
0.25
 49
-1.5
  0
LTYPE
  2
double-dashed_double-dotted
 70
   64
  3
-----   ---------   -   -   ----
 72
   65
 73
    8
 40
18.5
 49
6
 49
-1.5
 49
6
 49
-1.5
 49
0.25
 49
-1.5
 49
0.25
 49
-1.5
  0
LTYPE
  2
dashed_triplicate-dotted
 70
   64
  3
-------    -    -    -    ------
 72
   65
 73
    8
 40
12.75
 49
6
 49
-1.5
 49
0.25
 49
-1.5
 49
0.25
 49
-1.5
 49
0.25
 49
-1.5
  0
LTYPE
  2
double-dashed_triplicate-dotted
 70
   64
  3
-----  ---------  -  -  -  -----
 72
   65
 73
   10
 40
20.25
 49
6
 49
-1.5
 49
6
 49
-1.5
 49
0.25
 49
-1.5
 49
0.25
 49
-1.5
 49
0.25
 49
-1.5
  0
LTYPE
  2
undefined
 70
   64
  3
--------------------------------
 72
   65
 73
    0
 40
0
  0
LTYPE
  2
BORDER
 70
   64
  3
----     --------     -     ----
 72
   65
 73
    0
 40
0
  0
LTYPE
  2
BORDER2
 70
   64
  3
----     --------     -     ----
 72
   65
 73
    0
 40
0
  0
LTYPE
  2
BORDERX2
 70
   64
  3
----     --------     -     ----
 72
   65
 73
    0
 40
0
  0
LTYPE
  2
CENTER
 70
   64
  3
----------    ----    ----------
 72
   65
 73
    0
 40
0
  0
LTYPE
  2
CENTER2_21
 70
   64
  3
----------    ----    ----------
 72
   65
 73
    0
 40
0
  0
LTYPE
  2
CENTERX2
 70
   64
  3
----------    ----    ----------
 72
   65
 73
    0
 40
0
  0
LTYPE
  2
DASHDOT
 70
   64
  3
--------        -        -------
 72
   65
 73
    0
 40
0
  0
LTYPE
  2
DASHDOT2
 70
   64
  3
--------        -        -------
 72
   65
 73
    0
 40
0
  0
LTYPE
  2
DASHDOTX2
 70
   64
  3
--------        -        -------
 72
   65
 73
    0
 40
0
  0
LTYPE
  2
DASHED
 70
   64
  3
------     -----------     -----
 72
   65
 73
    0
 40
0
  0
LTYPE
  2
DASHED2_27
 70
   64
  3
------     -----------     -----
 72
   65
 73
    0
 40
0
  0
LTYPE
  2
DASHEDX2
 70
   64
  3
------     -----------     -----
 72
   65
 73
    0
 40
0
  0
LTYPE
  2
DIVIDE
 70
   64
  3
------      -      -      ------
 72
   65
 73
    0
 40
0
  0
LTYPE
  2
DIVIDE2
 70
   64
  3
------      -      -      ------
 72
   65
 73
    0
 40
0
  0
LTYPE
  2
DIVIDEX2
 70
   64
  3
------      -      -      ------
 72
   65
 73
    0
 40
0
  0
LTYPE
  2
DOT_32
 70
   64
  3
-               -               
 72
   65
 73
    0
 40
0
  0
ENDTAB
  0
TABLE
  2
STYLE
  5
3
100
AcDbSymbolTable
 70
     1
  0
STYLE
  5
10
100
AcDbSymbolTableRecord
100
AcDbTextStyleTableRecord
  2
STANDARD
 70
     0
 40
0.0
 41
1.0
 50
0.0
 71
     0
 42
0.2
  3
txt
  4
bigfont.shx
  0
STYLE
  5
26
100
AcDbSymbolTableRecord
100
AcDbTextStyleTableRecord
  2
TATEGAKI
 70
    68
 40
0.0
 41
1.0
 50
0.0
 71
     0
 42
1.0
  3
txt
  4
bigfont.shx
  0
ENDTAB
  0
TABLE
  2
LAYER
 70
    2
  0
LAYER
  2
_0-0_0
 70
   64
 62
    7
  6
CONTINUOUS
  0
LAYER
  2
ADD_LINE
 70
   64
 62
    7
  6
CONTINUOUS
  0
ENDTAB
  0
ENDSEC
  0
SECTION
  2
BLOCKS
  0
ENDSEC
  0
SECTION
  2
ENTITIES
  0
ARC
  8
_0-0_0
  6
CONTINUOUS
 62
    7
 10
674.41473499999847
 20
501.55968749999738
 40
56.206091999999991
 50
150.587762
 51
218.07949800000003
  0
LINE
  8
_0-0_0
  6
CONTINUOUS
 62
    7
 10
589.63903500000015
 20
251.97871249999662
 11
587.1671109999952
 21
249.01200749999774
  0
ARC
  8
_0-0_0
  6
CONTINUOUS
 62
    7
 10
705.40660899999784
 20
670.52404049999677
 40
69.166465000000002
 50
145.87847000000002
 51
174.30510300000003
  0
ARC
  8
_0-0_0
  6
CONTINUOUS
 62
    7
 10
705.40660899999784
 20
670.25093849999757
 40
69.166465000000002
 50
185.69486599999999
 51
214.12152599999999
  0
ARC
  8
_0-0_0
  6
CONTINUOUS
 62
    7
 10
705.40660899999784
 20
670.52404049999677
 40
63.166460999999998
 50
145.96316400000003
 51
169.48544800000002
  0
ARC
  8
_0-0_0
  6
CONTINUOUS
 62
    7
 10
679.06230599999981
 20
686.96846749999531
 40
38.150599999999997
 50
93.219678999999999
 51
144.12957300000002
  0
ARC
  8
_0-0_0
  6
CONTINUOUS
 62
    7
 10
705.40660899999784
 20
670.25093849999757
 40
63.166460999999998
 50
190.51454799999999
 51
214.03681800000001
  0
ARC
  8
_0-0_0
  6
CONTINUOUS
 62
    7
 10
679.06230599999981
 20
653.80651149999539
 40
38.150599999999997
 50
215.87042400000001
 51
266.78033099999999
  0
LINE
  8
_0-0_0
  6
CONTINUOUS
 62
    7
 10
588.50480799999787
 20
702.43932349999523
 11
582.38084600000002
 21
698.88713849999476
  0
ARC
  8
_0-0_0
  6
CONTINUOUS
 62
    7
 10
555.07396199999494
 20
670.52404049999677
 40
69.166465000000002
 50
5.6948969999999992
 51
34.121535000000002
  0
ARC
  8
_0-0_0
  6
CONTINUOUS
 62
    7
 10
555.07396199999494
 20
670.25093849999757
 40
69.166465000000002
 50
325.87846100000002
 51
354.30513500000001
  0
ARC
  8
_0-0_0
  6
CONTINUOUS
 62
    7
 10
543.49080200000026
 20
669.47075649999533
 40
74.755117999999982
 50
6.0791620000000011
 51
9.6881730000000008
  0
ARC
  8
_0-0_0
  6
CONTINUOUS
 62
    7
 10
543.49080200000026
 20
671.30425249999826
 40
74.755117999999982
 50
350.31179600000007
 51
353.92084100000005
  0
ARC
  8
_0-0_0
  6
CONTINUOUS
 62
    7
 10
585.1749439999985
 20
711.05998949999776
 40
14.504975999999999
 50
184.43331699999999
 51
224.30638999999999
  0
ARC
  8
_0-0_0
  6
CONTINUOUS
 62
    7
 10
580.56208999999944
 20
707.24474249999548
 40
8.5531609999999993
 50
227.60272200000003
 51
282.277129
  0
ARC
  8
_0-0_0
  6
CONTINUOUS
 62
    7
 10
555.07396199999494
 20
670.52404049999677
 40
63.166460999999998
 50
10.514552000000002
 51
34.036843999999995
  0
ARC
  8
_0-0_0
  6
CONTINUOUS
 62
    7
 10
581.41826099999889
 20
686.96846749999531
 40
32.150599999999997
 50
36.030450000000002
 51
87.327287999999996
  0
ARC
  8
_0-0_0
  6
CONTINUOUS
 62
    7
 10
581.07988199999818
 20
708.8206704999975
 40
10.426665
 50
79.849227999999997
 51
173.84403699999999
  0
ARC
  8
_0-0_0
  6
CONTINUOUS
 62
    7
 10
578.42439500000182
 20
709.25139549999585
 40
13.741614999999999
 50
174.66729400000003
 51
291.94996099999997
  0
ARC
  8
_0-0_0
  6
CONTINUOUS
 62
    7
 10
581.07988199999818
 20
708.8206704999975
 40
16.426663999999995
 50
81.312766999999994
 51
174.03225
  0
ARC
  8
_0-0_0
  6
CONTINUOUS
 62
    7
 10
581.41826099999889
 20
686.96846749999531
 40
38.150599999999997
 50
35.870429000000009
 51
86.780326000000017
  0
ARC
  8
_0-0_0
  6
CONTINUOUS
 62
    7
 10
585.1749439999985
 20
629.71501949999583
 40
14.504975999999999
 50
135.693702
 51
175.56669299999999
  0
ARC
  8
_0-0_0
  6
CONTINUOUS
 62
    7
 10
580.56208999999944
 20
633.53023549999489
 40
8.5531609999999993
 50
77.722928999999993
 51
132.39727500000001
  0
ARC
  8
_0-0_0
  6
CONTINUOUS
 62
    7
 10
555.07396199999494
 20
670.25093849999757
 40
63.166460999999998
 50
325.96318300000001
 51
349.48545300000001
  0
ARC
  8
_0-0_0
  6
CONTINUOUS
 62
    7
 10
581.41826099999889
 20
653.80651149999539
 40
32.150599999999997
 50
272.672708
 51
323.96958699999999
  0
ARC
  8
_0-0_0
  6
CONTINUOUS
 62
    7
 10
581.07988199999818
 20
631.95430849999684
 40
10.426665
 50
186.15579500000001
 51
280.15080899999998
  0
LINE
  8
_0-0_0
  6
CONTINUOUS
 62
    7
 10
583.56096099999559
 20
644.26909649999652
 11
589.31544700000086
 21
639.25646249999772
  0
ARC
  8
_0-0_0
  6
CONTINUOUS
 62
    7
 10
578.42439500000182
 20
631.52361349999774
 40
13.741614999999999
 50
68.050035000000008
 51
185.33282500000001
  0
ARC
  8
_0-0_0
  6
CONTINUOUS
 62
    7
 10
581.07988199999818
 20
631.95430849999684
 40
16.426663999999995
 50
185.96774600000001
 51
278.68723599999998
  0
ARC
  8
_0-0_0
  6
CONTINUOUS
 62
    7
 10
581.41826099999889
 20
653.80651149999539
 40
38.150599999999997
 50
273.21967000000001
 51
324.12957799999998
  0
LINE
  8
_0-0_0
  6
CONTINUOUS
 62
    7
 10
617.25947699999961
 20
663.38750449999498
 11
643.13847800000076
 21
663.38750449999498
  0
ARC
  8
_0-0_0
  6
CONTINUOUS
 62
    7
 10
617.25947699999961
 20
665.38750449999498
 40
2
 50
234.34015700000003
 51
270.000001
  0
ARC
  8
_0-0_0
  6
CONTINUOUS
 62
    7
 10
620.84709399999701
 20
670.38750449999498
 40
8.1539520000000003
 50
125.660195
 51
234.33980200000002
  0
ARC
  8
_0-0_0
  6
CONTINUOUS
 62
    7
 10
639.84855799999787
 20
670.38750449999498
 40
7.9852749999999997
 50
303.34421900000001
 51
56.655787000000018
  0
ARC
  8
_0-0_0
  6
CONTINUOUS
 62
    7
 10
643.13847800000076
 20
665.38750449999498
 40
2
 50
270.000001
 51
303.34405500000003
  0
LINE
  8
_0-0_0
  6
CONTINUOUS
 62
    7
 10
643.13847800000076
 20
677.38750449999498
 11
617.25947699999961
 21
677.38750449999498
  0
ARC
  8
_0-0_0
  6
CONTINUOUS
 62
    7
 10
643.13847800000076
 20
675.38750449999498
 40
2
 50
56.655948000000002
 51
90.000003000000007
  0
ARC
  8
_0-0_0
  6
CONTINUOUS
 62
    7
 10
617.25947699999961
 20
675.38750449999498
 40
2
 50
90.000003000000007
 51
125.65984
  0
ARC
  8
_0-0_0
  6
CONTINUOUS
 62
    7
 10
716.9897689999998
 20
669.47075649999533
 40
74.755117999999982
 50
170.31183200000001
 51
173.92083600000001
  0
ARC
  8
_0-0_0
  6
CONTINUOUS
 62
    7
 10
716.9897689999998
 20
671.30425249999826
 40
74.755117999999982
 50
186.07916000000003
 51
189.68819100000002
  0
ARC
  8
_0-0_0
  6
CONTINUOUS
 62
    7
 10
675.30561899999884
 20
711.05998949999776
 40
14.504975999999999
 50
315.69361099999998
 51
355.56669799999997
  0
ARC
  8
_0-0_0
  6
CONTINUOUS
 62
    7
 10
679.91847699999926
 20
707.24474249999548
 40
8.5531609999999993
 50
257.722872
 51
312.39728000000002
  0
ARC
  8
_0-0_0
  6
CONTINUOUS
 62
    7
 10
679.06230599999981
 20
686.96846749999531
 40
32.150599999999997
 50
92.67271700000002
 51
143.96955500000001
  0
ARC
  8
_0-0_0
  6
CONTINUOUS
 62
    7
 10
679.40068500000052
 20
708.8206704999975
 40
10.426665
 50
6.155962999999999
 51
100.15079100000001
  0
ARC
  8
_0-0_0
  6
CONTINUOUS
 62
    7
 10
682.05617199999688
 20
709.25139549999585
 40
13.741614999999999
 50
248.05001300000004
 51
5.3327040000000299
  0
ARC
  8
_0-0_0
  6
CONTINUOUS
 62
    7
 10
679.40068500000052
 20
708.8206704999975
 40
16.426663999999995
 50
5.9677480000000012
 51
98.687245000000004
  0
ARC
  8
_0-0_0
  6
CONTINUOUS
 62
    7
 10
675.30561899999884
 20
629.71501949999583
 40
14.504975999999999
 50
4.4333099999999996
 51
44.306293000000004
  0
ARC
  8
_0-0_0
  6
CONTINUOUS
 62
    7
 10
679.91847699999926
 20
633.53023549999489
 40
8.5531609999999993
 50
47.602727000000002
 51
102.277097
  0
ARC
  8
_0-0_0
  6
CONTINUOUS
 62
    7
 10
679.06230599999981
 20
653.80651149999539
 40
32.150599999999997
 50
216.03039999999999
 51
267.32726600000001
  0
ARC
  8
_0-0_0
  6
CONTINUOUS
 62
    7
 10
679.40068500000052
 20
631.95430849999684
 40
10.426665
 50
259.84916500000008
 51
353.84420600000004
  0
LINE
  8
_0-0_0
  6
CONTINUOUS
 62
    7
 10
676.91960200000176
 20
644.26909649999652
 11
671.16511599999649
 21
639.25646249999772
  0
ARC
  8
_0-0_0
  6
CONTINUOUS
 62
    7
 10
682.05617199999688
 20
631.52361349999774
 40
13.741614999999999
 50
354.66716200000008
 51
111.94997700000002
  0
ARC
  8
_0-0_0
  6
CONTINUOUS
 62
    7
 10
679.40068500000052
 20
631.95430849999684
 40
16.426663999999995
 50
261.31276500000007
 51
354.03225500000008
  0
ARC
  8
_0-0_0
  6
CONTINUOUS
 62
    7
 10
640.53105299999879
 20
220.38729749999766
 40
7.9852749999999997
 50
303.34421900000001
 51
56.655791000000008
  0
ARC
  8
_0-0_0
  6
CONTINUOUS
 62
    7
 10
706.08910399999877
 20
220.52383349999585
 40
69.166465000000002
 50
145.878443
 51
174.30508900000001
  0
ARC
  8
_0-0_0
  6
CONTINUOUS
 62
    7
 10
706.08910399999877
 20
220.2507624999962
 40
69.166465000000002
 50
185.69488000000004
 51
214.12154000000004
  0
ARC
  8
_0-0_0
  6
CONTINUOUS
 62
    7
 10
706.08910399999877
 20
220.52383349999585
 40
63.166460999999998
 50
145.96315100000001
 51
169.485421
  0
ARC
  8
_0-0_0
  6
CONTINUOUS
 62
    7
 10
679.74480100000073
 20
236.9682914999976
 40
38.150599999999997
 50
93.219678999999999
 51
144.12957300000002
  0
ARC
  8
_0-0_0
  6
CONTINUOUS
 62
    7
 10
706.08910399999877
 20
220.2507624999962
 40
63.166460999999998
 50
190.51457600000003
 51
214.03683200000003
  0
ARC
  8
_0-0_0
  6
CONTINUOUS
 62
    7
 10
679.74480100000073
 20
203.80630449999808
 40
38.150599999999997
 50
215.87042400000001
 51
266.78033099999999
  0
LINE
  8
_0-0_0
  6
CONTINUOUS
 62
    7
 10
589.18730399999913
 20
188.33547949999777
 11
583.06334100000095
 21
191.88766449999824
  0
LINE
  8
_0-0_0
  6
CONTINUOUS
 62
    7
 10
589.99794200000179
 20
189.25625549999677
 11
589.18730399999913
 21
188.33547949999777
  0
LINE
  8
_0-0_0
  6
CONTINUOUS
 62
    7
 10
589.18730399999913
 20
252.43911649999791
 11
583.06334100000095
 21
248.88694649999528
  0
ARC
  8
_0-0_0
  6
CONTINUOUS
 62
    7
 10
555.75645699999586
 20
220.52383349999585
 40
69.166465000000002
 50
5.6949079999999999
 51
34.121555999999998
  0
ARC
  8
_0-0_0
  6
CONTINUOUS
 62
    7
 10
555.75645699999586
 20
220.2507624999962
 40
69.166465000000002
 50
325.87846100000002
 51
354.30510800000002
  0
ARC
  8
_0-0_0
  6
CONTINUOUS
 62
    7
 10
544.17329700000118
 20
219.47054949999801
 40
74.755117999999982
 50
6.0791630000000012
 51
9.6881860000000017
  0
ARC
  8
_0-0_0
  6
CONTINUOUS
 62
    7
 10
544.17329700000118
 20
221.30404549999733
 40
74.755117999999982
 50
350.31179600000007
 51
353.92084100000005
  0
ARC
  8
_0-0_0
  6
CONTINUOUS
 62
    7
 10
585.85743899999943
 20
261.05979749999824
 40
14.504975999999999
 50
184.43331699999999
 51
224.30641800000001
  0
ARC
  8
_0-0_0
  6
CONTINUOUS
 62
    7
 10
581.24458500000037
 20
257.24453549999816
 40
8.5531609999999993
 50
227.60272200000003
 51
282.277129
  0
ARC
  8
_0-0_0
  6
CONTINUOUS
 62
    7
 10
555.75645699999586
 20
220.52383349999585
 40
63.166460999999998
 50
10.514578999999999
 51
34.036851000000006
  0
ARC
  8
_0-0_0
  6
CONTINUOUS
 62
    7
 10
582.10075599999982
 20
236.9682914999976
 40
32.150599999999997
 50
36.030422999999999
 51
87.327280999999999
  0
ARC
  8
_0-0_0
  6
CONTINUOUS
 62
    7
 10
581.76237699999911
 20
258.82046349999655
 40
10.426665
 50
79.849200999999994
 51
173.84396899999996
  0
ARC
  8
_0-0_0
  6
CONTINUOUS
 62
    7
 10
579.10688999999547
 20
259.25120449999667
 40
13.741614999999999
 50
174.66721200000001
 51
291.94996099999997
  0
ARC
  8
_0-0_0
  6
CONTINUOUS
 62
    7
 10
581.76237699999911
 20
258.82046349999655
 40
16.426663999999995
 50
81.312787000000014
 51
174.032141
  0
ARC
  8
_0-0_0
  6
CONTINUOUS
 62
    7
 10
582.10075599999982
 20
236.9682914999976
 40
38.150599999999997
 50
35.870429000000009
 51
86.780326000000017
  0
ARC
  8
_0-0_0
  6
CONTINUOUS
 62
    7
 10
585.85743899999943
 20
179.71481249999488
 40
14.504975999999999
 50
135.69360599999999
 51
175.56669299999999
  0
ARC
  8
_0-0_0
  6
CONTINUOUS
 62
    7
 10
581.24458500000037
 20
183.53005949999715
 40
8.5531609999999993
 50
77.722888000000012
 51
132.39727500000004
  0
ARC
  8
_0-0_0
  6
CONTINUOUS
 62
    7
 10
555.75645699999586
 20
220.2507624999962
 40
63.166460999999998
 50
325.96315600000003
 51
349.48542600000002
  0
ARC
  8
_0-0_0
  6
CONTINUOUS
 62
    7
 10
582.10075599999982
 20
203.80630449999808
 40
32.150599999999997
 50
272.672708
 51
323.96958699999999
  0
ARC
  8
_0-0_0
  6
CONTINUOUS
 62
    7
 10
581.76237699999911
 20
181.95413149999513
 40
10.426665
 50
186.15595900000002
 51
280.15080900000004
  0
ARC
  8
_0-0_0
  6
CONTINUOUS
 62
    7
 10
579.10688999999547
 20
181.52340649999678
 40
13.741614999999999
 50
68.050042000000005
 51
185.33282500000001
  0
ARC
  8
_0-0_0
  6
CONTINUOUS
 62
    7
 10
581.76237699999911
 20
181.95413149999513
 40
16.426663999999995
 50
185.96785500000001
 51
278.687209
  0
ARC
  8
_0-0_0
  6
CONTINUOUS
 62
    7
 10
582.10075599999982
 20
203.80630449999808
 40
38.150599999999997
 50
273.21967000000001
 51
324.12957799999998
  0
LINE
  8
_0-0_0
  6
CONTINUOUS
 62
    7
 10
617.94197300000087
 20
213.38729749999769
 11
643.82097399999475
 21
213.38729749999769
  0
ARC
  8
_0-0_0
  6
CONTINUOUS
 62
    7
 10
617.94197300000087
 20
215.38729749999766
 40
2
 50
234.34015700000003
 51
270.000001
  0
ARC
  8
_0-0_0
  6
CONTINUOUS
 62
    7
 10
621.52958899999794
 20
220.38729749999766
 40
8.1539520000000003
 50
125.660195
 51
234.33980200000002
  0
ARC
  8
_0-0_0
  6
CONTINUOUS
 62
    7
 10
643.82097399999475
 20
215.38729749999766
 40
2
 50
270.000001
 51
303.34405500000003
  0
LINE
  8
_0-0_0
  6
CONTINUOUS
 62
    7
 10
643.82097399999475
 20
227.38731249999549
 11
617.94197300000087
 21
227.38731249999549
  0
ARC
  8
_0-0_0
  6
CONTINUOUS
 62
    7
 10
643.82097399999475
 20
225.38731249999546
 40
2
 50
56.655948000000002
 51
90.000003000000007
  0
ARC
  8
_0-0_0
  6
CONTINUOUS
 62
    7
 10
617.94197300000087
 20
225.38731249999546
 40
2
 50
90.000003000000007
 51
125.65984
  0
ARC
  8
_0-0_0
  6
CONTINUOUS
 62
    7
 10
717.67225599999801
 20
219.47054949999801
 40
74.755117999999982
 50
170.31181900000001
 51
173.92083599999998
  0
ARC
  8
_0-0_0
  6
CONTINUOUS
 62
    7
 10
717.67225599999801
 20
221.30404549999733
 40
74.755117999999982
 50
186.07916000000003
 51
189.68820500000004
  0
LINE
  8
_0-0_0
  6
CONTINUOUS
 62
    7
 10
672.65825000000041
 20
188.33547949999777
 11
678.78221199999825
 21
191.88766449999824
  0
LINE
  8
_0-0_0
  6
CONTINUOUS
 62
    7
 10
671.84761099999741
 20
189.25625549999677
 11
672.65825000000041
 21
188.33547949999777
  0
LINE
  8
_0-0_0
  6
CONTINUOUS
 62
    7
 10
672.65825000000041
 20
252.43911649999791
 11
678.78221199999825
 21
248.88694649999528
  0
LINE
  8
_0-0_0
  6
CONTINUOUS
 62
    7
 10
671.84761099999741
 20
251.51833949999491
 11
672.65825000000041
 21
252.43911649999791
  0
ARC
  8
_0-0_0
  6
CONTINUOUS
 62
    7
 10
675.98811399999977
 20
261.05979749999824
 40
14.504975999999999
 50
315.69358400000004
 51
355.56669800000003
  0
ARC
  8
_0-0_0
  6
CONTINUOUS
 62
    7
 10
680.60097200000018
 20
257.24453549999816
 40
8.5531609999999993
 50
257.72284500000001
 51
312.39728000000002
  0
ARC
  8
_0-0_0
  6
CONTINUOUS
 62
    7
 10
679.74480100000073
 20
236.9682914999976
 40
32.150599999999997
 50
92.672724000000002
 51
143.969582
  0
ARC
  8
_0-0_0
  6
CONTINUOUS
 62
    7
 10
680.08318000000145
 20
258.82046349999655
 40
10.426665
 50
6.1560249999999996
 51
100.15082499999998
  0
LINE
  8
_0-0_0
  6
CONTINUOUS
 62
    7
 10
677.60209699999541
 20
246.50572049999755
 11
671.84761099999741
 21
251.51833949999491
  0
ARC
  8
_0-0_0
  6
CONTINUOUS
 62
    7
 10
682.7386669999978
 20
259.25120449999667
 40
13.741614999999999
 50
248.05001300000004
 51
5.3327840000000153
  0
ARC
  8
_0-0_0
  6
CONTINUOUS
 62
    7
 10
680.08318000000145
 20
258.82046349999655
 40
16.426663999999995
 50
5.967854
 51
98.687224000000001
  0
ARC
  8
_0-0_0
  6
CONTINUOUS
 62
    7
 10
675.98811399999977
 20
179.71481249999488
 40
14.504975999999999
 50
4.4333099999999996
 51
44.306381999999999
  0
ARC
  8
_0-0_0
  6
CONTINUOUS
 62
    7
 10
680.60097200000018
 20
183.53005949999715
 40
8.5531609999999993
 50
47.602729999999994
 51
102.27713799999999
  0
ARC
  8
_0-0_0
  6
CONTINUOUS
 62
    7
 10
679.74480100000073
 20
203.80630449999808
 40
32.150599999999997
 50
216.03039999999999
 51
267.32726600000001
  0
ARC
  8
_0-0_0
  6
CONTINUOUS
 62
    7
 10
680.08318000000145
 20
181.95413149999513
 40
10.426665
 50
259.84916500000008
 51
353.84404200000006
  0
LINE
  8
_0-0_0
  6
CONTINUOUS
 62
    7
 10
677.60209699999541
 20
194.26888949999557
 11
671.84761099999741
 21
189.25625549999677
  0
ARC
  8
_0-0_0
  6
CONTINUOUS
 62
    7
 10
682.7386669999978
 20
181.52340649999678
 40
13.741614999999999
 50
354.66716200000008
 51
111.94997700000002
  0
ARC
  8
_0-0_0
  6
CONTINUOUS
 62
    7
 10
680.08318000000145
 20
181.95413149999513
 40
16.426663999999995
 50
261.31276500000007
 51
354.03214600000007
  0
ARC
  8
_0-0_0
  6
CONTINUOUS
 62
    7
 10
589.87536800000089
 20
427.5855674999948
 40
56.293708000000002
 50
334.83314000000001
 51
44.289187000000048
  0
LINE
  8
_0-0_0
  6
CONTINUOUS
 62
    7
 10
636.5815289999955
 20
326.13206249999712
 11
636.5815289999955
 21
329.20052849999774
  0
LINE
  8
_0-0_0
  6
CONTINUOUS
 62
    7
 10
636.5815289999955
 20
558.97600649999731
 11
636.5815289999955
 21
556.53252549999524
  0
ARC
  8
_0-0_0
  6
CONTINUOUS
 62
    7
 10
597.21044699999766
 20
514.52355449999595
 40
30.812870999999998
 50
347.86279100000002
 51
23.524780000000021
  0
ARC
  8
_0-0_0
  6
CONTINUOUS
 62
    7
 10
612.76716999999917
 20
337.16950749999523
 40
17.426030999999998
 50
325.72423600000008
 51
40.214450000000042
  0
ARC
  8
_0-0_0
  6
CONTINUOUS
 62
    7
 10
642.48567699999694
 20
328.65292149999732
 40
5.9294859999999998
 50
154.416562
 51
174.70099400000001
  0
ARC
  8
_0-0_0
  6
CONTINUOUS
 62
    7
 10
615.37342999999964
 20
326.72921549999592
 40
9.2274390000000004
 50
356.28957800000001
 51
22.654097999999959
  0
ARC
  8
_0-0_0
  6
CONTINUOUS
 62
    7
 10
630.74653199999739
 20
559.39440349999495
 40
6.3251200000000001
 50
167.08075700000001
 51
183.79279500000001
  0
ARC
  8
_0-0_0
  6
CONTINUOUS
 62
    7
 10
685.1958089999971
 20
535.2065984999972
 40
62.712645999999999
 50
163.12361799999999
 51
175.70014099999997
  0
ARC
  8
_0-0_0
  6
CONTINUOUS
 62
    7
 10
617.58354400000098
 20
540.83269749999818
 40
22.373542
 50
330.37529400000005
 51
19.757726000000027
  0
ARC
  8
_0-0_0
  6
CONTINUOUS
 62
    7
 10
651.98610799999733
 20
497.06060249999791
 40
33.747042999999991
 50
177.17236100000002
 51
193.03397300000003
  0
ARC
  8
_0-0_0
  6
CONTINUOUS
 62
    7
 10
611.37180200000148
 20
514.52511049999521
 40
29.917043
 50
345.15647900000005
 51
38.825145000000084
  0
ARC
  8
_0-0_0
  6
CONTINUOUS
 62
    7
 10
712.76473999999871
 20
449.01998449999519
 40
98.082694000000004
 50
191.61319800000001
 51
216.70809199999999
  0
ARC
  8
_0-0_0
  6
CONTINUOUS
 62
    7
 10
536.6744949999993
 20
499.73253849999674
 40
104.699889
 50
338.91934100000003
 51
357.04376800000006
  0
ARC
  8
_0-0_0
  6
CONTINUOUS
 62
    7
 10
611.74738899999647
 20
367.08741449999798
 40
27.309960999999998
 50
336.84643399999993
 51
358.645037
  0
ARC
  8
_0-0_0
  6
CONTINUOUS
 62
    7
 10
653.39299100000062
 20
352.39426949999688
 40
17.001745
 50
166.54858899999999
 51
191.97772499999999
  0
ARC
  8
_0-0_0
  6
CONTINUOUS
 62
    7
 10
656.1672069999986
 20
342.6655094999951
 40
34.57174599999999
 50
161.212491
 51
200.98720900000001
  0
ARC
  8
_0-0_0
  6
CONTINUOUS
 62
    7
 10
612.63690299999871
 20
371.54102749999583
 40
28.590828999999999
 50
327.903121
 51
41.249783000000001
  0
ARC
  8
_0-0_0
  6
CONTINUOUS
 62
    7
 10
649.06767399999808
 20
363.02785949999816
 40
27.240923999999996
 50
163.68607099999997
 51
212.42692899999997
  0
ARC
  8
_0-0_0
  6
CONTINUOUS
 62
    7
 10
716.14562999999907
 20
373.75967049999599
 40
82.302465999999981
 50
164.453866
 51
169.32022599999999
  0
ARC
  8
_0-0_0
  6
CONTINUOUS
 62
    7
 10
567.07892500000162
 20
423.33033349999823
 40
75.003485999999995
 50
338.48065200000002
 51
27.983534000000002
  0
ARC
  8
_0-0_0
  6
CONTINUOUS
 62
    7
 10
619.20724499999778
 20
339.661603499997
 40
19.820876999999999
 50
334.77166799999998
 51
43.493401999999996
  0
ARC
  8
_0-0_0
  6
CONTINUOUS
 62
    7
 10
658.77111899999727
 20
381.39248349999616
 40
37.725990000000003
 50
202.38894199999999
 51
228.12016299999999
  0
ARC
  8
_0-0_0
  6
CONTINUOUS
 62
    7
 10
651.29863800000021
 20
376.214703499998
 40
28.909856000000001
 50
154.271953
 51
198.53868199999999
  0
ARC
  8
_0-0_0
  6
CONTINUOUS
 62
    7
 10
678.14530599999853
 20
497.84029649999502
 40
59.630075999999995
 50
188.08901200000003
 51
221.25020900000004
  0
ARC
  8
_0-0_0
  6
CONTINUOUS
 62
    7
 10
597.41095099999802
 20
362.26484349999737
 40
41.847727999999996
 50
5.7281829999999996
 51
42.232100999999993
  0
ARC
  8
_0-0_0
  6
CONTINUOUS
 62
    7
 10
698.56987799999479
 20
435.62824649999675
 40
83.490386000000001
 50
192.06329400000001
 51
212.80704299999999
  0
ARC
  8
_0-0_0
  6
CONTINUOUS
 62
    7
 10
674.8355259999953
 20
424.94742949999636
 40
58.306494999999998
 50
147.99532300000001
 51
186.66572300000001
  0
ARC
  8
_0-0_0
  6
CONTINUOUS
 62
    7
 10
670.08952399999544
 20
562.28801849999581
 40
45.774242000000001
 50
184.14927700000004
 51
219.32267400000003
  0
ARC
  8
_0-0_0
  6
CONTINUOUS
 62
    7
 10
611.87809099999868
 20
498.41915349999545
 40
29.639989
 50
352.07565199999999
 51
49.499638000000004
  0
ARC
  8
_0-0_0
  6
CONTINUOUS
 62
    7
 10
652.78769800000009
 20
542.00353449999602
 40
30.200768999999998
 50
183.977689
 51
224.17663000000002
  0
LINE
  8
_0-0_0
  6
CONTINUOUS
 62
    7
 10
624.34723500000109
 20
514.90239949999523
 11
624.05713100000139
 21
513.53048149999813
  0
LINE
  8
_0-0_0
  6
CONTINUOUS
 62
    7
 10
624.05713100000139
 20
513.53048149999813
 11
623.73479499999667
 21
511.77443949999724
  0
LINE
  8
_0-0_0
  6
CONTINUOUS
 62
    7
 10
623.73479499999667
 20
511.77443949999724
 11
623.63809300000139
 21
510.51226249999672
  0
LINE
  8
_0-0_0
  6
CONTINUOUS
 62
    7
 10
623.63809300000139
 20
510.51226249999672
 11
623.63809300000139
 21
509.14034549999633
  0
LINE
  8
_0-0_0
  6
CONTINUOUS
 62
    7
 10
623.63809300000139
 20
509.14034549999633
 11
623.73479499999667
 21
507.49401349999607
  0
LINE
  8
_0-0_0
  6
CONTINUOUS
 62
    7
 10
623.73479499999667
 20
507.49401349999607
 11
624.47617099999479
 21
506.12212649999492
  0
LINE
  8
_0-0_0
  6
CONTINUOUS
 62
    7
 10
624.47617099999479
 20
506.12212649999492
 11
625.08861099999922
 21
506.6434274999956
  0
LINE
  8
_0-0_0
  6
CONTINUOUS
 62
    7
 10
625.08861099999922
 20
506.6434274999956
 11
625.08861099999922
 21
507.79586249999556
  0
LINE
  8
_0-0_0
  6
CONTINUOUS
 62
    7
 10
625.08861099999922
 20
507.79586249999556
 11
625.08861099999922
 21
509.25005549999696
  0
LINE
  8
_0-0_0
  6
CONTINUOUS
 62
    7
 10
625.08861099999922
 20
509.25005549999696
 11
625.08861099999922
 21
510.62203449999652
  0
LINE
  8
_0-0_0
  6
CONTINUOUS
 62
    7
 10
625.08861099999922
 20
510.62203449999652
 11
625.08861099999922
 21
512.07622749999791
  0
LINE
  8
_0-0_0
  6
CONTINUOUS
 62
    7
 10
625.08861099999922
 20
512.07622749999791
 11
625.31424799999513
 21
513.228632499995
  0
LINE
  8
_0-0_0
  6
CONTINUOUS
 62
    7
 10
625.31424799999513
 20
513.228632499995
 11
626.24902499999735
 21
514.90239949999523
  0
LINE
  8
_0-0_0
  6
CONTINUOUS
 62
    7
 10
626.24902499999735
 20
514.90239949999523
 11
626.44242899999517
 21
516.05486549999478
  0
LINE
  8
_0-0_0
  6
CONTINUOUS
 62
    7
 10
626.44242899999517
 20
516.05486549999478
 11
625.08861099999922
 21
515.72555049999573
  0
LINE
  8
_0-0_0
  6
CONTINUOUS
 62
    7
 10
622.05863999999565
 20
498.8234504999964
 11
621.96193900000071
 21
497.03997349999554
  0
LINE
  8
_0-0_0
  6
CONTINUOUS
 62
    7
 10
621.96193900000071
 20
497.03997349999554
 11
622.38097800000105
 21
495.36623649999819
  0
LINE
  8
_0-0_0
  6
CONTINUOUS
 62
    7
 10
622.38097800000105
 20
495.36623649999819
 11
622.7033139999985
 21
492.75957749999725
  0
LINE
  8
_0-0_0
  6
CONTINUOUS
 62
    7
 10
622.7033139999985
 20
492.75957749999725
 11
623.12235399999918
 21
490.56450949999635
  0
LINE
  8
_0-0_0
  6
CONTINUOUS
 62
    7
 10
623.12235399999918
 20
490.56450949999635
 11
623.83149599999888
 21
488.67125949999536
  0
LINE
  8
_0-0_0
  6
CONTINUOUS
 62
    7
 10
623.83149599999888
 20
488.67125949999536
 11
624.15383299999667
 21
487.84807849999561
  0
LINE
  8
_0-0_0
  6
CONTINUOUS
 62
    7
 10
624.15383299999667
 20
487.84807849999561
 11
625.31424799999513
 21
486.69567349999488
  0
LINE
  8
_0-0_0
  6
CONTINUOUS
 62
    7
 10
625.31424799999513
 20
486.69567349999488
 11
626.3457269999999
 21
486.58590249999543
  0
LINE
  8
_0-0_0
  6
CONTINUOUS
 62
    7
 10
626.3457269999999
 20
486.58590249999543
 11
626.66806499999802
 21
487.84807849999561
  0
LINE
  8
_0-0_0
  6
CONTINUOUS
 62
    7
 10
626.66806499999802
 20
487.84807849999561
 11
625.9266889999999
 21
489.00051349999558
  0
LINE
  8
_0-0_0
  6
CONTINUOUS
 62
    7
 10
625.9266889999999
 20
489.00051349999558
 11
625.08861099999922
 21
490.45470749999731
  0
LINE
  8
_0-0_0
  6
CONTINUOUS
 62
    7
 10
625.08861099999922
 20
490.45470749999731
 11
624.89520899999479
 21
492.01873249999699
  0
LINE
  8
_0-0_0
  6
CONTINUOUS
 62
    7
 10
624.89520899999479
 20
492.01873249999699
 11
624.34723500000109
 21
493.80221049999818
  0
LINE
  8
_0-0_0
  6
CONTINUOUS
 62
    7
 10
624.34723500000109
 20
493.80221049999818
 11
624.05713100000139
 21
495.88756849999481
  0
LINE
  8
_0-0_0
  6
CONTINUOUS
 62
    7
 10
624.05713100000139
 20
495.88756849999481
 11
623.73479499999667
 21
497.34176149999621
  0
LINE
  8
_0-0_0
  6
CONTINUOUS
 62
    7
 10
623.73479499999667
 20
497.34176149999621
 11
623.41245799999888
 21
498.90578749999622
  0
LINE
  8
_0-0_0
  6
CONTINUOUS
 62
    7
 10
623.41245799999888
 20
498.90578749999622
 11
622.05863999999565
 21
498.90578749999622
  0
LINE
  8
_0-0_0
  6
CONTINUOUS
 62
    7
 10
628.63432199999806
 20
476.87267549999524
 11
629.56910000000062
 21
475.19893949999823
  0
LINE
  8
_0-0_0
  6
CONTINUOUS
 62
    7
 10
629.56910000000062
 20
475.19893949999823
 11
630.21377399999619
 21
473.93679349999729
  0
LINE
  8
_0-0_0
  6
CONTINUOUS
 62
    7
 10
630.21377399999619
 20
473.93679349999729
 11
630.72951499999908
 21
473.00387149999733
  0
LINE
  8
_0-0_0
  6
CONTINUOUS
 62
    7
 10
630.72951499999908
 20
473.00387149999733
 11
631.793227999995
 21
471.96120749999682
  0
LINE
  8
_0-0_0
  6
CONTINUOUS
 62
    7
 10
631.793227999995
 20
471.96120749999682
 11
632.40566899999976
 21
471.43987549999656
  0
LINE
  8
_0-0_0
  6
CONTINUOUS
 62
    7
 10
632.40566899999976
 20
471.43987549999656
 11
633.01810899999691
 21
470.61672549999639
  0
LINE
  8
_0-0_0
  6
CONTINUOUS
 62
    7
 10
633.01810899999691
 20
470.61672549999639
 11
634.0818220000001
 21
469.98565249999592
  0
LINE
  8
_0-0_0
  6
CONTINUOUS
 62
    7
 10
634.0818220000001
 20
469.98565249999592
 11
635.43564099999639
 21
469.24480749999566
  0
LINE
  8
_0-0_0
  6
CONTINUOUS
 62
    7
 10
635.43564099999639
 20
469.24480749999566
 11
636.17701600000146
 21
469.65636749999612
  0
LINE
  8
_0-0_0
  6
CONTINUOUS
 62
    7
 10
636.17701600000146
 20
469.65636749999612
 11
636.37041999999929
 21
470.80880249999609
  0
LINE
  8
_0-0_0
  6
CONTINUOUS
 62
    7
 10
636.37041999999929
 20
470.80880249999609
 11
634.5008600000001
 21
472.18072049999682
  0
LINE
  8
_0-0_0
  6
CONTINUOUS
 62
    7
 10
634.5008600000001
 20
472.18072049999682
 11
633.66278500000044
 21
473.00387149999733
  0
LINE
  8
_0-0_0
  6
CONTINUOUS
 62
    7
 10
633.66278500000044
 20
473.00387149999733
 11
632.82470699999976
 21
474.1563064999973
  0
LINE
  8
_0-0_0
  6
CONTINUOUS
 62
    7
 10
632.82470699999976
 20
474.1563064999973
 11
631.88992899999721
 21
475.19893949999823
  0
LINE
  8
_0-0_0
  6
CONTINUOUS
 62
    7
 10
631.88992899999721
 20
475.19893949999823
 11
630.72951499999908
 21
476.76296549999824
  0
LINE
  8
_0-0_0
  6
CONTINUOUS
 62
    7
 10
630.72951499999908
 20
476.76296549999824
 11
629.8914369999984
 21
477.91533949999575
  0
LINE
  8
_0-0_0
  6
CONTINUOUS
 62
    7
 10
629.8914369999984
 20
477.91533949999575
 11
628.63432199999806
 21
478.43670149999525
  0
LINE
  8
_0-0_0
  6
CONTINUOUS
 62
    7
 10
628.63432199999806
 20
478.43670149999525
 11
628.11858199999551
 21
476.87267549999524
  0
LINE
  8
_0-0_0
  6
CONTINUOUS
 62
    7
 10
630.53611100000126
 20
504.85991949999516
 11
630.4071780000013
 21
503.10387649999757
  0
LINE
  8
_0-0_0
  6
CONTINUOUS
 62
    7
 10
630.4071780000013
 20
503.10387649999757
 11
630.31047699999908
 21
501.53985049999756
  0
LINE
  8
_0-0_0
  6
CONTINUOUS
 62
    7
 10
630.31047699999908
 20
501.53985049999756
 11
630.31047699999908
 21
500.05822249999619
  0
LINE
  8
_0-0_0
  6
CONTINUOUS
 62
    7
 10
630.31047699999908
 20
500.05822249999619
 11
630.53611100000126
 21
498.49419649999618
  0
LINE
  8
_0-0_0
  6
CONTINUOUS
 62
    7
 10
630.53611100000126
 20
498.49419649999618
 11
631.05185399999755
 21
496.93023149999499
  0
LINE
  8
_0-0_0
  6
CONTINUOUS
 62
    7
 10
631.05185399999755
 20
496.93023149999499
 11
631.56759299999976
 21
494.62536149999505
  0
LINE
  8
_0-0_0
  6
CONTINUOUS
 62
    7
 10
631.56759299999976
 20
494.62536149999505
 11
631.98662999999942
 21
492.86931849999746
  0
LINE
  8
_0-0_0
  6
CONTINUOUS
 62
    7
 10
631.98662999999942
 20
492.86931849999746
 11
633.56608199999755
 21
493.17116849999729
  0
LINE
  8
_0-0_0
  6
CONTINUOUS
 62
    7
 10
633.56608199999755
 20
493.17116849999729
 11
633.43714699999691
 21
494.73516349999773
  0
LINE
  8
_0-0_0
  6
CONTINUOUS
 62
    7
 10
633.43714699999691
 20
494.73516349999773
 11
632.9214079999947
 21
495.99727849999545
  0
LINE
  8
_0-0_0
  6
CONTINUOUS
 62
    7
 10
632.9214079999947
 20
495.99727849999545
 11
632.59907199999725
 21
497.97286449999592
  0
LINE
  8
_0-0_0
  6
CONTINUOUS
 62
    7
 10
632.59907199999725
 20
497.97286449999592
 11
632.40566899999976
 21
499.42711949999648
  0
LINE
  8
_0-0_0
  6
CONTINUOUS
 62
    7
 10
632.40566899999976
 20
499.42711949999648
 11
632.30896799999755
 21
501.43014049999692
  0
LINE
  8
_0-0_0
  6
CONTINUOUS
 62
    7
 10
632.30896799999755
 20
501.43014049999692
 11
632.18003299999691
 21
503.62520849999783
  0
LINE
  8
_0-0_0
  6
CONTINUOUS
 62
    7
 10
632.18003299999691
 20
503.62520849999783
 11
631.6642939999947
 21
504.66784149999512
  0
LINE
  8
_0-0_0
  6
CONTINUOUS
 62
    7
 10
631.6642939999947
 20
504.66784149999512
 11
631.374189999995
 21
505.07946249999804
  0
LINE
  8
_0-0_0
  6
CONTINUOUS
 62
    7
 10
631.793227999995
 20
486.47613049999563
 11
632.0833319999947
 21
483.23839849999786
  0
LINE
  8
_0-0_0
  6
CONTINUOUS
 62
    7
 10
632.0833319999947
 20
483.23839849999786
 11
632.72800699999789
 21
482.00368749999689
  0
LINE
  8
_0-0_0
  6
CONTINUOUS
 62
    7
 10
632.72800699999789
 20
482.00368749999689
 11
633.56608199999755
 21
480.7415114999967
  0
LINE
  8
_0-0_0
  6
CONTINUOUS
 62
    7
 10
633.56608199999755
 20
480.7415114999967
 11
635.11330199999793
 21
479.06774449999648
  0
LINE
  8
_0-0_0
  6
CONTINUOUS
 62
    7
 10
635.11330199999793
 20
479.06774449999648
 11
635.62904200000048
 21
478.65621449999526
  0
LINE
  8
_0-0_0
  6
CONTINUOUS
 62
    7
 10
635.62904200000048
 20
478.65621449999526
 11
637.62753399999929
 21
478.65621449999526
  0
LINE
  8
_0-0_0
  6
CONTINUOUS
 62
    7
 10
637.62753399999929
 20
478.65621449999526
 11
637.30519600000116
 21
479.69884749999619
  0
LINE
  8
_0-0_0
  6
CONTINUOUS
 62
    7
 10
637.30519600000116
 20
479.69884749999619
 11
635.62904200000048
 21
481.15310149999641
  0
LINE
  8
_0-0_0
  6
CONTINUOUS
 62
    7
 10
635.62904200000048
 20
481.15310149999641
 11
635.21000300000014
 21
482.00368749999689
  0
LINE
  8
_0-0_0
  6
CONTINUOUS
 62
    7
 10
635.21000300000014
 20
482.00368749999689
 11
634.27522699999827
 21
483.23839849999786
  0
LINE
  8
_0-0_0
  6
CONTINUOUS
 62
    7
 10
634.27522699999827
 20
483.23839849999786
 11
634.0818220000001
 21
485.02193749999788
  0
LINE
  8
_0-0_0
  6
CONTINUOUS
 62
    7
 10
634.0818220000001
 20
485.02193749999788
 11
633.01810899999691
 21
486.91515649999565
  0
LINE
  8
_0-0_0
  6
CONTINUOUS
 62
    7
 10
633.01810899999691
 20
486.91515649999565
 11
631.56759299999976
 21
486.47613049999563
  0
LINE
  8
_0-0_0
  6
CONTINUOUS
 62
    7
 10
620.93045400000119
 20
435.74239749999469
 11
620.60811699999613
 21
434.48029649999808
  0
LINE
  8
_0-0_0
  6
CONTINUOUS
 62
    7
 10
620.60811699999613
 20
434.48029649999808
 11
620.18907799999579
 21
432.80651449999641
  0
LINE
  8
_0-0_0
  6
CONTINUOUS
 62
    7
 10
620.18907799999579
 20
432.80651449999641
 11
620.09237800000119
 21
431.54435349999767
  0
LINE
  8
_0-0_0
  6
CONTINUOUS
 62
    7
 10
620.09237800000119
 20
431.54435349999767
 11
620.09237800000119
 21
429.67853949999699
  0
LINE
  8
_0-0_0
  6
CONTINUOUS
 62
    7
 10
620.09237800000119
 20
429.67853949999699
 11
620.09237800000119
 21
428.22428449999643
  0
LINE
  8
_0-0_0
  6
CONTINUOUS
 62
    7
 10
620.09237800000119
 20
428.22428449999643
 11
620.09237800000119
 21
426.63288449999527
  0
LINE
  8
_0-0_0
  6
CONTINUOUS
 62
    7
 10
620.09237800000119
 20
426.63288449999527
 11
620.60811699999613
 21
424.65729849999479
  0
LINE
  8
_0-0_0
  6
CONTINUOUS
 62
    7
 10
620.60811699999613
 20
424.65729849999479
 11
620.93045400000119
 21
423.61462049999682
  0
LINE
  8
_0-0_0
  6
CONTINUOUS
 62
    7
 10
620.93045400000119
 20
423.61462049999682
 11
622.18757099999493
 21
422.98351649999677
  0
LINE
  8
_0-0_0
  6
CONTINUOUS
 62
    7
 10
622.18757099999493
 20
422.98351649999677
 11
622.80001099999936
 21
424.43781649999801
  0
LINE
  8
_0-0_0
  6
CONTINUOUS
 62
    7
 10
622.80001099999936
 20
424.43781649999801
 11
622.38097199999902
 21
425.39811349999582
  0
LINE
  8
_0-0_0
  6
CONTINUOUS
 62
    7
 10
622.38097199999902
 20
425.39811349999582
 11
622.09086799999932
 21
426.55054849999578
  0
LINE
  8
_0-0_0
  6
CONTINUOUS
 62
    7
 10
622.09086799999932
 20
426.55054849999578
 11
621.76853200000187
 21
427.7852744999982
  0
LINE
  8
_0-0_0
  6
CONTINUOUS
 62
    7
 10
621.76853200000187
 20
427.7852744999982
 11
621.96193399999902
 21
430.61144649999551
  0
LINE
  8
_0-0_0
  6
CONTINUOUS
 62
    7
 10
621.96193399999902
 20
430.61144649999551
 11
621.96193399999902
 21
431.9833634999959
  0
LINE
  8
_0-0_0
  6
CONTINUOUS
 62
    7
 10
621.96193399999902
 20
431.9833634999959
 11
621.96193399999902
 21
433.43761849999646
  0
LINE
  8
_0-0_0
  6
CONTINUOUS
 62
    7
 10
621.96193399999902
 20
433.43761849999646
 11
622.509908
 21
434.3704794999976
  0
LINE
  8
_0-0_0
  6
CONTINUOUS
 62
    7
 10
622.509908
 20
434.3704794999976
 11
620.83375399999932
 21
435.74239749999469
  0
LINE
  8
_0-0_0
  6
CONTINUOUS
 62
    7
 10
626.57135800000106
 20
413.48981849999473
 11
626.79699499999697
 21
411.59655349999593
  0
LINE
  8
_0-0_0
  6
CONTINUOUS
 62
    7
 10
626.79699499999697
 20
411.59655349999593
 11
627.50613499999599
 21
410.03258949999508
  0
LINE
  8
_0-0_0
  6
CONTINUOUS
 62
    7
 10
627.50613499999599
 20
410.03258949999508
 11
628.15081099999952
 21
408.68809149999652
  0
LINE
  8
_0-0_0
  6
CONTINUOUS
 62
    7
 10
628.15081099999952
 20
408.68809149999652
 11
628.76325099999667
 21
407.53567149999799
  0
LINE
  8
_0-0_0
  6
CONTINUOUS
 62
    7
 10
628.76325099999667
 20
407.53567149999799
 11
629.50462899999548
 21
405.97169149999536
  0
LINE
  8
_0-0_0
  6
CONTINUOUS
 62
    7
 10
629.50462899999548
 20
405.97169149999536
 11
630.43940599999769
 21
404.59975849999682
  0
LINE
  8
_0-0_0
  6
CONTINUOUS
 62
    7
 10
630.43940599999769
 20
404.59975849999682
 11
632.43789699999616
 21
402.92600649999804
  0
LINE
  8
_0-0_0
  6
CONTINUOUS
 62
    7
 10
632.43789699999616
 20
402.92600649999804
 11
633.37267499999871
 21
402.73391349999656
  0
LINE
  8
_0-0_0
  6
CONTINUOUS
 62
    7
 10
633.37267499999871
 20
402.73391349999656
 11
633.88841700000194
 21
403.85891349999656
  0
LINE
  8
_0-0_0
  6
CONTINUOUS
 62
    7
 10
633.88841700000194
 20
403.85891349999656
 11
632.95363799999905
 21
405.34060349999709
  0
LINE
  8
_0-0_0
  6
CONTINUOUS
 62
    7
 10
632.95363799999905
 20
405.34060349999709
 11
631.79322300000058
 21
406.90456749999794
  0
LINE
  8
_0-0_0
  6
CONTINUOUS
 62
    7
 10
631.79322300000058
 20
406.90456749999794
 11
631.27748299999803
 21
408.16675949999626
  0
LINE
  8
_0-0_0
  6
CONTINUOUS
 62
    7
 10
631.27748299999803
 20
408.16675949999626
 11
630.9551449999999
 21
409.09968249999656
  0
LINE
  8
_0-0_0
  6
CONTINUOUS
 62
    7
 10
630.9551449999999
 20
409.09968249999656
 11
630.2460030000002
 21
410.553920499995
  0
LINE
  8
_0-0_0
  6
CONTINUOUS
 62
    7
 10
630.2460030000002
 20
410.553920499995
 11
629.92366599999514
 21
411.81608249999772
  0
LINE
  8
_0-0_0
  6
CONTINUOUS
 62
    7
 10
629.92366599999514
 20
411.81608249999772
 11
629.40792599999986
 21
412.8587604999957
  0
LINE
  8
_0-0_0
  6
CONTINUOUS
 62
    7
 10
629.40792599999986
 20
412.8587604999957
 11
628.98888699999952
 21
413.68189649999476
  0
LINE
  8
_0-0_0
  6
CONTINUOUS
 62
    7
 10
628.98888699999952
 20
413.68189649999476
 11
628.2475110000014
 21
414.42272549999689
  0
LINE
  8
_0-0_0
  6
CONTINUOUS
 62
    7
 10
628.2475110000014
 20
414.42272549999689
 11
626.79699499999697
 21
414.53248249999524
  0
LINE
  8
_0-0_0
  6
CONTINUOUS
 62
    7
 10
626.79699499999697
 20
414.53248249999524
 11
626.05561899999884
 21
414.01115049999498
  0
LINE
  8
_0-0_0
  6
CONTINUOUS
 62
    7
 10
629.60132899999735
 20
455.36095749999731
 11
629.60132899999735
 21
453.7969464999951
  0
LINE
  8
_0-0_0
  6
CONTINUOUS
 62
    7
 10
629.60132899999735
 20
453.7969464999951
 11
629.40792599999986
 21
452.64449649999733
  0
LINE
  8
_0-0_0
  6
CONTINUOUS
 62
    7
 10
629.40792599999986
 20
452.64449649999733
 11
629.18228999999701
 21
451.60187849999784
  0
LINE
  8
_0-0_0
  6
CONTINUOUS
 62
    7
 10
629.18228999999701
 20
451.60187849999784
 11
628.98888699999952
 21
449.92809649999617
  0
LINE
  8
_0-0_0
  6
CONTINUOUS
 62
    7
 10
628.98888699999952
 20
449.92809649999617
 11
628.56984799999918
 21
448.36413149999498
  0
LINE
  8
_0-0_0
  6
CONTINUOUS
 62
    7
 10
628.56984799999918
 20
448.36413149999498
 11
628.44091399999888
 21
447.73302749999493
  0
LINE
  8
_0-0_0
  6
CONTINUOUS
 62
    7
 10
628.44091399999888
 20
447.73302749999493
 11
628.66655000000173
 21
445.23615649999556
  0
LINE
  8
_0-0_0
  6
CONTINUOUS
 62
    7
 10
628.66655000000173
 20
445.23615649999556
 11
630.43940599999769
 21
443.56237349999719
  0
LINE
  8
_0-0_0
  6
CONTINUOUS
 62
    7
 10
630.43940599999769
 20
443.56237349999719
 11
630.9551449999999
 21
444.82458049999696
  0
LINE
  8
_0-0_0
  6
CONTINUOUS
 62
    7
 10
630.9551449999999
 20
444.82458049999696
 11
630.76174299999548
 21
446.16906349999772
  0
LINE
  8
_0-0_0
  6
CONTINUOUS
 62
    7
 10
630.76174299999548
 20
446.16906349999772
 11
630.63280799999484
 21
447.2117414999957
  0
LINE
  8
_0-0_0
  6
CONTINUOUS
 62
    7
 10
630.63280799999484
 20
447.2117414999957
 11
630.76174299999548
 21
448.80314249999719
  0
LINE
  8
_0-0_0
  6
CONTINUOUS
 62
    7
 10
630.76174299999548
 20
448.80314249999719
 11
631.27748299999803
 21
450.88849949999712
  0
LINE
  8
_0-0_0
  6
CONTINUOUS
 62
    7
 10
631.27748299999803
 20
450.88849949999712
 11
631.37418400000024
 21
453.08356849999473
  0
LINE
  8
_0-0_0
  6
CONTINUOUS
 62
    7
 10
631.37418400000024
 20
453.08356849999473
 11
631.37418400000024
 21
454.01647549999689
  0
LINE
  8
_0-0_0
  6
CONTINUOUS
 62
    7
 10
631.37418400000024
 20
454.01647549999689
 11
630.02036799999769
 21
455.47066849999464
  0
LINE
  8
_0-0_0
  6
CONTINUOUS
 62
    7
 10
629.27899199999956
 20
434.59000749999541
 11
629.18228999999701
 21
432.80651449999641
  0
LINE
  8
_0-0_0
  6
CONTINUOUS
 62
    7
 10
629.18228999999701
 20
432.80651449999641
 11
629.18228999999701
 21
431.02302149999741
  0
LINE
  8
_0-0_0
  6
CONTINUOUS
 62
    7
 10
629.18228999999701
 20
431.02302149999741
 11
629.18228999999701
 21
429.98034249999546
  0
LINE
  8
_0-0_0
  6
CONTINUOUS
 62
    7
 10
629.18228999999701
 20
429.98034249999546
 11
629.18228999999701
 21
428.63586049999503
  0
LINE
  8
_0-0_0
  6
CONTINUOUS
 62
    7
 10
629.18228999999701
 20
428.63586049999503
 11
629.18228999999701
 21
427.67550249999476
  0
LINE
  8
_0-0_0
  6
CONTINUOUS
 62
    7
 10
629.18228999999701
 20
427.67550249999476
 11
629.50462899999548
 21
426.33102049999798
  0
LINE
  8
_0-0_0
  6
CONTINUOUS
 62
    7
 10
629.50462899999548
 20
426.33102049999798
 11
630.02036799999769
 21
425.0688594999956
  0
LINE
  8
_0-0_0
  6
CONTINUOUS
 62
    7
 10
630.02036799999769
 20
425.0688594999956
 11
630.9551449999999
 21
423.72437649999483
  0
LINE
  8
_0-0_0
  6
CONTINUOUS
 62
    7
 10
630.9551449999999
 20
423.72437649999483
 11
631.47088499999518
 21
423.50484849999702
  0
LINE
  8
_0-0_0
  6
CONTINUOUS
 62
    7
 10
631.47088499999518
 20
423.50484849999702
 11
632.30896399999619
 21
423.91646949999631
  0
LINE
  8
_0-0_0
  6
CONTINUOUS
 62
    7
 10
632.30896399999619
 20
423.91646949999631
 11
632.63129800000024
 21
424.76705549999679
  0
LINE
  8
_0-0_0
  6
CONTINUOUS
 62
    7
 10
632.63129800000024
 20
424.76705549999679
 11
632.30896399999619
 21
425.59020649999729
  0
LINE
  8
_0-0_0
  6
CONTINUOUS
 62
    7
 10
632.30896399999619
 20
425.59020649999729
 11
632.11555899999803
 21
426.44079149999743
  0
LINE
  8
_0-0_0
  6
CONTINUOUS
 62
    7
 10
632.11555899999803
 20
426.44079149999743
 11
631.88992299999518
 21
427.2639274999965
  0
LINE
  8
_0-0_0
  6
CONTINUOUS
 62
    7
 10
631.88992299999518
 20
427.2639274999965
 11
631.79322300000058
 21
428.30660649999481
  0
LINE
  8
_0-0_0
  6
CONTINUOUS
 62
    7
 10
631.79322300000058
 20
428.30660649999481
 11
631.79322300000058
 21
429.56876749999719
  0
LINE
  8
_0-0_0
  6
CONTINUOUS
 62
    7
 10
631.79322300000058
 20
429.56876749999719
 11
631.79322300000058
 21
430.3096424999967
  0
LINE
  8
_0-0_0
  6
CONTINUOUS
 62
    7
 10
631.79322300000058
 20
430.3096424999967
 11
631.69652199999837
 21
432.06563949999691
  0
LINE
  8
_0-0_0
  6
CONTINUOUS
 62
    7
 10
631.69652199999837
 20
432.06563949999691
 11
631.37418400000024
 21
433.10831849999522
  0
LINE
  8
_0-0_0
  6
CONTINUOUS
 62
    7
 10
631.37418400000024
 20
433.10831849999522
 11
631.05184599999484
 21
433.84919349999473
  0
LINE
  8
_0-0_0
  6
CONTINUOUS
 62
    7
 10
631.05184599999484
 20
433.84919349999473
 11
630.5361069999999
 21
434.26075349999519
  0
LINE
  8
_0-0_0
  6
CONTINUOUS
 62
    7
 10
630.5361069999999
 20
434.26075349999519
 11
630.1170689999999
 21
434.26075349999519
  0
LINE
  8
_0-0_0
  6
CONTINUOUS
 62
    7
 10
630.1170689999999
 20
434.26075349999519
 11
629.60132899999735
 21
434.26075349999519
  0
LINE
  8
_0-0_0
  6
CONTINUOUS
 62
    7
 10
634.40415599999687
 20
415.35563249999541
 11
635.14553100000194
 21
413.59957549999672
  0
LINE
  8
_0-0_0
  6
CONTINUOUS
 62
    7
 10
635.14553100000194
 20
413.59957549999672
 11
635.75797099999909
 21
410.88317549999556
  0
LINE
  8
_0-0_0
  6
CONTINUOUS
 62
    7
 10
635.75797099999909
 20
410.88317549999556
 11
636.08031099999789
 21
410.03258949999508
  0
LINE
  8
_0-0_0
  6
CONTINUOUS
 62
    7
 10
636.08031099999789
 20
410.03258949999508
 11
636.17700999999943
 21
409.29172949999702
  0
LINE
  8
_0-0_0
  6
CONTINUOUS
 62
    7
 10
636.17700999999943
 20
409.29172949999702
 11
636.49934899999789
 21
408.3588374999963
  0
LINE
  8
_0-0_0
  6
CONTINUOUS
 62
    7
 10
636.49934899999789
 20
408.3588374999963
 11
636.82168699999602
 21
407.01435449999553
  0
LINE
  8
_0-0_0
  6
CONTINUOUS
 62
    7
 10
636.82168699999602
 20
407.01435449999553
 11
637.11179099999572
 21
405.86191949999557
  0
LINE
  8
_0-0_0
  6
CONTINUOUS
 62
    7
 10
637.11179099999572
 20
405.86191949999557
 11
637.11179099999572
 21
405.4503444999973
  0
LINE
  8
_0-0_0
  6
CONTINUOUS
 62
    7
 10
637.11179099999572
 20
405.4503444999973
 11
637.24072399999568
 21
404.18818349999492
  0
LINE
  8
_0-0_0
  6
CONTINUOUS
 62
    7
 10
637.24072399999568
 20
404.18818349999492
 11
637.94986499999504
 21
404.59975849999682
  0
LINE
  8
_0-0_0
  6
CONTINUOUS
 62
    7
 10
637.94986499999504
 20
404.59975849999682
 11
638.59454099999857
 21
405.53266549999535
  0
LINE
  8
_0-0_0
  6
CONTINUOUS
 62
    7
 10
638.59454099999857
 20
405.53266549999535
 11
638.27220300000045
 21
406.90456749999794
  0
LINE
  8
_0-0_0
  6
CONTINUOUS
 62
    7
 10
638.27220300000045
 20
406.90456749999794
 11
638.07880099999602
 21
408.16675949999626
  0
LINE
  8
_0-0_0
  6
CONTINUOUS
 62
    7
 10
638.07880099999602
 20
408.16675949999626
 11
637.75646299999789
 21
409.29172949999702
  0
LINE
  8
_0-0_0
  6
CONTINUOUS
 62
    7
 10
637.75646299999789
 20
409.29172949999702
 11
637.6597649999967
 21
410.33439249999719
  0
LINE
  8
_0-0_0
  6
CONTINUOUS
 62
    7
 10
637.6597649999967
 20
410.33439249999719
 11
637.43412499999977
 21
411.48682749999716
  0
LINE
  8
_0-0_0
  6
CONTINUOUS
 62
    7
 10
637.43412499999977
 20
411.48682749999716
 11
637.11179099999572
 21
412.8587604999957
  0
LINE
  8
_0-0_0
  6
CONTINUOUS
 62
    7
 10
637.11179099999572
 20
412.8587604999957
 11
637.01508800000011
 21
413.16056449999815
  0
LINE
  8
_0-0_0
  6
CONTINUOUS
 62
    7
 10
637.01508800000011
 20
413.16056449999815
 11
636.17700999999943
 21
414.83430149999549
  0
LINE
  8
_0-0_0
  6
CONTINUOUS
 62
    7
 10
636.17700999999943
 20
414.83430149999549
 11
635.66126999999688
 21
415.24592249999478
  0
LINE
  8
_0-0_0
  6
CONTINUOUS
 62
    7
 10
635.66126999999688
 20
415.24592249999478
 11
634.08181799999875
 21
415.35563249999541
  0
LINE
  8
_0-0_0
  6
CONTINUOUS
 62
    7
 10
636.49934899999789
 20
439.58381249999729
 11
636.6927499999947
 21
437.82775449999826
  0
LINE
  8
_0-0_0
  6
CONTINUOUS
 62
    7
 10
636.6927499999947
 20
437.82775449999826
 11
636.91838599999755
 21
436.67536549999568
  0
LINE
  8
_0-0_0
  6
CONTINUOUS
 62
    7
 10
636.91838599999755
 20
436.67536549999568
 11
637.01508800000011
 21
435.52291449999757
  0
LINE
  8
_0-0_0
  6
CONTINUOUS
 62
    7
 10
637.01508800000011
 20
435.52291449999757
 11
637.01508800000011
 21
434.3704794999976
  0
LINE
  8
_0-0_0
  6
CONTINUOUS
 62
    7
 10
637.01508800000011
 20
434.3704794999976
 11
637.33742299999722
 21
433.10831849999522
  0
LINE
  8
_0-0_0
  6
CONTINUOUS
 62
    7
 10
637.33742299999722
 20
433.10831849999522
 11
637.43412499999977
 21
432.1754114999967
  0
LINE
  8
_0-0_0
  6
CONTINUOUS
 62
    7
 10
637.43412499999977
 20
432.1754114999967
 11
637.53082799999538
 21
431.02302149999741
  0
LINE
  8
_0-0_0
  6
CONTINUOUS
 62
    7
 10
637.53082799999538
 20
431.02302149999741
 11
638.27220300000045
 21
431.46203249999598
  0
LINE
  8
_0-0_0
  6
CONTINUOUS
 62
    7
 10
638.27220300000045
 20
431.46203249999598
 11
638.59454099999857
 21
432.28516749999471
  0
LINE
  8
_0-0_0
  6
CONTINUOUS
 62
    7
 10
638.59454099999857
 20
432.28516749999471
 11
638.59454099999857
 21
434.17843249999714
  0
LINE
  8
_0-0_0
  6
CONTINUOUS
 62
    7
 10
638.59454099999857
 20
434.17843249999714
 11
638.59454099999857
 21
435.41315849999592
  0
LINE
  8
_0-0_0
  6
CONTINUOUS
 62
    7
 10
638.59454099999857
 20
435.41315849999592
 11
638.36890499999572
 21
436.8948474999961
  0
LINE
  8
_0-0_0
  6
CONTINUOUS
 62
    7
 10
638.36890499999572
 20
436.8948474999961
 11
638.27220300000045
 21
438.0198474999961
  0
LINE
  8
_0-0_0
  6
CONTINUOUS
 62
    7
 10
638.27220300000045
 20
438.0198474999961
 11
637.75646299999789
 21
439.39171949999582
  0
LINE
  8
_0-0_0
  6
CONTINUOUS
 62
    7
 10
637.75646299999789
 20
439.39171949999582
 11
637.33742299999722
 21
440.54415449999578
  0
LINE
  8
_0-0_0
  6
CONTINUOUS
 62
    7
 10
637.33742299999722
 20
440.54415449999578
 11
636.49934899999789
 21
441.2575334999965
  0
LINE
  8
_0-0_0
  6
CONTINUOUS
 62
    7
 10
636.49934899999789
 20
441.2575334999965
 11
636.27371299999504
 21
441.17525849999583
  0
LINE
  8
_0-0_0
  6
CONTINUOUS
 62
    7
 10
636.27371299999504
 20
441.17525849999583
 11
635.98360899999534
 21
440.02282349999587
  0
LINE
  8
_0-0_0
  6
CONTINUOUS
 62
    7
 10
589.31544700000086
 20
639.25646249999772
 11
588.50480799999787
 21
638.33565549999548
  0
LINE
  8
_0-0_0
  6
CONTINUOUS
 62
    7
 10
588.50480799999787
 20
638.33565549999548
 11
582.38084600000002
 21
641.88787149999553
  0
LINE
  8
_0-0_0
  6
CONTINUOUS
 62
    7
 10
671.16511599999649
 20
639.25646249999772
 11
671.97575399999914
 21
638.33565549999548
  0
LINE
  8
_0-0_0
  6
CONTINUOUS
 62
    7
 10
671.97575399999914
 20
638.33565549999548
 11
678.09971699999733
 21
641.88787149999553
  0
LINE
  8
_0-0_0
  6
CONTINUOUS
 62
    7
 10
671.97575399999914
 20
702.43932349999523
 11
678.09971699999733
 21
698.88713849999476
  0
LINE
  8
_0-0_0
  6
CONTINUOUS
 62
    7
 10
584.2898720000012
 20
194.26889949999534
 11
587.1671109999952
 21
191.7625724999962
  0
LINE
  8
_0-0_0
  6
CONTINUOUS
 62
    7
 10
587.1671109999952
 20
191.7625724999962
 11
590.04435399999784
 21
189.25625549999677
  0
LINE
  8
_0-0_0
  6
CONTINUOUS
 62
    7
 10
672.29934199999843
 20
251.97871249999662
 11
672.70466099999612
 21
252.43911649999791
  0
LINE
  8
_0-0_0
  6
CONTINUOUS
 62
    7
 10
589.23371599999518
 20
252.43911649999791
 11
589.63903500000015
 21
251.97871249999662
  0
LINE
  8
_0-0_0
  6
CONTINUOUS
 62
    7
 10
587.1671109999952
 20
249.01200749999774
 11
584.28986799999984
 21
246.50570549999614
  0
LINE
  8
_0-0_0
  6
CONTINUOUS
 62
    7
 10
674.08877099999518
 20
641.76277949999712
 11
676.96600999999646
 21
644.26910649999627
  0
LINE
  8
_0-0_0
  6
CONTINUOUS
 62
    7
 10
583.60737700000027
 20
644.26910649999627
 11
586.48461600000155
 21
641.76277949999712
  0
LINE
  8
_0-0_0
  6
CONTINUOUS
 62
    7
 10
671.21152799999982
 20
639.25646249999772
 11
674.08877099999518
 21
641.76277949999712
  0
LINE
  8
_0-0_0
  6
CONTINUOUS
 62
    7
 10
586.48461600000155
 20
641.76277949999712
 11
589.36185899999691
 21
639.25646249999772
  0
LINE
  8
_0-0_0
  6
CONTINUOUS
 62
    7
 10
678.14614699999947
 20
641.88779149999755
 11
675.08414800000173
 21
640.11176349999732
  0
LINE
  8
_0-0_0
  6
CONTINUOUS
 62
    7
 10
585.48923999999533
 20
640.11176349999732
 11
582.42724099999759
 21
641.88779149999755
  0
LINE
  8
_0-0_0
  6
CONTINUOUS
 62
    7
 10
643.34721400000126
 20
682.05098749999524
 11
642.9876030000014
 21
679.72433049999745
  0
LINE
  8
_0-0_0
  6
CONTINUOUS
 62
    7
 10
617.58578399999533
 20
679.72433049999745
 11
617.22617299999547
 21
682.05098749999524
  0
LINE
  8
_0-0_0
  6
CONTINUOUS
 62
    7
 10
671.61684699999751
 20
701.97891949999757
 11
672.0221659999952
 21
702.43932349999523
  0
LINE
  8
_0-0_0
  6
CONTINUOUS
 62
    7
 10
588.55122100000153
 20
702.43932349999523
 11
588.95653999999922
 21
701.97891949999757
  0
LINE
  8
_0-0_0
  6
CONTINUOUS
 62
    7
 10
674.08877099999518
 20
699.01221449999503
 11
671.61684699999751
 21
701.97891949999757
  0
LINE
  8
_0-0_0
  6
CONTINUOUS
 62
    7
 10
588.95653999999922
 20
701.97891949999757
 11
586.48461600000155
 21
699.01221449999503
  0
LINE
  8
_0-0_0
  6
CONTINUOUS
 62
    7
 10
676.96601399999781
 20
696.50591249999707
 11
674.08877099999518
 21
699.01221449999503
  0
LINE
  8
_0-0_0
  6
CONTINUOUS
 62
    7
 10
586.48461600000155
 20
699.01221449999503
 11
583.60737299999892
 21
696.50591249999707
  0
LINE
  8
_0-0_0
  6
CONTINUOUS
 62
    7
 10
636.5815289999955
 20
326.13206249999712
 11
636.58153199999651
 21
329.20052949999808
  0
LINE
  8
_0-0_0
  6
CONTINUOUS
 62
    7
 10
638.77687000000151
 20
342.80754849999721
 11
636.76140199999645
 21
348.86587349999536
  0
LINE
  8
_0-0_0
  6
CONTINUOUS
 62
    7
 10
635.36909200000082
 20
388.88123149999592
 11
640.82529000000068
 21
403.64634649999789
  0
LINE
  8
_0-0_0
  6
CONTINUOUS
 62
    7
 10
624.74325099999987
 20
392.78722449999623
 11
625.25477099999989
 21
388.76447549999648
  0
LINE
  8
_0-0_0
  6
CONTINUOUS
 62
    7
 10
621.39871599999606
 20
403.76515949999521
 11
624.74325099999987
 21
392.78722449999623
  0
LINE
  8
_0-0_0
  6
CONTINUOUS
 62
    7
 10
625.31511899999896
 20
460.74763649999659
 11
625.39133600000059
 21
455.8492004999971
  0
LINE
  8
_0-0_0
  6
CONTINUOUS
 62
    7
 10
623.70229000000108
 20
473.51534749999701
 11
625.31511899999896
 21
460.74763649999659
  0
LINE
  8
_0-0_0
  6
CONTINUOUS
 62
    7
 10
638.63996599999518
 20
548.3959304999953
 11
637.48257899999589
 21
552.43180249999568
  0
LINE
  8
_0-0_0
  6
CONTINUOUS
 62
    7
 10
637.48257899999589
 20
552.43180249999568
 11
636.58153299999685
 21
556.53252049999719
  0
LINE
  8
_0-0_0
  6
CONTINUOUS
 62
    7
 10
625.21448999999848
 20
529.68263149999621
 11
625.46238399999856
 21
526.82237849999728
  0
LINE
  8
_0-0_0
  6
CONTINUOUS
 62
    7
 10
636.58153299999685
 20
556.53252049999719
 11
636.5815289999955
 21
558.97600649999731
  0
LINE
  8
_0-0_0
  6
CONTINUOUS
 62
    7
 10
624.43525981463176
 20
945.38750449999486
 11
636.5815289999955
 21
945.38750449999486
  0
LINE
  8
_0-0_0
  6
CONTINUOUS
 62
    7
 10
624.58152699999482
 20
-54.612495500004997
 11
636.5815289999955
 21
-54.612495500004997
  0
LINE
  8
_0-0_0
  6
CONTINUOUS
 62
    7
 10
636.5815289999955
 20
326.13206249999712
 11
636.5815289999955
 21
227.38731249999549
  0
LINE
  8
_0-0_0
  6
CONTINUOUS
 62
    7
 10
636.5815289999955
 20
213.38729749999769
 11
636.5815289999955
 21
-54.612495500004997
  0
LINE
  8
_0-0_0
  6
CONTINUOUS
 62
    7
 10
624.58152699999482
 20
213.38711768900333
 11
624.58152699999482
 21
-54.612495500004997
  0
LINE
  8
_0-0_0
  6
CONTINUOUS
 62
    7
 10
624.58152699999482
 20
326.13207249999687
 11
624.58152699999482
 21
227.38747831098871
  0
LINE
  8
_0-0_0
  6
CONTINUOUS
 62
    7
 10
636.5815289999955
 20
677.38750449999498
 11
636.5815289999955
 21
945.38750449999486
  0
LINE
  8
_0-0_0
  6
CONTINUOUS
 62
    7
 10
636.5815289999955
 20
556.53252549999524
 11
636.5815289999955
 21
663.38750449999498
  0
LINE
  8
_0-0_0
  6
CONTINUOUS
 62
    7
 10
624.43525981463176
 20
558.97601119813453
 11
624.43525981463176
 21
663.38750449999498
  0
LINE
  8
_0-0_0
  6
CONTINUOUS
 62
    7
 10
624.43525981463176
 20
677.38750449999498
 11
624.43525981463176
 21
945.38750449999486
  0
ENDSEC
  0
EOF
