  0
SECTION
  2
HEADER
  9
$ACADVER
  1
AC1009
  9
$INSBASE
 10
0
 20
0
 30
0
  9
$EXTMIN
 10
0
 20
0
  9
$EXTMAX
 10
2100
 20
1485
  9
$LIMMIN
 10
0
 20
0
  9
$LIMMAX
 10
2100
 20
1485
  9
$LTSCALE
 40
5
  0
ENDSEC
  0
SECTION
  2
TABLES
  0
TABLE
  2
LTYPE
 70
     9
  0
LTYPE
  2
CONTINUOUS
 70
    64
  3
実線
 72
    65
 73
     0
 40
0.0
  0
LTYPE
  2
DASHED1
 70
    64
  3
--  --  --  --  --  --  --  --  
 72
    65
 73
     2
 40
2.5
 49
1.25
 49
-1.25
  0
LTYPE
  2
DASHED2
 70
    64
  3
----    ----    ----    ----    
 72
    65
 73
     2
 40
5.0
 49
2.5
 49
-2.5
  0
LTYPE
  2
DASHED3
 70
    64
  3
------  ------  ------  ------  
 72
    65
 73
     2
 40
5.0
 49
3.75
 49
-1.25
  0
LTYPE
  2
CENTER1
 70
    64
  3
----- - ----- - ----- - ----- - 
 72
    65
 73
     4
 40
10.0
 49
6.25
 49
-1.25
 49
1.25
 49
-1.25
  0
LTYPE
  2
CENTER2
 70
    64
  3
----------  --  ----------  --  
 72
    65
 73
     4
 40
20.0
 49
12.5
 49
-2.5
 49
2.5
 49
-2.5
  0
LTYPE
  2
PHANTOM1
 70
    64
  3
--- - - --- - - --- - - --- - - 
 72
    65
 73
     6
 40
10.0
 49
3.25
 49
-1.25
 49
1.25
 49
-1.25
 49
1.25
 49
-1.25
  0
LTYPE
  2
PHANTOM2
 70
    64
  3
--------  -  -  --------  -  -  
 72
    65
 73
     6
 40
20.0
 49
10.0
 49
-2.5
 49
1.25
 49
-2.5
 49
1.25
 49
-2.5
  0
LTYPE
  2
DOT
 70
    64
  3
-   -   -   -   -   -   -   -   
 72
    65
 73
     2
 40
2.5
 49
0.625
 49
-1.875
  0
LTYPE
  2
DUMMY
 70
    64
  3
ダミー
 72
    65
 73
     0
 40
0.0
  0
LTYPE
  2
RAND1
 70
    64
  3
ランダム線1
 72
    65
 73
     4
 40
10.0
 49
1.0
 49
-2.0
 49
3.0
 49
-4.0
  0
LTYPE
  2
RAND2
 70
    64
  3
ランダム線2
 72
    65
 73
     4
 40
14.0
 49
2.0
 49
-3.0
 49
4.0
 49
-5.0
  0
LTYPE
  2
RAND3
 70
    64
  3
ランダム線3
 72
    65
 73
     4
 40
18.0
 49
3.0
 49
-4.0
 49
5.0
 49
-6.0
  0
LTYPE
  2
RAND4
 70
    64
  3
ランダム線4
 72
    65
 73
     4
 40
22.0
 49
4.0
 49
-5.0
 49
6.0
 49
-7.0
  0
LTYPE
  2
RAND5
 70
    64
  3
ランダム線5
 72
    65
 73
     4
 40
26.0
 49
5.0
 49
-6.0
 49
7.0
 49
-8.0
  0
LTYPE
  2
LONG1
 70
    64
  3
----------  --  ----------  --  
 72
    65
 73
     4
 40
40.0
 49
32.5
 49
-2.5
 49
2.5
 49
-2.5
  0
LTYPE
  2
LONG2
 70
    64
  3
--------  -  -  --------  -  -  
 72
    65
 73
     6
 40
40.0
 49
30.0
 49
-2.5
 49
1.25
 49
-2.5
 49
1.25
 49
-2.5
  0
LTYPE
  2
LONG3
 70
    64
  3
+++++++++++++++..+++++++++++++++
 72
    65
 73
     2
 40
40.0
 49
37.5
 49
-2.5
  0
LTYPE
  2
LONG4
 70
    64
  3
+++++++++++++++..+++++++++++++++
 72
    65
 73
     2
 40
80.0
 49
75.0
 49
-5.0
  0
LTYPE
  2
LONG5
 70
    64
  3
----------  --  ----------  --  
 72
    65
 73
     4
 40
60.0
 49
37.5
 49
-7.5
 49
7.5
 49
-7.5
  0
LTYPE
  2
dashed
 70
   64
  3
-------   -------------   ------
 72
   65
 73
    2
 40
7.5
 49
6
 49
-1.5
  0
LTYPE
  2
dashed_spaced
 70
   64
  3
----        --------        ----
 72
   65
 73
    2
 40
12
 49
6
 49
-6
  0
LTYPE
  2
long_dashed_dotted
 70
   64
  3
------------- --- --------------
 72
   65
 73
    4
 40
15.25
 49
12
 49
-1.5
 49
0.25
 49
-1.5
  0
LTYPE
  2
long_dashed_double-dotted
 70
   64
  3
----------- --- --- ------------
 72
   65
 73
    6
 40
17
 49
12
 49
-1.5
 49
0.25
 49
-1.5
 49
0.25
 49
-1.5
  0
LTYPE
  2
long_dashed_triplicate-dotted
 70
   64
  3
--------- --- --- --- ----------
 72
   65
 73
    8
 40
18.75
 49
12
 49
-1.5
 49
0.25
 49
-1.5
 49
0.25
 49
-1.5
 49
0.25
 49
-1.5
  0
LTYPE
  2
dotted
 70
   64
  3
   -       -       -       -    
 72
   65
 73
    2
 40
1.75
 49
0.25
 49
-1.5
  0
LTYPE
  2
chain
 70
   64
  3
-------------- -- --------------
 72
   65
 73
    4
 40
18.5
 49
12
 49
-1.5
 49
3.5
 49
-1.5
  0
LTYPE
  2
chain_double_dash
 70
   64
  3
------------ -- -- -------------
 72
   65
 73
    6
 40
23.5
 49
12
 49
-1.5
 49
3.5
 49
-1.5
 49
3.5
 49
-1.5
  0
LTYPE
  2
dashed_dotted
 70
   64
  3
-----------     -     ----------
 72
   65
 73
    4
 40
9.25
 49
6
 49
-1.5
 49
0.25
 49
-1.5
  0
LTYPE
  2
double-dashed_dotted
 70
   64
  3
------   -----------   -   -----
 72
   65
 73
    6
 40
16.75
 49
6
 49
-1.5
 49
6
 49
-1.5
 49
0.25
 49
-1.5
  0
LTYPE
  2
dashed_double-dotted
 70
   64
  3
---------    -    -    ---------
 72
   65
 73
    6
 40
11
 49
6
 49
-1.5
 49
0.25
 49
-1.5
 49
0.25
 49
-1.5
  0
LTYPE
  2
double-dashed_double-dotted
 70
   64
  3
-----   ---------   -   -   ----
 72
   65
 73
    8
 40
18.5
 49
6
 49
-1.5
 49
6
 49
-1.5
 49
0.25
 49
-1.5
 49
0.25
 49
-1.5
  0
LTYPE
  2
dashed_triplicate-dotted
 70
   64
  3
-------    -    -    -    ------
 72
   65
 73
    8
 40
12.75
 49
6
 49
-1.5
 49
0.25
 49
-1.5
 49
0.25
 49
-1.5
 49
0.25
 49
-1.5
  0
LTYPE
  2
double-dashed_triplicate-dotted
 70
   64
  3
-----  ---------  -  -  -  -----
 72
   65
 73
   10
 40
20.25
 49
6
 49
-1.5
 49
6
 49
-1.5
 49
0.25
 49
-1.5
 49
0.25
 49
-1.5
 49
0.25
 49
-1.5
  0
LTYPE
  2
undefined
 70
   64
  3
--------------------------------
 72
   65
 73
    0
 40
0
  0
LTYPE
  2
BORDER
 70
   64
  3
----     --------     -     ----
 72
   65
 73
    6
 40
1.76
 49
0.5
 49
-0.25
 49
0.5
 49
-0.25
 49
0.01
 49
-0.25
  0
LTYPE
  2
BORDER2
 70
   64
  3
----     --------     -     ----
 72
   65
 73
    6
 40
0.885
 49
0.25
 49
-0.125
 49
0.25
 49
-0.125
 49
0.01
 49
-0.125
  0
LTYPE
  2
BORDERX2
 70
   64
  3
----     --------     -     ----
 72
   65
 73
    6
 40
3.5099999999999998
 49
1
 49
-0.5
 49
1
 49
-0.5
 49
0.01
 49
-0.5
  0
LTYPE
  2
CENTER
 70
   64
  3
----------    ----    ----------
 72
   65
 73
    4
 40
2
 49
1.25
 49
-0.25
 49
0.25
 49
-0.25
  0
LTYPE
  2
CENTER2_21
 70
   64
  3
----------    ----    ----------
 72
   65
 73
    4
 40
1.125
 49
0.75
 49
-0.125
 49
0.125
 49
-0.125
  0
LTYPE
  2
CENTERX2
 70
   64
  3
----------    ----    ----------
 72
   65
 73
    4
 40
4
 49
2.5
 49
-0.5
 49
0.5
 49
-0.5
  0
LTYPE
  2
DASHDOT
 70
   64
  3
--------        -        -------
 72
   65
 73
    4
 40
1.01
 49
0.5
 49
-0.25
 49
0.01
 49
-0.25
  0
LTYPE
  2
DASHDOT2
 70
   64
  3
--------        -        -------
 72
   65
 73
    4
 40
0.51
 49
0.25
 49
-0.125
 49
0.01
 49
-0.125
  0
LTYPE
  2
DASHDOTX2
 70
   64
  3
--------        -        -------
 72
   65
 73
    4
 40
2.0099999999999998
 49
1
 49
-0.5
 49
0.01
 49
-0.5
  0
LTYPE
  2
DASHED
 70
   64
  3
------     -----------     -----
 72
   65
 73
    2
 40
0.75
 49
0.5
 49
-0.25
  0
LTYPE
  2
DASHED2_27
 70
   64
  3
------     -----------     -----
 72
   65
 73
    2
 40
0.375
 49
0.25
 49
-0.125
  0
LTYPE
  2
DASHEDX2
 70
   64
  3
------     -----------     -----
 72
   65
 73
    2
 40
1.5
 49
1
 49
-0.5
  0
LTYPE
  2
DIVIDE
 70
   64
  3
------      -      -      ------
 72
   65
 73
    6
 40
1.27
 49
0.5
 49
-0.25
 49
0.01
 49
-0.25
 49
0.01
 49
-0.25
  0
LTYPE
  2
DIVIDE2
 70
   64
  3
------      -      -      ------
 72
   65
 73
    6
 40
0.645
 49
0.25
 49
-0.125
 49
0.01
 49
-0.125
 49
0.01
 49
-0.125
  0
LTYPE
  2
DIVIDEX2
 70
   64
  3
------      -      -      ------
 72
   65
 73
    6
 40
2.5199999999999996
 49
1
 49
-0.5
 49
0.01
 49
-0.5
 49
0.01
 49
-0.5
  0
LTYPE
  2
DOT_32
 70
   64
  3
-               -               
 72
   65
 73
    2
 40
0.26
 49
0.01
 49
-0.25
  0
ENDTAB
  0
TABLE
  2
STYLE
  5
3
100
AcDbSymbolTable
 70
     1
  0
STYLE
  5
10
100
AcDbSymbolTableRecord
100
AcDbTextStyleTableRecord
  2
STANDARD
 70
     0
 40
0.0
 41
1.0
 50
0.0
 71
     0
 42
0.2
  3
txt
  4
bigfont.shx
  0
STYLE
  5
26
100
AcDbSymbolTableRecord
100
AcDbTextStyleTableRecord
  2
TATEGAKI
 70
    68
 40
0.0
 41
1.0
 50
0.0
 71
     0
 42
1.0
  3
txt
  4
bigfont.shx
  0
ENDTAB
  0
TABLE
  2
LAYER
 70
    4
  0
LAYER
  2
_0-0_0
 70
   64
 62
    7
  6
CONTINUOUS
  0
LAYER
  2
_0-1_Defpoints
 70
   64
 62
    7
  6
CONTINUOUS
  0
LAYER
  2
_0-4_P-6853
 70
   64
 62
    7
  6
CONTINUOUS
  0
LAYER
  2
ADD_LINE
 70
   64
 62
    7
  6
CONTINUOUS
  0
ENDTAB
  0
ENDSEC
  0
SECTION
  2
BLOCKS
  0
ENDSEC
  0
SECTION
  2
ENTITIES
  0
LINE
  8
_0-4_P-6853
  6
CONTINUOUS
 62
    7
 10
1055.9954591117378
 20
242.51233035535984
 11
1055.9954591117378
 21
485.51234107051096
  0
LINE
  8
_0-4_P-6853
  6
CONTINUOUS
 62
    7
 10
1043.995459111738
 20
242.51233035535984
 11
1043.995459111738
 21
485.51234107051096
  0
LINE
  8
_0-4_P-6853
  6
CONTINUOUS
 62
    7
 10
1055.995459111738
 20
1242.5123303553592
 11
1043.9954591117382
 21
1242.5123303553592
  0
LINE
  8
_0-4_P-6853
  6
CONTINUOUS
 62
    7
 10
1055.9954591117378
 20
242.51233035535984
 11
1043.995459111738
 21
242.51233035535984
  0
ARC
  8
_0-4_P-6853
  6
CONTINUOUS
 62
    7
 10
1197.8160152565288
 20
629.06869639513229
 40
142.24846552108261
 50
127.10764899066199
 51
175.55472465925928
  0
ARC
  8
_0-4_P-6853
  6
CONTINUOUS
 62
    7
 10
1197.8160152565288
 20
855.9559643155942
 40
142.24846552108261
 50
184.44527534074072
 51
232.89235100933803
  0
ARC
  8
_0-4_P-6853
  6
CONTINUOUS
 62
    7
 10
1197.8160152565288
 20
855.9559643155942
 40
154.24846552108261
 50
196.59899939181301
 51
227.34613133231221
  0
ARC
  8
_0-4_P-6853
  6
CONTINUOUS
 62
    7
 10
1197.8160152565288
 20
629.06869639513229
 40
154.24846552108261
 50
132.65386866768759
 51
163.40100060818688
  0
ARC
  8
_0-4_P-6853
  6
CONTINUOUS
 62
    7
 10
902.17490296694791
 20
629.06869639513229
 40
142.24846552108261
 50
4.4452753407406851
 51
52.892351009340466
  0
ARC
  8
_0-4_P-6853
  6
CONTINUOUS
 62
    7
 10
902.17490296694791
 20
855.9559643155942
 40
142.24846552108261
 50
307.10764899065953
 51
355.55472465925931
  0
ARC
  8
_0-4_P-6853
  6
CONTINUOUS
 62
    7
 10
902.17490296694791
 20
855.9559643155942
 40
154.24846552108261
 50
312.65386866768972
 51
343.40100060818702
  0
ARC
  8
_0-4_P-6853
  6
CONTINUOUS
 62
    7
 10
902.17490296694791
 20
629.06869639513229
 40
154.24846552108261
 50
16.59899939181302
 51
47.346131332310343
  0
ARC
  8
_0-0_0
  6
CONTINUOUS
 62
    7
 10
1123.2176639763802
 20
993.58181350724522
 40
67.230711888809338
 50
117.25436291560941
 51
174.9392892003587
  0
ARC
  8
_0-0_0
  6
CONTINUOUS
 62
    7
 10
1127.9048739895434
 20
988.63533378359011
 40
73.799010130777816
 50
93.054818271143589
 51
118.73091321037771
  0
ARC
  8
_0-0_0
  6
CONTINUOUS
 62
    7
 10
1127.1869861218227
 20
1038.7177839040032
 40
23.829558971083774
 50
0
 51
97.753694721980011
  0
ARC
  8
_0-0_0
  6
CONTINUOUS
 62
    7
 10
1123.2176639763802
 20
993.58181350724522
 40
61.23070816351909
 50
117.182208797212
 51
174.44189854285364
  0
ARC
  8
_0-0_0
  6
CONTINUOUS
 62
    7
 10
1127.9048739895434
 20
988.63533378359011
 40
67.799010220184769
 50
92.836081462972686
 51
118.7964283849016
  0
ARC
  8
_0-0_0
  6
CONTINUOUS
 62
    7
 10
1127.1869861218227
 20
1038.7177839040032
 40
17.82955715314213
 50
0
 51
98.504373492898551
  0
ARC
  8
_0-0_0
  6
CONTINUOUS
 62
    7
 10
1134.4340105499664
 20
1038.7177839040032
 40
16.561452618815711
 50
261.44095403051659
 51
0.0000000000000254
  0
ARC
  8
_0-0_0
  6
CONTINUOUS
 62
    7
 10
1134.4340105499664
 20
1038.7177839040032
 40
10.561454615571282
 50
302.76816107546347
 51
0
  0
ARC
  8
_0-0_0
  6
CONTINUOUS
 62
    7
 10
1134.07314782341
 20
1029.0832625631931
 40
7.0631288429628469
 50
102.39747203677801
 51
252.66976170217171
  0
LINE
  8
_0-0_0
  6
CONTINUOUS
 62
    7
 10
1132.5567522771585
 20
1035.9816999603993
 11
1136.6206712839839
 21
1037.9949750768833
  0
LINE
  8
_0-0_0
  6
CONTINUOUS
 62
    7
 10
1136.6206712839839
 20
1037.9949750768833
 11
1137.5999269456615
 21
1036.2693128711521
  0
LINE
  8
_0-0_0
  6
CONTINUOUS
 62
    7
 10
1137.5999269456615
 20
1036.2693128711521
 11
1131.7733431701797
 21
1032.5303908077262
  0
LINE
  8
_0-0_0
  6
CONTINUOUS
 62
    7
 10
1131.7733431701797
 20
1032.5303908077262
 11
1131.3326769780158
 21
1029.8597212918582
  0
LINE
  8
_0-0_0
  6
CONTINUOUS
 62
    7
 10
1131.3326769780158
 20
1029.8597212918582
 11
1131.9691973542731
 21
1028.4627639152131
  0
LINE
  8
_0-0_0
  6
CONTINUOUS
 62
    7
 10
1131.9691973542731
 20
1028.4627639152131
 11
1132.7526064612516
 21
1027.5177566050761
  0
LINE
  8
_0-0_0
  6
CONTINUOUS
 62
    7
 10
1132.7526064612516
 20
1027.5177566050761
 11
1133.976674131
 21
1027.3534041905332
  0
LINE
  8
_0-0_0
  6
CONTINUOUS
 62
    7
 10
1133.976674131
 20
1027.3534041905332
 11
1135.6903734462842
 21
1027.5177566050761
  0
LINE
  8
_0-0_0
  6
CONTINUOUS
 62
    7
 10
1135.6903734462842
 20
1027.5177566050761
 11
1140.1503037997477
 21
1029.8370009552823
  0
LINE
  8
_0-0_0
  6
CONTINUOUS
 62
    7
 10
1131.4795657087373
 20
1032.6947279634803
 11
1130.4023867697103
 21
1031.1334181722923
  0
LINE
  8
_0-0_0
  6
CONTINUOUS
 62
    7
 10
1130.4023867697103
 20
1031.1334181722923
 11
1130.4023867697103
 21
1030.3527632766982
  0
LINE
  8
_0-0_0
  6
CONTINUOUS
 62
    7
 10
1130.4023867697103
 20
1030.3527632766982
 11
1130.4023867697103
 21
1028.9147139817212
  0
LINE
  8
_0-0_0
  6
CONTINUOUS
 62
    7
 10
1130.4023867697103
 20
1028.9147139817212
 11
1130.696164231153
 21
1027.9697219303723
  0
LINE
  8
_0-0_0
  6
CONTINUOUS
 62
    7
 10
1130.696164231153
 20
1027.9697219303723
 11
1130.696164231153
 21
1027.0658065385683
  0
LINE
  8
_0-0_0
  6
CONTINUOUS
 62
    7
 10
1130.9899416925955
 20
1026.4084121391852
 11
1131.9691973542731
 21
1025.6277572435913
  0
LINE
  8
_0-0_0
  6
CONTINUOUS
 62
    7
 10
1131.9691973542731
 20
1025.6277572435913
 11
1133.8297854002785
 21
1025.1757919182942
  0
LINE
  8
_0-0_0
  6
CONTINUOUS
 62
    7
 10
1133.8297854002785
 20
1025.1757919182942
 11
1135.3965959848415
 21
1025.1757919182942
  0
LINE
  8
_0-0_0
  6
CONTINUOUS
 62
    7
 10
1135.3965959848415
 20
1025.1757919182942
 11
1136.8165254680773
 21
1025.1757919182942
  0
LINE
  8
_0-0_0
  6
CONTINUOUS
 62
    7
 10
1136.8165254680773
 20
1025.1757919182942
 11
1139.4605149916672
 21
1025.5044967473812
  0
LINE
  8
_0-0_0
  6
CONTINUOUS
 62
    7
 10
1139.4605149916672
 20
1025.5044967473812
 11
1141.9576234139299
 21
1025.7920943993452
  0
LINE
  8
_0-0_0
  6
CONTINUOUS
 62
    7
 10
1141.9576234139299
 20
1025.7920943993452
 11
1143.8182114599354
 21
1026.5727492949393
  0
LINE
  8
_0-0_0
  6
CONTINUOUS
 62
    7
 10
1131.9691973542731
 20
1035.6529951313123
 11
1130.84304533248
 21
1035.2010450648052
  0
LINE
  8
_0-0_0
  6
CONTINUOUS
 62
    7
 10
1130.84304533248
 20
1035.2010450648052
 11
1129.9127551241741
 21
1034.0917005989131
  0
LINE
  8
_0-0_0
  6
CONTINUOUS
 62
    7
 10
1129.9127551241741
 20
1034.0917005989131
 11
1129.1293460171955
 21
1032.9823408742332
  0
LINE
  8
_0-0_0
  6
CONTINUOUS
 62
    7
 10
1128.3459445396115
 20
1031.9140730678862
 11
1128.0521670781686
 21
1030.4760237729083
  0
LINE
  8
_0-0_0
  6
CONTINUOUS
 62
    7
 10
1127.7094241633542
 20
1028.6271163297563
 11
1127.9052783474472
 21
1027.0658065385683
  0
LINE
  8
_0-0_0
  6
CONTINUOUS
 62
    7
 10
1127.9052783474472
 20
1027.0658065385683
 11
1128.4928332703328
 21
1025.7920943993452
  0
LINE
  8
_0-0_0
  6
CONTINUOUS
 62
    7
 10
1128.4928332703328
 20
1025.7920943993452
 11
1128.9824649158686
 21
1025.1757919182942
  0
LINE
  8
_0-0_0
  6
CONTINUOUS
 62
    7
 10
1128.9824649158686
 20
1025.1757919182942
 11
1130.0596438548955
 21
1024.5594894372432
  0
LINE
  8
_0-0_0
  6
CONTINUOUS
 62
    7
 10
1131.1857882472943
 20
1023.9020950378601
 11
1132.7526064612516
 21
1023.4501297125632
  0
LINE
  8
_0-0_0
  6
CONTINUOUS
 62
    7
 10
1133.8297854002785
 20
1023.4501297125632
 11
1135.2497072541198
 21
1023.4501297125632
  0
LINE
  8
_0-0_0
  6
CONTINUOUS
 62
    7
 10
1135.2497072541198
 20
1023.4501297125632
 11
1136.18000509182
 21
1023.4501297125632
  0
LINE
  8
_0-0_0
  6
CONTINUOUS
 62
    7
 10
1136.18000509182
 20
1023.4501297125632
 11
1138.0405931378257
 21
1023.4501297125632
  0
LINE
  8
_0-0_0
  6
CONTINUOUS
 62
    7
 10
1138.0405931378257
 20
1023.4501297125632
 11
1138.8240022448042
 21
1023.7788345416502
  0
ARC
  8
_0-0_0
  6
CONTINUOUS
 62
    7
 10
1127.9048739895434
 20
996.3893238413873
 40
73.799010130777816
 50
241.26908314715348
 51
266.94518491657732
  0
ARC
  8
_0-0_0
  6
CONTINUOUS
 62
    7
 10
1127.1869861218227
 20
946.3068660915801
 40
23.829558971083774
 50
262.24631529593307
 51
0.0000000000000254
  0
ARC
  8
_0-0_0
  6
CONTINUOUS
 62
    7
 10
1123.2176639763802
 20
991.44283648833721
 40
61.23070816351909
 50
185.55811153106339
 51
242.81778756032202
  0
ARC
  8
_0-0_0
  6
CONTINUOUS
 62
    7
 10
1127.9048739895434
 20
996.3893238413873
 40
67.799010220184769
 50
241.20356797263599
 51
267.16391489456009
  0
ARC
  8
_0-0_0
  6
CONTINUOUS
 62
    7
 10
1127.1869861218227
 20
946.3068660915801
 40
17.82955715314213
 50
261.49562286463629
 51
0.0000000000000127
  0
ARC
  8
_0-0_0
  6
CONTINUOUS
 62
    7
 10
1134.4340105499664
 20
946.3068660915801
 40
16.561452618815711
 50
0
 51
98.55903549682516
  0
ARC
  8
_0-0_0
  6
CONTINUOUS
 62
    7
 10
1134.4340105499664
 20
946.3068660915801
 40
10.561454615571282
 50
0
 51
57.231831866979597
  0
ARC
  8
_0-0_0
  6
CONTINUOUS
 62
    7
 10
1134.07314782341
 20
955.94137980299524
 40
7.0631288429628469
 50
107.33022782517381
 51
257.60252432075538
  0
LINE
  8
_0-0_0
  6
CONTINUOUS
 62
    7
 10
1132.5567522771585
 20
949.04295003518428
 11
1136.6206712839839
 21
947.02967491870027
  0
LINE
  8
_0-0_0
  6
CONTINUOUS
 62
    7
 10
1136.6206712839839
 20
947.02967491870027
 11
1137.5999269456615
 21
948.7553371244303
  0
LINE
  8
_0-0_0
  6
CONTINUOUS
 62
    7
 10
1137.5999269456615
 20
948.7553371244303
 11
1131.7733431701797
 21
952.4942591878571
  0
LINE
  8
_0-0_0
  6
CONTINUOUS
 62
    7
 10
1131.7733431701797
 20
952.4942591878571
 11
1131.3326769780158
 21
955.16492870372531
  0
LINE
  8
_0-0_0
  6
CONTINUOUS
 62
    7
 10
1131.3326769780158
 20
955.16492870372531
 11
1131.9691973542731
 21
956.56188608037019
  0
LINE
  8
_0-0_0
  6
CONTINUOUS
 62
    7
 10
1131.9691973542731
 20
956.56188608037019
 11
1132.7526064612516
 21
957.50689339050632
  0
LINE
  8
_0-0_0
  6
CONTINUOUS
 62
    7
 10
1132.7526064612516
 20
957.50689339050632
 11
1133.976674131
 21
957.67124580505015
  0
LINE
  8
_0-0_0
  6
CONTINUOUS
 62
    7
 10
1133.976674131
 20
957.67124580505015
 11
1135.6903734462842
 21
957.50689339050632
  0
LINE
  8
_0-0_0
  6
CONTINUOUS
 62
    7
 10
1135.6903734462842
 20
957.50689339050632
 11
1140.1503037997477
 21
955.18764904030013
  0
LINE
  8
_0-0_0
  6
CONTINUOUS
 62
    7
 10
1131.4795657087373
 20
952.3299220321021
 11
1130.4023867697103
 21
953.89123182329013
  0
LINE
  8
_0-0_0
  6
CONTINUOUS
 62
    7
 10
1130.4023867697103
 20
953.89123182329013
 11
1130.4023867697103
 21
954.67188671888425
  0
LINE
  8
_0-0_0
  6
CONTINUOUS
 62
    7
 10
1130.4023867697103
 20
954.67188671888425
 11
1130.4023867697103
 21
956.10993601386213
  0
LINE
  8
_0-0_0
  6
CONTINUOUS
 62
    7
 10
1130.4023867697103
 20
956.10993601386213
 11
1130.696164231153
 21
957.05492806521011
  0
LINE
  8
_0-0_0
  6
CONTINUOUS
 62
    7
 10
1130.696164231153
 20
957.05492806521011
 11
1130.696164231153
 21
957.95885108640914
  0
LINE
  8
_0-0_0
  6
CONTINUOUS
 62
    7
 10
1130.9899416925955
 20
958.61623785639813
 11
1131.9691973542731
 21
959.39689275199225
  0
LINE
  8
_0-0_0
  6
CONTINUOUS
 62
    7
 10
1131.9691973542731
 20
959.39689275199225
 11
1133.8297854002785
 21
959.84885807728824
  0
LINE
  8
_0-0_0
  6
CONTINUOUS
 62
    7
 10
1133.8297854002785
 20
959.84885807728824
 11
1135.3965959848415
 21
959.84885807728824
  0
LINE
  8
_0-0_0
  6
CONTINUOUS
 62
    7
 10
1135.3965959848415
 20
959.84885807728824
 11
1136.8165254680773
 21
959.84885807728824
  0
LINE
  8
_0-0_0
  6
CONTINUOUS
 62
    7
 10
1136.8165254680773
 20
959.84885807728824
 11
1139.4605149916672
 21
959.52016087759716
  0
LINE
  8
_0-0_0
  6
CONTINUOUS
 62
    7
 10
1139.4605149916672
 20
959.52016087759716
 11
1141.9576234139299
 21
959.23255559623817
  0
LINE
  8
_0-0_0
  6
CONTINUOUS
 62
    7
 10
1141.9576234139299
 20
959.23255559623817
 11
1143.8182114599354
 21
958.45190070064427
  0
LINE
  8
_0-0_0
  6
CONTINUOUS
 62
    7
 10
1131.9691973542731
 20
949.37164723487626
 11
1130.84304533248
 21
949.82360493077817
  0
LINE
  8
_0-0_0
  6
CONTINUOUS
 62
    7
 10
1130.84304533248
 20
949.82360493077817
 11
1129.9127551241741
 21
950.9329493966693
  0
LINE
  8
_0-0_0
  6
CONTINUOUS
 62
    7
 10
1129.9127551241741
 20
950.9329493966693
 11
1129.1293460171955
 21
952.04230912134926
  0
LINE
  8
_0-0_0
  6
CONTINUOUS
 62
    7
 10
1128.3459445396115
 20
953.11057692769623
 11
1128.0521670781686
 21
954.5486262226741
  0
LINE
  8
_0-0_0
  6
CONTINUOUS
 62
    7
 10
1127.7094241633542
 20
956.39754129522112
 11
1127.9052783474472
 21
957.95885108640914
  0
LINE
  8
_0-0_0
  6
CONTINUOUS
 62
    7
 10
1127.9052783474472
 20
957.95885108640914
 11
1128.4928332703328
 21
959.23255559623817
  0
LINE
  8
_0-0_0
  6
CONTINUOUS
 62
    7
 10
1128.4928332703328
 20
959.23255559623817
 11
1128.9824649158686
 21
959.84885807728824
  0
LINE
  8
_0-0_0
  6
CONTINUOUS
 62
    7
 10
1128.9824649158686
 20
959.84885807728824
 11
1130.0596438548955
 21
960.46516055833922
  0
LINE
  8
_0-0_0
  6
CONTINUOUS
 62
    7
 10
1131.1857882472943
 20
961.1225549577232
 11
1132.7526064612516
 21
961.57452028301918
  0
LINE
  8
_0-0_0
  6
CONTINUOUS
 62
    7
 10
1133.8297854002785
 20
961.57452028301918
 11
1135.2497072541198
 21
961.57452028301918
  0
LINE
  8
_0-0_0
  6
CONTINUOUS
 62
    7
 10
1135.2497072541198
 20
961.57452028301918
 11
1136.18000509182
 21
961.57452028301918
  0
LINE
  8
_0-0_0
  6
CONTINUOUS
 62
    7
 10
1136.18000509182
 20
961.57452028301918
 11
1138.0405931378257
 21
961.57452028301918
  0
LINE
  8
_0-0_0
  6
CONTINUOUS
 62
    7
 10
1138.0405931378257
 20
961.57452028301918
 11
1138.8240022448042
 21
961.24581545393312
  0
ARC
  8
_0-0_0
  6
CONTINUOUS
 62
    7
 10
972.08604423393297
 20
988.63533378359125
 40
73.799010130777816
 50
61.269086789619841
 51
86.945181728853143
  0
ARC
  8
_0-0_0
  6
CONTINUOUS
 62
    7
 10
972.80393210165346
 20
1038.7177839040032
 40
23.829558971083774
 50
82.246305278017601
 51
180
  0
ARC
  8
_0-0_0
  6
CONTINUOUS
 62
    7
 10
976.77325424709579
 20
993.58181350724522
 40
61.23070816351909
 50
5.5581014571463143
 51
62.81779120278685
  0
ARC
  8
_0-0_0
  6
CONTINUOUS
 62
    7
 10
972.08604423393297
 20
988.63533378359125
 40
67.799010220184769
 50
61.203571615099769
 51
87.163918537027328
  0
ARC
  8
_0-0_0
  6
CONTINUOUS
 62
    7
 10
972.80393210165346
 20
1038.7177839040032
 40
17.82955715314213
 50
81.495626507100624
 51
180
  0
ARC
  8
_0-0_0
  6
CONTINUOUS
 62
    7
 10
965.55690767350984
 20
1038.7177839040032
 40
16.561452618815711
 50
180
 51
278.5590459694825
  0
ARC
  8
_0-0_0
  6
CONTINUOUS
 62
    7
 10
965.55690767350984
 20
1038.7177839040032
 40
10.561454615571282
 50
180
 51
237.23183892453588
  0
ARC
  8
_0-0_0
  6
CONTINUOUS
 62
    7
 10
965.91777040006616
 20
1029.0832625631942
 40
7.0631288429628469
 50
287.33023829782917
 51
77.602527963222002
  0
LINE
  8
_0-0_0
  6
CONTINUOUS
 62
    7
 10
967.43416594631776
 20
1035.9816999603993
 11
963.37024693949206
 21
1037.9949750768833
  0
LINE
  8
_0-0_0
  6
CONTINUOUS
 62
    7
 10
963.37024693949206
 20
1037.9949750768833
 11
962.39099127781458
 21
1036.2693128711521
  0
LINE
  8
_0-0_0
  6
CONTINUOUS
 62
    7
 10
962.39099127781458
 20
1036.2693128711521
 11
968.2175750532964
 21
1032.5303908077262
  0
LINE
  8
_0-0_0
  6
CONTINUOUS
 62
    7
 10
968.2175750532964
 20
1032.5303908077262
 11
968.65824124546043
 21
1029.8597212918582
  0
LINE
  8
_0-0_0
  6
CONTINUOUS
 62
    7
 10
968.65824124546043
 20
1029.8597212918582
 11
968.02172086920314
 21
1028.4627639152131
  0
LINE
  8
_0-0_0
  6
CONTINUOUS
 62
    7
 10
968.02172086920314
 20
1028.4627639152131
 11
967.23831176222461
 21
1027.5177566050761
  0
LINE
  8
_0-0_0
  6
CONTINUOUS
 62
    7
 10
967.23831176222461
 20
1027.5177566050761
 11
966.01424409247613
 21
1027.3534041905332
  0
LINE
  8
_0-0_0
  6
CONTINUOUS
 62
    7
 10
966.01424409247613
 20
1027.3534041905332
 11
964.30054477719193
 21
1027.5177566050761
  0
LINE
  8
_0-0_0
  6
CONTINUOUS
 62
    7
 10
964.30054477719193
 20
1027.5177566050761
 11
959.84061442372831
 21
1029.8370009552823
  0
LINE
  8
_0-0_0
  6
CONTINUOUS
 62
    7
 10
968.5113525147392
 20
1032.6947279634803
 11
969.58853145376588
 21
1031.1334181722923
  0
LINE
  8
_0-0_0
  6
CONTINUOUS
 62
    7
 10
969.58853145376588
 20
1031.1334181722923
 11
969.58853145376588
 21
1030.3527632766982
  0
LINE
  8
_0-0_0
  6
CONTINUOUS
 62
    7
 10
969.58853145376588
 20
1030.3527632766982
 11
969.58853145376588
 21
1028.9147139817212
  0
LINE
  8
_0-0_0
  6
CONTINUOUS
 62
    7
 10
969.58853145376588
 20
1028.9147139817212
 11
969.29475399232331
 21
1027.9697219303723
  0
LINE
  8
_0-0_0
  6
CONTINUOUS
 62
    7
 10
969.29475399232331
 20
1027.9697219303723
 11
969.29475399232331
 21
1027.0658065385692
  0
LINE
  8
_0-0_0
  6
CONTINUOUS
 62
    7
 10
969.00097653088051
 20
1026.4084121391852
 11
968.02172086920314
 21
1025.6277572435913
  0
LINE
  8
_0-0_0
  6
CONTINUOUS
 62
    7
 10
968.02172086920314
 20
1025.6277572435913
 11
966.16113282319759
 21
1025.1757919182942
  0
LINE
  8
_0-0_0
  6
CONTINUOUS
 62
    7
 10
966.16113282319759
 20
1025.1757919182942
 11
964.59432223863462
 21
1025.1757919182942
  0
LINE
  8
_0-0_0
  6
CONTINUOUS
 62
    7
 10
964.59432223863462
 20
1025.1757919182942
 11
963.17439275539869
 21
1025.1757919182942
  0
LINE
  8
_0-0_0
  6
CONTINUOUS
 62
    7
 10
963.17439275539869
 20
1025.1757919182942
 11
960.53040323180903
 21
1025.5044967473812
  0
LINE
  8
_0-0_0
  6
CONTINUOUS
 62
    7
 10
960.53040323180903
 20
1025.5044967473812
 11
958.03329480954619
 21
1025.7920943993452
  0
LINE
  8
_0-0_0
  6
CONTINUOUS
 62
    7
 10
958.03329480954619
 20
1025.7920943993452
 11
956.17270676354065
 21
1026.5727492949393
  0
LINE
  8
_0-0_0
  6
CONTINUOUS
 62
    7
 10
968.02172086920314
 20
1035.6529951313132
 11
969.14787289099638
 21
1035.2010450648052
  0
LINE
  8
_0-0_0
  6
CONTINUOUS
 62
    7
 10
969.14787289099638
 20
1035.2010450648052
 11
970.07816309930195
 21
1034.0917005989131
  0
LINE
  8
_0-0_0
  6
CONTINUOUS
 62
    7
 10
970.07816309930195
 20
1034.0917005989131
 11
970.86157220628036
 21
1032.9823408742332
  0
LINE
  8
_0-0_0
  6
CONTINUOUS
 62
    7
 10
971.64497368386492
 20
1031.9140730678862
 11
971.93875114530761
 21
1030.4760237729092
  0
LINE
  8
_0-0_0
  6
CONTINUOUS
 62
    7
 10
972.28149406012221
 20
1028.6271163297572
 11
972.08563987602872
 21
1027.0658065385692
  0
LINE
  8
_0-0_0
  6
CONTINUOUS
 62
    7
 10
972.08563987602872
 20
1027.0658065385692
 11
971.49808495314346
 21
1025.7920943993452
  0
LINE
  8
_0-0_0
  6
CONTINUOUS
 62
    7
 10
971.49808495314346
 20
1025.7920943993452
 11
971.00845330760751
 21
1025.1757919182942
  0
LINE
  8
_0-0_0
  6
CONTINUOUS
 62
    7
 10
971.00845330760751
 20
1025.1757919182942
 11
969.9312743685806
 21
1024.5594894372441
  0
LINE
  8
_0-0_0
  6
CONTINUOUS
 62
    7
 10
968.80512997618189
 20
1023.9020950378601
 11
967.23831176222461
 21
1023.4501297125632
  0
LINE
  8
_0-0_0
  6
CONTINUOUS
 62
    7
 10
966.16113282319759
 20
1023.4501297125632
 11
964.74121096935608
 21
1023.4501297125632
  0
LINE
  8
_0-0_0
  6
CONTINUOUS
 62
    7
 10
964.74121096935608
 20
1023.4501297125632
 11
963.81091313165598
 21
1023.4501297125632
  0
LINE
  8
_0-0_0
  6
CONTINUOUS
 62
    7
 10
963.81091313165598
 20
1023.4501297125632
 11
961.95032508565055
 21
1023.4501297125632
  0
LINE
  8
_0-0_0
  6
CONTINUOUS
 62
    7
 10
961.95032508565055
 20
1023.4501297125632
 11
961.16691597867202
 21
1023.7788345416502
  0
ARC
  8
_0-0_0
  6
CONTINUOUS
 62
    7
 10
976.77325424709579
 20
991.44283648833721
 40
67.230711888809338
 50
297.25436655807306
 51
354.93928003288607
  0
ARC
  8
_0-0_0
  6
CONTINUOUS
 62
    7
 10
972.08604423393297
 20
996.3893238413873
 40
73.799010130777816
 50
273.0548150834195
 51
298.73091685284589
  0
ARC
  8
_0-0_0
  6
CONTINUOUS
 62
    7
 10
972.80393210165346
 20
946.3068660915801
 40
23.829558971083774
 50
180
 51
277.75368470406698
  0
ARC
  8
_0-0_0
  6
CONTINUOUS
 62
    7
 10
976.77325424709579
 20
991.44283648833721
 40
61.23070816351909
 50
297.18221243968031
 51
354.44188846893661
  0
ARC
  8
_0-0_0
  6
CONTINUOUS
 62
    7
 10
972.08604423393297
 20
996.3893238413873
 40
67.799010220184769
 50
272.8360851054365
 51
298.79643202736349
  0
ARC
  8
_0-0_0
  6
CONTINUOUS
 62
    7
 10
972.80393210165346
 20
946.3068660915801
 40
17.82955715314213
 50
180
 51
278.50437713536132
  0
ARC
  8
_0-0_0
  6
CONTINUOUS
 62
    7
 10
965.55690767350961
 20
946.3068660915801
 40
16.561452618815711
 50
81.440964503175607
 51
180
  0
ARC
  8
_0-0_0
  6
CONTINUOUS
 62
    7
 10
965.55690767350961
 20
946.3068660915801
 40
10.561454615571282
 50
122.76816813301892
 51
180.00000000000003
  0
ARC
  8
_0-0_0
  6
CONTINUOUS
 62
    7
 10
965.91777040006593
 20
955.94137980299524
 40
7.0631288429628469
 50
282.3974756792453
 51
72.669772174822882
  0
LINE
  8
_0-0_0
  6
CONTINUOUS
 62
    7
 10
967.43416594631765
 20
949.04295003518428
 11
963.37024693949184
 21
947.02967491870027
  0
LINE
  8
_0-0_0
  6
CONTINUOUS
 62
    7
 10
963.37024693949184
 20
947.02967491870027
 11
962.39099127781446
 21
948.7553371244303
  0
LINE
  8
_0-0_0
  6
CONTINUOUS
 62
    7
 10
962.39099127781446
 20
948.7553371244303
 11
968.21757505329629
 21
952.4942591878571
  0
LINE
  8
_0-0_0
  6
CONTINUOUS
 62
    7
 10
968.21757505329629
 20
952.4942591878571
 11
968.65824124546043
 21
955.16492870372531
  0
LINE
  8
_0-0_0
  6
CONTINUOUS
 62
    7
 10
968.65824124546043
 20
955.16492870372531
 11
968.02172086920314
 21
956.56188608037019
  0
LINE
  8
_0-0_0
  6
CONTINUOUS
 62
    7
 10
968.02172086920314
 20
956.56188608037019
 11
967.23831176222461
 21
957.50689339050632
  0
LINE
  8
_0-0_0
  6
CONTINUOUS
 62
    7
 10
967.23831176222461
 20
957.50689339050632
 11
966.01424409247613
 21
957.67124580505015
  0
LINE
  8
_0-0_0
  6
CONTINUOUS
 62
    7
 10
966.01424409247613
 20
957.67124580505015
 11
964.30054477719193
 21
957.50689339050632
  0
LINE
  8
_0-0_0
  6
CONTINUOUS
 62
    7
 10
964.30054477719193
 20
957.50689339050632
 11
959.8406144237282
 21
955.18764904030013
  0
LINE
  8
_0-0_0
  6
CONTINUOUS
 62
    7
 10
968.51135251473897
 20
952.3299220321021
 11
969.58853145376577
 21
953.89123182329013
  0
LINE
  8
_0-0_0
  6
CONTINUOUS
 62
    7
 10
969.58853145376577
 20
953.89123182329013
 11
969.58853145376577
 21
954.67188671888516
  0
LINE
  8
_0-0_0
  6
CONTINUOUS
 62
    7
 10
969.58853145376577
 20
954.67188671888516
 11
969.58853145376588
 21
956.10993601386213
  0
LINE
  8
_0-0_0
  6
CONTINUOUS
 62
    7
 10
969.58853145376588
 20
956.10993601386213
 11
969.29475399232331
 21
957.05492806521011
  0
LINE
  8
_0-0_0
  6
CONTINUOUS
 62
    7
 10
969.29475399232331
 20
957.05492806521011
 11
969.29475399232331
 21
957.95885108640914
  0
LINE
  8
_0-0_0
  6
CONTINUOUS
 62
    7
 10
969.00097653088051
 20
958.61623785639813
 11
968.02172086920314
 21
959.39689275199225
  0
LINE
  8
_0-0_0
  6
CONTINUOUS
 62
    7
 10
968.02172086920314
 20
959.39689275199225
 11
966.16113282319759
 21
959.84885807728824
  0
LINE
  8
_0-0_0
  6
CONTINUOUS
 62
    7
 10
966.16113282319759
 20
959.84885807728824
 11
964.59432223863462
 21
959.84885807728824
  0
LINE
  8
_0-0_0
  6
CONTINUOUS
 62
    7
 10
964.59432223863462
 20
959.84885807728824
 11
963.17439275539869
 21
959.84885807728824
  0
LINE
  8
_0-0_0
  6
CONTINUOUS
 62
    7
 10
963.17439275539869
 20
959.84885807728824
 11
960.53040323180892
 21
959.52016087759716
  0
LINE
  8
_0-0_0
  6
CONTINUOUS
 62
    7
 10
960.53040323180892
 20
959.52016087759716
 11
958.03329480954608
 21
959.23255559623817
  0
LINE
  8
_0-0_0
  6
CONTINUOUS
 62
    7
 10
958.03329480954608
 20
959.23255559623817
 11
956.17270676354042
 21
958.45190070064427
  0
LINE
  8
_0-0_0
  6
CONTINUOUS
 62
    7
 10
968.02172086920314
 20
949.37164723487626
 11
969.14787289099627
 21
949.82360493077817
  0
LINE
  8
_0-0_0
  6
CONTINUOUS
 62
    7
 10
969.14787289099627
 20
949.82360493077817
 11
970.07816309930172
 21
950.9329493966693
  0
LINE
  8
_0-0_0
  6
CONTINUOUS
 62
    7
 10
970.07816309930172
 20
950.9329493966693
 11
970.86157220628036
 21
952.04230912135017
  0
LINE
  8
_0-0_0
  6
CONTINUOUS
 62
    7
 10
971.64497368386492
 20
953.11057692769714
 11
971.93875114530726
 21
954.5486262226741
  0
LINE
  8
_0-0_0
  6
CONTINUOUS
 62
    7
 10
972.2814940601221
 20
956.39754129522112
 11
972.08563987602872
 21
957.95885108640914
  0
LINE
  8
_0-0_0
  6
CONTINUOUS
 62
    7
 10
972.08563987602872
 20
957.95885108640914
 11
971.49808495314346
 21
959.23255559623817
  0
LINE
  8
_0-0_0
  6
CONTINUOUS
 62
    7
 10
971.49808495314346
 20
959.23255559623817
 11
971.00845330760751
 21
959.84885807728824
  0
LINE
  8
_0-0_0
  6
CONTINUOUS
 62
    7
 10
971.00845330760751
 20
959.84885807728824
 11
969.9312743685806
 21
960.46516055833922
  0
LINE
  8
_0-0_0
  6
CONTINUOUS
 62
    7
 10
968.80512997618189
 20
961.1225549577232
 11
967.23831176222461
 21
961.57452028301918
  0
LINE
  8
_0-0_0
  6
CONTINUOUS
 62
    7
 10
966.16113282319759
 20
961.57452028301918
 11
964.74121096935608
 21
961.57452028301918
  0
LINE
  8
_0-0_0
  6
CONTINUOUS
 62
    7
 10
964.74121096935608
 20
961.57452028301918
 11
963.81091313165598
 21
961.57452028301918
  0
LINE
  8
_0-0_0
  6
CONTINUOUS
 62
    7
 10
963.81091313165598
 20
961.57452028301918
 11
961.95032508565055
 21
961.57452028301918
  0
LINE
  8
_0-0_0
  6
CONTINUOUS
 62
    7
 10
961.95032508565055
 20
961.57452028301918
 11
961.1669159786718
 21
961.24581545393312
  0
POINT
  8
_0-1_Defpoints
 62
    7
 10
1037.7160847698092
 20
999.51231964021531
  0
ARC
  8
_0-0_0
  6
CONTINUOUS
 62
    7
 10
1035.7785847698092
 20
992.51231964021417
 40
2.5624999999999716
 50
102.68038349182102
 51
257.31961650817891
  0
LINE
  8
_0-0_0
  6
CONTINUOUS
 62
    7
 10
1035.2160847698092
 20
985.51231964021531
 11
1035.2160847698092
 21
990.01231964021417
  0
LINE
  8
_0-0_0
  6
CONTINUOUS
 62
    7
 10
1035.2160847698092
 20
995.01231964021531
 11
1035.2160847698092
 21
999.51231964021531
  0
LINE
  8
_0-0_0
  6
CONTINUOUS
 62
    7
 10
1064.7748334536673
 20
985.51231964021531
 11
1035.2160847698092
 21
985.51231964021531
  0
LINE
  8
_0-0_0
  6
CONTINUOUS
 62
    7
 10
1064.7748334536673
 20
999.51231964021531
 11
1035.2160847698092
 21
999.51231964021531
  0
POINT
  8
_0-1_Defpoints
 62
    7
 10
1062.2748334536673
 20
999.51231964021531
  0
ARC
  8
_0-0_0
  6
CONTINUOUS
 62
    7
 10
1064.2123334536673
 20
992.51231964021417
 40
2.5624999999999716
 50
282.68038349182137
 51
77.319616508178584
  0
LINE
  8
_0-0_0
  6
CONTINUOUS
 62
    7
 10
1064.7748334536673
 20
985.51231964021531
 11
1064.7748334536673
 21
990.01231964021417
  0
LINE
  8
_0-0_0
  6
CONTINUOUS
 62
    7
 10
1064.7748334536673
 20
995.01231964021531
 11
1064.7748334536673
 21
999.51231964021531
  0
LINE
  8
_0-4_P-6853
  6
CONTINUOUS
 62
    7
 10
1035.2160847698092
 20
995.01231964021531
 11
1064.7748334536673
 21
995.01231964021531
  0
LINE
  8
_0-4_P-6853
  6
CONTINUOUS
 62
    7
 10
1064.7748334536673
 20
990.01231964021417
 11
1035.2160847698092
 21
990.01231964021417
  0
ARC
  8
_0-0_0
  6
CONTINUOUS
 62
    7
 10
976.77325424709579
 20
993.58181350724522
 40
67.230711888809338
 50
5.0607107996413143
 51
62.745637084388029
  0
ARC
  8
_0-0_0
  6
CONTINUOUS
 62
    7
 10
1123.2176639763802
 20
991.44283648833721
 40
67.230711888809338
 50
185.06071996711393
 51
242.74563344192694
  0
LINE
  8
_0-4_P-6853
  6
CONTINUOUS
 62
    7
 10
1055.9954591117378
 20
844.93072972013829
 11
1055.9954591117378
 21
985.51231964021531
  0
LINE
  8
_0-4_P-6853
  6
CONTINUOUS
 62
    7
 10
1043.995459111738
 20
844.9307297201301
 11
1043.9954591117382
 21
985.51231964021531
  0
ARC
  8
_0-0_0
  6
CONTINUOUS
 62
    7
 10
1123.2176639763802
 20
491.44284720348082
 40
67.230711888809338
 50
185.06071079964451
 51
242.74563708439592
  0
ARC
  8
_0-0_0
  6
CONTINUOUS
 62
    7
 10
1127.9048739895434
 20
496.38932692713593
 40
73.799010130777816
 50
241.26908678962462
 51
266.94518172885637
  0
ARC
  8
_0-0_0
  6
CONTINUOUS
 62
    7
 10
1127.1869861218227
 20
446.30687680672281
 40
23.829558971083774
 50
262.24630527802117
 51
0.0000000000000254
  0
ARC
  8
_0-0_0
  6
CONTINUOUS
 62
    7
 10
1123.2176639763802
 20
491.44284720348082
 40
61.23070816351909
 50
185.55810145715756
 51
242.81779120278347
  0
ARC
  8
_0-0_0
  6
CONTINUOUS
 62
    7
 10
1127.9048739895434
 20
496.38932692713593
 40
67.799010220184769
 50
241.20357161510361
 51
267.16391853702783
  0
ARC
  8
_0-0_0
  6
CONTINUOUS
 62
    7
 10
1127.1869861218227
 20
446.30687680672281
 40
17.82955715314213
 50
261.49562650710197
 51
0
  0
ARC
  8
_0-0_0
  6
CONTINUOUS
 62
    7
 10
1134.4340105499664
 20
446.30687680672281
 40
16.561452618815711
 50
0
 51
98.559045969484103
  0
ARC
  8
_0-0_0
  6
CONTINUOUS
 62
    7
 10
1134.4340105499664
 20
446.30687680672281
 40
10.561454615571282
 50
0
 51
57.231838924534763
  0
ARC
  8
_0-0_0
  6
CONTINUOUS
 62
    7
 10
1134.07314782341
 20
455.94139814753305
 40
7.0631288429628469
 50
107.3302382978313
 51
257.60252796321936
  0
LINE
  8
_0-0_0
  6
CONTINUOUS
 62
    7
 10
1132.5567522771585
 20
449.04296075032676
 11
1136.6206712839839
 21
447.02968563384297
  0
LINE
  8
_0-0_0
  6
CONTINUOUS
 62
    7
 10
1136.6206712839839
 20
447.02968563384297
 11
1137.5999269456615
 21
448.75534783957357
  0
LINE
  8
_0-0_0
  6
CONTINUOUS
 62
    7
 10
1137.5999269456615
 20
448.75534783957357
 11
1131.7733431701797
 21
452.4942699029998
  0
LINE
  8
_0-0_0
  6
CONTINUOUS
 62
    7
 10
1131.7733431701797
 20
452.4942699029998
 11
1131.3326769780158
 21
455.16493941886779
  0
LINE
  8
_0-0_0
  6
CONTINUOUS
 62
    7
 10
1131.3326769780158
 20
455.16493941886779
 11
1131.9691973542731
 21
456.56189679551289
  0
LINE
  8
_0-0_0
  6
CONTINUOUS
 62
    7
 10
1131.9691973542731
 20
456.56189679551289
 11
1132.7526064612516
 21
457.50690410564971
  0
LINE
  8
_0-0_0
  6
CONTINUOUS
 62
    7
 10
1132.7526064612516
 20
457.50690410564971
 11
1133.976674131
 21
457.67125652019274
  0
LINE
  8
_0-0_0
  6
CONTINUOUS
 62
    7
 10
1133.976674131
 20
457.67125652019274
 11
1135.6903734462842
 21
457.50690410564971
  0
LINE
  8
_0-0_0
  6
CONTINUOUS
 62
    7
 10
1135.6903734462842
 20
457.50690410564971
 11
1140.1503037997477
 21
455.18765975544369
  0
LINE
  8
_0-0_0
  6
CONTINUOUS
 62
    7
 10
1131.4795657087373
 20
452.32993274724595
 11
1130.4023867697103
 21
453.89124253843363
  0
LINE
  8
_0-0_0
  6
CONTINUOUS
 62
    7
 10
1130.4023867697103
 20
453.89124253843363
 11
1130.4023867697103
 21
454.67189743402787
  0
LINE
  8
_0-0_0
  6
CONTINUOUS
 62
    7
 10
1130.4023867697103
 20
454.67189743402787
 11
1130.4023867697103
 21
456.10994672900483
  0
LINE
  8
_0-0_0
  6
CONTINUOUS
 62
    7
 10
1130.4023867697103
 20
456.10994672900483
 11
1130.696164231153
 21
457.05493878035372
  0
LINE
  8
_0-0_0
  6
CONTINUOUS
 62
    7
 10
1130.696164231153
 20
457.05493878035372
 11
1130.696164231153
 21
457.95885417215771
  0
LINE
  8
_0-0_0
  6
CONTINUOUS
 62
    7
 10
1130.9899416925955
 20
458.61624857154084
 11
1131.9691973542731
 21
459.39690346713473
  0
LINE
  8
_0-0_0
  6
CONTINUOUS
 62
    7
 10
1131.9691973542731
 20
459.39690346713473
 11
1133.8297854002785
 21
459.84886879243186
  0
LINE
  8
_0-0_0
  6
CONTINUOUS
 62
    7
 10
1133.8297854002785
 20
459.84886879243186
 11
1135.3965959848415
 21
459.84886879243186
  0
LINE
  8
_0-0_0
  6
CONTINUOUS
 62
    7
 10
1135.3965959848415
 20
459.84886879243186
 11
1136.8165254680773
 21
459.84886879243186
  0
LINE
  8
_0-0_0
  6
CONTINUOUS
 62
    7
 10
1136.8165254680773
 20
459.84886879243186
 11
1139.4605149916672
 21
459.52016396334488
  0
LINE
  8
_0-0_0
  6
CONTINUOUS
 62
    7
 10
1139.4605149916672
 20
459.52016396334488
 11
1141.9576234139299
 21
459.23256631138088
  0
LINE
  8
_0-0_0
  6
CONTINUOUS
 62
    7
 10
1141.9576234139299
 20
459.23256631138088
 11
1143.8182114599354
 21
458.45191141578664
  0
LINE
  8
_0-0_0
  6
CONTINUOUS
 62
    7
 10
1131.9691973542731
 20
449.37166557941396
 11
1130.84304533248
 21
449.82361564592077
  0
LINE
  8
_0-0_0
  6
CONTINUOUS
 62
    7
 10
1130.84304533248
 20
449.82361564592077
 11
1129.9127551241741
 21
450.93296011181303
  0
LINE
  8
_0-0_0
  6
CONTINUOUS
 62
    7
 10
1129.9127551241741
 20
450.93296011181303
 11
1129.1293460171955
 21
452.04231983649277
  0
LINE
  8
_0-0_0
  6
CONTINUOUS
 62
    7
 10
1128.3459445396115
 20
453.11058764283973
 11
1128.0521670781686
 21
454.54863693781772
  0
LINE
  8
_0-0_0
  6
CONTINUOUS
 62
    7
 10
1127.7094241633542
 20
456.39754438096975
 11
1127.9052783474472
 21
457.95885417215771
  0
LINE
  8
_0-0_0
  6
CONTINUOUS
 62
    7
 10
1127.9052783474472
 20
457.95885417215771
 11
1128.4928332703328
 21
459.23256631138088
  0
LINE
  8
_0-0_0
  6
CONTINUOUS
 62
    7
 10
1128.4928332703328
 20
459.23256631138088
 11
1128.9824649158686
 21
459.84886879243186
  0
LINE
  8
_0-0_0
  6
CONTINUOUS
 62
    7
 10
1128.9824649158686
 20
459.84886879243186
 11
1130.0596438548955
 21
460.46517127348295
  0
LINE
  8
_0-0_0
  6
CONTINUOUS
 62
    7
 10
1131.1857882472943
 20
461.1225656728659
 11
1132.7526064612516
 21
461.57453099816269
  0
LINE
  8
_0-0_0
  6
CONTINUOUS
 62
    7
 10
1133.8297854002785
 20
461.57453099816269
 11
1135.2497072541198
 21
461.57453099816269
  0
LINE
  8
_0-0_0
  6
CONTINUOUS
 62
    7
 10
1135.2497072541198
 20
461.57453099816269
 11
1136.18000509182
 21
461.57453099816269
  0
LINE
  8
_0-0_0
  6
CONTINUOUS
 62
    7
 10
1136.18000509182
 20
461.57453099816269
 11
1138.0405931378257
 21
461.57453099816269
  0
LINE
  8
_0-0_0
  6
CONTINUOUS
 62
    7
 10
1138.0405931378257
 20
461.57453099816269
 11
1138.8240022448042
 21
461.24582616907571
  0
ARC
  8
_0-0_0
  6
CONTINUOUS
 62
    7
 10
1127.9048739895434
 20
488.63533686933874
 40
73.799010130777816
 50
93.054815083422767
 51
118.73091685284719
  0
ARC
  8
_0-0_0
  6
CONTINUOUS
 62
    7
 10
1127.1869861218227
 20
538.71779461914525
 40
23.829558971083774
 50
0
 51
97.753684704067027
  0
ARC
  8
_0-0_0
  6
CONTINUOUS
 62
    7
 10
1123.2176639763802
 20
493.58182422238872
 40
61.23070816351909
 50
117.1822124396822
 51
174.44188846892851
  0
ARC
  8
_0-0_0
  6
CONTINUOUS
 62
    7
 10
1127.9048739895434
 20
488.63533686933874
 40
67.799010220184769
 50
92.836085105439324
 51
118.7964320273616
  0
ARC
  8
_0-0_0
  6
CONTINUOUS
 62
    7
 10
1127.1869861218227
 20
538.71779461914525
 40
17.82955715314213
 50
0
 51
98.504377135362759
  0
ARC
  8
_0-0_0
  6
CONTINUOUS
 62
    7
 10
1134.4340105499664
 20
538.71779461914525
 40
16.561452618815711
 50
261.44096450317602
 51
0.0000000000000127
  0
ARC
  8
_0-0_0
  6
CONTINUOUS
 62
    7
 10
1134.4340105499664
 20
538.71779461914525
 40
10.561454615571282
 50
302.76816813301929
 51
0
  0
ARC
  8
_0-0_0
  6
CONTINUOUS
 62
    7
 10
1134.07314782341
 20
529.08328090773023
 40
7.0631288429628469
 50
102.3974756792435
 51
252.66977217482258
  0
LINE
  8
_0-0_0
  6
CONTINUOUS
 62
    7
 10
1132.5567522771585
 20
535.98171067554119
 11
1136.6206712839839
 21
537.9949857920252
  0
LINE
  8
_0-0_0
  6
CONTINUOUS
 62
    7
 10
1136.6206712839839
 20
537.9949857920252
 11
1137.5999269456615
 21
536.26932358629517
  0
LINE
  8
_0-0_0
  6
CONTINUOUS
 62
    7
 10
1137.5999269456615
 20
536.26932358629517
 11
1131.7733431701797
 21
532.53040152286917
  0
LINE
  8
_0-0_0
  6
CONTINUOUS
 62
    7
 10
1131.7733431701797
 20
532.53040152286917
 11
1131.3326769780158
 21
529.85973200700016
  0
LINE
  8
_0-0_0
  6
CONTINUOUS
 62
    7
 10
1131.3326769780158
 20
529.85973200700016
 11
1131.9691973542731
 21
528.46277463035517
  0
LINE
  8
_0-0_0
  6
CONTINUOUS
 62
    7
 10
1131.9691973542731
 20
528.46277463035517
 11
1132.7526064612516
 21
527.5177673202196
  0
LINE
  8
_0-0_0
  6
CONTINUOUS
 62
    7
 10
1132.7526064612516
 20
527.5177673202196
 11
1133.976674131
 21
527.35341490567566
  0
LINE
  8
_0-0_0
  6
CONTINUOUS
 62
    7
 10
1133.976674131
 20
527.35341490567566
 11
1135.6903734462842
 21
527.5177673202196
  0
LINE
  8
_0-0_0
  6
CONTINUOUS
 62
    7
 10
1135.6903734462842
 20
527.5177673202196
 11
1140.1503037997477
 21
529.83701167042523
  0
LINE
  8
_0-0_0
  6
CONTINUOUS
 62
    7
 10
1131.4795657087373
 20
532.69473867862325
 11
1130.4023867697103
 21
531.13342888743523
  0
LINE
  8
_0-0_0
  6
CONTINUOUS
 62
    7
 10
1130.4023867697103
 20
531.13342888743523
 11
1130.4023867697103
 21
530.35277399184122
  0
LINE
  8
_0-0_0
  6
CONTINUOUS
 62
    7
 10
1130.4023867697103
 20
530.35277399184122
 11
1130.4023867697103
 21
528.91472469686323
  0
LINE
  8
_0-0_0
  6
CONTINUOUS
 62
    7
 10
1130.4023867697103
 20
528.91472469686323
 11
1130.696164231153
 21
527.96973264551616
  0
LINE
  8
_0-0_0
  6
CONTINUOUS
 62
    7
 10
1130.696164231153
 20
527.96973264551616
 11
1130.696164231153
 21
527.06580962431667
  0
LINE
  8
_0-0_0
  6
CONTINUOUS
 62
    7
 10
1130.9899416925955
 20
526.4084228543278
 11
1131.9691973542731
 21
525.62776795873356
  0
LINE
  8
_0-0_0
  6
CONTINUOUS
 62
    7
 10
1131.9691973542731
 20
525.62776795873356
 11
1133.8297854002785
 21
525.1758026334378
  0
LINE
  8
_0-0_0
  6
CONTINUOUS
 62
    7
 10
1133.8297854002785
 20
525.1758026334378
 11
1135.3965959848415
 21
525.1758026334378
  0
LINE
  8
_0-0_0
  6
CONTINUOUS
 62
    7
 10
1135.3965959848415
 20
525.1758026334378
 11
1136.8165254680773
 21
525.1758026334378
  0
LINE
  8
_0-0_0
  6
CONTINUOUS
 62
    7
 10
1136.8165254680773
 20
525.1758026334378
 11
1139.4605149916672
 21
525.50449983312876
  0
LINE
  8
_0-0_0
  6
CONTINUOUS
 62
    7
 10
1139.4605149916672
 20
525.50449983312876
 11
1141.9576234139299
 21
525.79210511448753
  0
LINE
  8
_0-0_0
  6
CONTINUOUS
 62
    7
 10
1141.9576234139299
 20
525.79210511448753
 11
1143.8182114599354
 21
526.57276001008199
  0
LINE
  8
_0-0_0
  6
CONTINUOUS
 62
    7
 10
1131.9691973542731
 20
535.65301347584921
 11
1130.84304533248
 21
535.20105577994718
  0
LINE
  8
_0-0_0
  6
CONTINUOUS
 62
    7
 10
1130.84304533248
 20
535.20105577994718
 11
1129.9127551241741
 21
534.09171131405617
  0
LINE
  8
_0-0_0
  6
CONTINUOUS
 62
    7
 10
1129.9127551241741
 20
534.09171131405617
 11
1129.1293460171955
 21
532.98235158937609
  0
LINE
  8
_0-0_0
  6
CONTINUOUS
 62
    7
 10
1128.3459445396115
 20
531.91408378302924
 11
1128.0521670781686
 21
530.47603448805216
  0
LINE
  8
_0-0_0
  6
CONTINUOUS
 62
    7
 10
1127.7094241633542
 20
528.62711941550526
 11
1127.9052783474472
 21
527.06580962431667
  0
LINE
  8
_0-0_0
  6
CONTINUOUS
 62
    7
 10
1127.9052783474472
 20
527.06580962431667
 11
1128.4928332703328
 21
525.79210511448753
  0
LINE
  8
_0-0_0
  6
CONTINUOUS
 62
    7
 10
1128.4928332703328
 20
525.79210511448753
 11
1128.9824649158686
 21
525.1758026334378
  0
LINE
  8
_0-0_0
  6
CONTINUOUS
 62
    7
 10
1128.9824649158686
 20
525.1758026334378
 11
1130.0596438548955
 21
524.55950015238682
  0
LINE
  8
_0-0_0
  6
CONTINUOUS
 62
    7
 10
1131.1857882472943
 20
523.90210575300296
 11
1132.7526064612516
 21
523.45014042770686
  0
LINE
  8
_0-0_0
  6
CONTINUOUS
 62
    7
 10
1133.8297854002785
 20
523.45014042770686
 11
1135.2497072541198
 21
523.45014042770686
  0
LINE
  8
_0-0_0
  6
CONTINUOUS
 62
    7
 10
1135.2497072541198
 20
523.45014042770686
 11
1136.18000509182
 21
523.45014042770686
  0
LINE
  8
_0-0_0
  6
CONTINUOUS
 62
    7
 10
1136.18000509182
 20
523.45014042770686
 11
1138.0405931378257
 21
523.45014042770686
  0
LINE
  8
_0-0_0
  6
CONTINUOUS
 62
    7
 10
1138.0405931378257
 20
523.45014042770686
 11
1138.8240022448042
 21
523.77884525679292
  0
ARC
  8
_0-0_0
  6
CONTINUOUS
 62
    7
 10
972.08604423393297
 20
496.38932692713479
 40
73.799010130777816
 50
273.05481827114693
 51
298.73091321037737
  0
ARC
  8
_0-0_0
  6
CONTINUOUS
 62
    7
 10
972.80393210165346
 20
446.30687680672281
 40
23.829558971083774
 50
180
 51
277.75369472198128
  0
ARC
  8
_0-0_0
  6
CONTINUOUS
 62
    7
 10
976.77325424709579
 20
491.44284720348082
 40
61.23070816351909
 50
297.18220879721747
 51
354.44189854284247
  0
ARC
  8
_0-0_0
  6
CONTINUOUS
 62
    7
 10
972.08604423393297
 20
496.38932692713479
 40
67.799010220184769
 50
272.83608146297217
 51
298.79642838489531
  0
ARC
  8
_0-0_0
  6
CONTINUOUS
 62
    7
 10
972.80393210165346
 20
446.30687680672281
 40
17.82955715314213
 50
180
 51
278.50437349289882
  0
ARC
  8
_0-0_0
  6
CONTINUOUS
 62
    7
 10
965.55690767350984
 20
446.30687680672281
 40
16.561452618815711
 50
81.440954030516835
 51
180
  0
ARC
  8
_0-0_0
  6
CONTINUOUS
 62
    7
 10
965.55690767350984
 20
446.30687680672281
 40
10.561454615571282
 50
122.76816107546561
 51
180
  0
ARC
  8
_0-0_0
  6
CONTINUOUS
 62
    7
 10
965.91777040006616
 20
455.94139814753163
 40
7.0631288429628469
 50
282.39747203678075
 51
72.669761702168003
  0
LINE
  8
_0-0_0
  6
CONTINUOUS
 62
    7
 10
967.43416594631776
 20
449.04296075032676
 11
963.37024693949206
 21
447.02968563384297
  0
LINE
  8
_0-0_0
  6
CONTINUOUS
 62
    7
 10
963.37024693949206
 20
447.02968563384297
 11
962.39099127781458
 21
448.75534783957357
  0
LINE
  8
_0-0_0
  6
CONTINUOUS
 62
    7
 10
962.39099127781458
 20
448.75534783957357
 11
968.2175750532964
 21
452.4942699029998
  0
LINE
  8
_0-0_0
  6
CONTINUOUS
 62
    7
 10
968.2175750532964
 20
452.4942699029998
 11
968.65824124546043
 21
455.16493941886779
  0
LINE
  8
_0-0_0
  6
CONTINUOUS
 62
    7
 10
968.65824124546043
 20
455.16493941886779
 11
968.02172086920314
 21
456.56189679551289
  0
LINE
  8
_0-0_0
  6
CONTINUOUS
 62
    7
 10
968.02172086920314
 20
456.56189679551289
 11
967.23831176222461
 21
457.50690410564971
  0
LINE
  8
_0-0_0
  6
CONTINUOUS
 62
    7
 10
967.23831176222461
 20
457.50690410564971
 11
966.01424409247613
 21
457.67125652019274
  0
LINE
  8
_0-0_0
  6
CONTINUOUS
 62
    7
 10
966.01424409247613
 20
457.67125652019274
 11
964.30054477719193
 21
457.50690410564971
  0
LINE
  8
_0-0_0
  6
CONTINUOUS
 62
    7
 10
964.30054477719193
 20
457.50690410564971
 11
959.84061442372831
 21
455.18765975544369
  0
LINE
  8
_0-0_0
  6
CONTINUOUS
 62
    7
 10
968.5113525147392
 20
452.32993274724595
 11
969.58853145376588
 21
453.89124253843363
  0
LINE
  8
_0-0_0
  6
CONTINUOUS
 62
    7
 10
969.58853145376588
 20
453.89124253843363
 11
969.58853145376588
 21
454.67189743402787
  0
LINE
  8
_0-0_0
  6
CONTINUOUS
 62
    7
 10
969.58853145376588
 20
454.67189743402787
 11
969.58853145376588
 21
456.10994672900483
  0
LINE
  8
_0-0_0
  6
CONTINUOUS
 62
    7
 10
969.58853145376588
 20
456.10994672900483
 11
969.29475399232331
 21
457.05493878035372
  0
LINE
  8
_0-0_0
  6
CONTINUOUS
 62
    7
 10
969.29475399232331
 20
457.05493878035372
 11
969.29475399232331
 21
457.95885417215686
  0
LINE
  8
_0-0_0
  6
CONTINUOUS
 62
    7
 10
969.00097653088051
 20
458.61624857154084
 11
968.02172086920314
 21
459.39690346713473
  0
LINE
  8
_0-0_0
  6
CONTINUOUS
 62
    7
 10
968.02172086920314
 20
459.39690346713473
 11
966.16113282319759
 21
459.84886879243186
  0
LINE
  8
_0-0_0
  6
CONTINUOUS
 62
    7
 10
966.16113282319759
 20
459.84886879243186
 11
964.59432223863462
 21
459.84886879243186
  0
LINE
  8
_0-0_0
  6
CONTINUOUS
 62
    7
 10
964.59432223863462
 20
459.84886879243186
 11
963.17439275539869
 21
459.84886879243186
  0
LINE
  8
_0-0_0
  6
CONTINUOUS
 62
    7
 10
963.17439275539869
 20
459.84886879243186
 11
960.53040323180903
 21
459.52016396334488
  0
LINE
  8
_0-0_0
  6
CONTINUOUS
 62
    7
 10
960.53040323180903
 20
459.52016396334488
 11
958.03329480954619
 21
459.23256631138088
  0
LINE
  8
_0-0_0
  6
CONTINUOUS
 62
    7
 10
958.03329480954619
 20
459.23256631138088
 11
956.17270676354065
 21
458.45191141578664
  0
LINE
  8
_0-0_0
  6
CONTINUOUS
 62
    7
 10
968.02172086920314
 20
449.37166557941282
 11
969.14787289099638
 21
449.82361564592077
  0
LINE
  8
_0-0_0
  6
CONTINUOUS
 62
    7
 10
969.14787289099638
 20
449.82361564592077
 11
970.07816309930195
 21
450.93296011181303
  0
LINE
  8
_0-0_0
  6
CONTINUOUS
 62
    7
 10
970.07816309930195
 20
450.93296011181303
 11
970.86157220628036
 21
452.04231983649277
  0
LINE
  8
_0-0_0
  6
CONTINUOUS
 62
    7
 10
971.64497368386492
 20
453.11058764283973
 11
971.93875114530761
 21
454.54863693781675
  0
LINE
  8
_0-0_0
  6
CONTINUOUS
 62
    7
 10
972.28149406012221
 20
456.39754438096884
 11
972.08563987602872
 21
457.95885417215686
  0
LINE
  8
_0-0_0
  6
CONTINUOUS
 62
    7
 10
972.08563987602872
 20
457.95885417215686
 11
971.49808495314346
 21
459.23256631138088
  0
LINE
  8
_0-0_0
  6
CONTINUOUS
 62
    7
 10
971.49808495314346
 20
459.23256631138088
 11
971.00845330760751
 21
459.84886879243186
  0
LINE
  8
_0-0_0
  6
CONTINUOUS
 62
    7
 10
971.00845330760751
 20
459.84886879243186
 11
969.9312743685806
 21
460.46517127348181
  0
LINE
  8
_0-0_0
  6
CONTINUOUS
 62
    7
 10
968.80512997618189
 20
461.1225656728659
 11
967.23831176222461
 21
461.57453099816269
  0
LINE
  8
_0-0_0
  6
CONTINUOUS
 62
    7
 10
966.16113282319759
 20
461.57453099816269
 11
964.74121096935608
 21
461.57453099816269
  0
LINE
  8
_0-0_0
  6
CONTINUOUS
 62
    7
 10
964.74121096935608
 20
461.57453099816269
 11
963.81091313165598
 21
461.57453099816269
  0
LINE
  8
_0-0_0
  6
CONTINUOUS
 62
    7
 10
963.81091313165598
 20
461.57453099816269
 11
961.95032508565055
 21
461.57453099816269
  0
LINE
  8
_0-0_0
  6
CONTINUOUS
 62
    7
 10
961.95032508565055
 20
461.57453099816269
 11
961.16691597867202
 21
461.24582616907571
  0
ARC
  8
_0-0_0
  6
CONTINUOUS
 62
    7
 10
976.77325424709579
 20
493.58182422238872
 40
67.230711888809338
 50
5.0607199671220728
 51
62.745633441926778
  0
ARC
  8
_0-0_0
  6
CONTINUOUS
 62
    7
 10
972.08604423393297
 20
488.63533686933874
 40
73.799010130777816
 50
61.269083147153303
 51
86.945184916580487
  0
ARC
  8
_0-0_0
  6
CONTINUOUS
 62
    7
 10
972.80393210165346
 20
538.71779461914525
 40
23.829558971083774
 50
82.246315295933059
 51
180
  0
ARC
  8
_0-0_0
  6
CONTINUOUS
 62
    7
 10
976.77325424709579
 20
493.58182422238872
 40
61.23070816351909
 50
5.558111531071515
 51
62.817787560315992
  0
ARC
  8
_0-0_0
  6
CONTINUOUS
 62
    7
 10
972.08604423393297
 20
488.63533686933874
 40
67.799010220184769
 50
61.20356797263878
 51
87.163914894564044
  0
ARC
  8
_0-0_0
  6
CONTINUOUS
 62
    7
 10
972.80393210165346
 20
538.71779461914525
 40
17.82955715314213
 50
81.495622864639586
 51
180
  0
ARC
  8
_0-0_0
  6
CONTINUOUS
 62
    7
 10
965.55690767350961
 20
538.71779461914525
 40
16.561452618815711
 50
180
 51
278.55903549682318
  0
ARC
  8
_0-0_0
  6
CONTINUOUS
 62
    7
 10
965.55690767350961
 20
538.71779461914525
 40
10.561454615571282
 50
180
 51
237.23183186698179
  0
ARC
  8
_0-0_0
  6
CONTINUOUS
 62
    7
 10
965.91777040006593
 20
529.08328090773023
 40
7.0631288429628469
 50
287.33022782518049
 51
77.602524320755805
  0
LINE
  8
_0-0_0
  6
CONTINUOUS
 62
    7
 10
967.43416594631765
 20
535.98171067554119
 11
963.37024693949184
 21
537.9949857920252
  0
LINE
  8
_0-0_0
  6
CONTINUOUS
 62
    7
 10
963.37024693949184
 20
537.9949857920252
 11
962.39099127781446
 21
536.26932358629517
  0
LINE
  8
_0-0_0
  6
CONTINUOUS
 62
    7
 10
962.39099127781446
 20
536.26932358629517
 11
968.21757505329629
 21
532.53040152286917
  0
LINE
  8
_0-0_0
  6
CONTINUOUS
 62
    7
 10
968.21757505329629
 20
532.53040152286917
 11
968.65824124546043
 21
529.85973200700016
  0
LINE
  8
_0-0_0
  6
CONTINUOUS
 62
    7
 10
968.65824124546043
 20
529.85973200700016
 11
968.02172086920314
 21
528.46277463035517
  0
LINE
  8
_0-0_0
  6
CONTINUOUS
 62
    7
 10
968.02172086920314
 20
528.46277463035517
 11
967.23831176222461
 21
527.5177673202196
  0
LINE
  8
_0-0_0
  6
CONTINUOUS
 62
    7
 10
967.23831176222461
 20
527.5177673202196
 11
966.01424409247613
 21
527.35341490567566
  0
LINE
  8
_0-0_0
  6
CONTINUOUS
 62
    7
 10
966.01424409247613
 20
527.35341490567566
 11
964.30054477719193
 21
527.5177673202196
  0
LINE
  8
_0-0_0
  6
CONTINUOUS
 62
    7
 10
964.30054477719193
 20
527.5177673202196
 11
959.8406144237282
 21
529.83701167042523
  0
LINE
  8
_0-0_0
  6
CONTINUOUS
 62
    7
 10
968.51135251473897
 20
532.69473867862325
 11
969.58853145376577
 21
531.13342888743523
  0
LINE
  8
_0-0_0
  6
CONTINUOUS
 62
    7
 10
969.58853145376577
 20
531.13342888743523
 11
969.58853145376577
 21
530.35277399184122
  0
LINE
  8
_0-0_0
  6
CONTINUOUS
 62
    7
 10
969.58853145376577
 20
530.35277399184122
 11
969.58853145376588
 21
528.91472469686323
  0
LINE
  8
_0-0_0
  6
CONTINUOUS
 62
    7
 10
969.58853145376588
 20
528.91472469686323
 11
969.29475399232331
 21
527.96973264551616
  0
LINE
  8
_0-0_0
  6
CONTINUOUS
 62
    7
 10
969.29475399232331
 20
527.96973264551616
 11
969.29475399232331
 21
527.06580962431667
  0
LINE
  8
_0-0_0
  6
CONTINUOUS
 62
    7
 10
969.00097653088051
 20
526.4084228543278
 11
968.02172086920314
 21
525.62776795873356
  0
LINE
  8
_0-0_0
  6
CONTINUOUS
 62
    7
 10
968.02172086920314
 20
525.62776795873356
 11
966.16113282319759
 21
525.1758026334378
  0
LINE
  8
_0-0_0
  6
CONTINUOUS
 62
    7
 10
966.16113282319759
 20
525.1758026334378
 11
964.59432223863462
 21
525.1758026334378
  0
LINE
  8
_0-0_0
  6
CONTINUOUS
 62
    7
 10
964.59432223863462
 20
525.1758026334378
 11
963.17439275539869
 21
525.1758026334378
  0
LINE
  8
_0-0_0
  6
CONTINUOUS
 62
    7
 10
963.17439275539869
 20
525.1758026334378
 11
960.53040323180892
 21
525.50449983312876
  0
LINE
  8
_0-0_0
  6
CONTINUOUS
 62
    7
 10
960.53040323180892
 20
525.50449983312876
 11
958.03329480954608
 21
525.79210511448753
  0
LINE
  8
_0-0_0
  6
CONTINUOUS
 62
    7
 10
958.03329480954608
 20
525.79210511448753
 11
956.17270676354042
 21
526.57276001008199
  0
LINE
  8
_0-0_0
  6
CONTINUOUS
 62
    7
 10
968.02172086920314
 20
535.65301347584921
 11
969.14787289099627
 21
535.20105577994718
  0
LINE
  8
_0-0_0
  6
CONTINUOUS
 62
    7
 10
969.14787289099627
 20
535.20105577994718
 11
970.07816309930172
 21
534.09171131405617
  0
LINE
  8
_0-0_0
  6
CONTINUOUS
 62
    7
 10
970.07816309930172
 20
534.09171131405617
 11
970.86157220628036
 21
532.98235158937609
  0
LINE
  8
_0-0_0
  6
CONTINUOUS
 62
    7
 10
971.64497368386492
 20
531.91408378302924
 11
971.93875114530726
 21
530.47603448805216
  0
LINE
  8
_0-0_0
  6
CONTINUOUS
 62
    7
 10
972.2814940601221
 20
528.62711941550526
 11
972.08563987602872
 21
527.06580962431667
  0
LINE
  8
_0-0_0
  6
CONTINUOUS
 62
    7
 10
972.08563987602872
 20
527.06580962431667
 11
971.49808495314346
 21
525.79210511448753
  0
LINE
  8
_0-0_0
  6
CONTINUOUS
 62
    7
 10
971.49808495314346
 20
525.79210511448753
 11
971.00845330760751
 21
525.1758026334378
  0
LINE
  8
_0-0_0
  6
CONTINUOUS
 62
    7
 10
971.00845330760751
 20
525.1758026334378
 11
969.9312743685806
 21
524.55950015238682
  0
LINE
  8
_0-0_0
  6
CONTINUOUS
 62
    7
 10
968.80512997618189
 20
523.90210575300296
 11
967.23831176222461
 21
523.45014042770686
  0
LINE
  8
_0-0_0
  6
CONTINUOUS
 62
    7
 10
966.16113282319759
 20
523.45014042770686
 11
964.74121096935608
 21
523.45014042770686
  0
LINE
  8
_0-0_0
  6
CONTINUOUS
 62
    7
 10
964.74121096935608
 20
523.45014042770686
 11
963.81091313165598
 21
523.45014042770686
  0
LINE
  8
_0-0_0
  6
CONTINUOUS
 62
    7
 10
963.81091313165598
 20
523.45014042770686
 11
961.95032508565055
 21
523.45014042770686
  0
LINE
  8
_0-0_0
  6
CONTINUOUS
 62
    7
 10
961.95032508565055
 20
523.45014042770686
 11
961.1669159786718
 21
523.77884525679292
  0
POINT
  8
_0-1_Defpoints
 62
    7
 10
1037.7160847698092
 20
485.51234107051073
  0
ARC
  8
_0-0_0
  6
CONTINUOUS
 62
    7
 10
1035.7785847698092
 20
492.51234107051175
 40
2.5624999999999716
 50
102.68038349182071
 51
257.31961650817942
  0
LINE
  8
_0-0_0
  6
CONTINUOUS
 62
    7
 10
1035.2160847698092
 20
499.51234107051079
 11
1035.2160847698092
 21
495.01234107051175
  0
LINE
  8
_0-0_0
  6
CONTINUOUS
 62
    7
 10
1035.2160847698092
 20
490.01234107051073
 11
1035.2160847698092
 21
485.51234107051073
  0
LINE
  8
_0-0_0
  6
CONTINUOUS
 62
    7
 10
1064.7748334536673
 20
499.51234107051079
 11
1035.2160847698092
 21
499.51234107051079
  0
LINE
  8
_0-0_0
  6
CONTINUOUS
 62
    7
 10
1064.7748334536673
 20
485.51234107051073
 11
1035.2160847698092
 21
485.51234107051073
  0
POINT
  8
_0-1_Defpoints
 62
    7
 10
1062.2748334536673
 20
485.51234107051073
  0
ARC
  8
_0-0_0
  6
CONTINUOUS
 62
    7
 10
1064.2123334536673
 20
492.51234107051175
 40
2.5624999999999716
 50
282.68038349182109
 51
77.319616508179038
  0
LINE
  8
_0-0_0
  6
CONTINUOUS
 62
    7
 10
1064.7748334536673
 20
499.51234107051079
 11
1064.7748334536673
 21
495.01234107051175
  0
LINE
  8
_0-0_0
  6
CONTINUOUS
 62
    7
 10
1064.7748334536673
 20
490.01234107051073
 11
1064.7748334536673
 21
485.51234107051073
  0
LINE
  8
_0-4_P-6853
  6
CONTINUOUS
 62
    7
 10
1035.2160847698092
 20
490.01234107051073
 11
1064.7748334536673
 21
490.01234107051073
  0
LINE
  8
_0-4_P-6853
  6
CONTINUOUS
 62
    7
 10
1064.7748334536673
 20
495.01234107051175
 11
1035.2160847698092
 21
495.01234107051175
  0
ARC
  8
_0-0_0
  6
CONTINUOUS
 62
    7
 10
976.77325424709579
 20
491.44284720348082
 40
67.230711888809338
 50
297.25436291560618
 51
354.9392892003554
  0
ARC
  8
_0-0_0
  6
CONTINUOUS
 62
    7
 10
1123.2176639763802
 20
493.58182422238872
 40
67.230711888809338
 50
117.2543665580733
 51
174.93928003287789
  0
LINE
  8
_0-4_P-6853
  6
CONTINUOUS
 62
    7
 10
1043.995459111738
 20
999.51231964021531
 11
1043.9954591117382
 21
1242.5123303553592
  0
LINE
  8
_0-4_P-6853
  6
CONTINUOUS
 62
    7
 10
1055.9954591117378
 20
999.51231964021531
 11
1055.9954591117378
 21
1242.5123303553592
  0
LINE
  8
_0-4_P-6853
  6
CONTINUOUS
 62
    7
 10
1055.9954591117378
 20
499.51234107051079
 11
1055.9954591117378
 21
640.0939309905873
  0
LINE
  8
_0-4_P-6853
  6
CONTINUOUS
 62
    7
 10
1043.995459111738
 20
499.51234107051079
 11
1043.995459111738
 21
640.09393099059616
  0
ENDSEC
  0
EOF
