  0
SECTION
  2
HEADER
  9
$ACADVER
  1
AC1009
  9
$INSBASE
 10
0
 20
0
 30
0
  9
$EXTMIN
 10
0
 20
0
  9
$EXTMAX
 10
2100
 20
1485
  9
$LIMMIN
 10
0
 20
0
  9
$LIMMAX
 10
2100
 20
1485
  9
$LTSCALE
 40
5
  0
ENDSEC
  0
SECTION
  2
TABLES
  0
TABLE
  2
LTYPE
 70
     9
  0
LTYPE
  2
CONTINUOUS
 70
    64
  3
実線
 72
    65
 73
     0
 40
0.0
  0
LTYPE
  2
DASHED1
 70
    64
  3
--  --  --  --  --  --  --  --  
 72
    65
 73
     2
 40
2.5
 49
1.25
 49
-1.25
  0
LTYPE
  2
DASHED2
 70
    64
  3
----    ----    ----    ----    
 72
    65
 73
     2
 40
5.0
 49
2.5
 49
-2.5
  0
LTYPE
  2
DASHED3
 70
    64
  3
------  ------  ------  ------  
 72
    65
 73
     2
 40
5.0
 49
3.75
 49
-1.25
  0
LTYPE
  2
CENTER1
 70
    64
  3
----- - ----- - ----- - ----- - 
 72
    65
 73
     4
 40
10.0
 49
6.25
 49
-1.25
 49
1.25
 49
-1.25
  0
LTYPE
  2
CENTER2
 70
    64
  3
----------  --  ----------  --  
 72
    65
 73
     4
 40
20.0
 49
12.5
 49
-2.5
 49
2.5
 49
-2.5
  0
LTYPE
  2
PHANTOM1
 70
    64
  3
--- - - --- - - --- - - --- - - 
 72
    65
 73
     6
 40
10.0
 49
3.25
 49
-1.25
 49
1.25
 49
-1.25
 49
1.25
 49
-1.25
  0
LTYPE
  2
PHANTOM2
 70
    64
  3
--------  -  -  --------  -  -  
 72
    65
 73
     6
 40
20.0
 49
10.0
 49
-2.5
 49
1.25
 49
-2.5
 49
1.25
 49
-2.5
  0
LTYPE
  2
DOT
 70
    64
  3
-   -   -   -   -   -   -   -   
 72
    65
 73
     2
 40
2.5
 49
0.625
 49
-1.875
  0
LTYPE
  2
DUMMY
 70
    64
  3
ダミー
 72
    65
 73
     0
 40
0.0
  0
LTYPE
  2
RAND1
 70
    64
  3
ランダム線1
 72
    65
 73
     4
 40
10.0
 49
1.0
 49
-2.0
 49
3.0
 49
-4.0
  0
LTYPE
  2
RAND2
 70
    64
  3
ランダム線2
 72
    65
 73
     4
 40
14.0
 49
2.0
 49
-3.0
 49
4.0
 49
-5.0
  0
LTYPE
  2
RAND3
 70
    64
  3
ランダム線3
 72
    65
 73
     4
 40
18.0
 49
3.0
 49
-4.0
 49
5.0
 49
-6.0
  0
LTYPE
  2
RAND4
 70
    64
  3
ランダム線4
 72
    65
 73
     4
 40
22.0
 49
4.0
 49
-5.0
 49
6.0
 49
-7.0
  0
LTYPE
  2
RAND5
 70
    64
  3
ランダム線5
 72
    65
 73
     4
 40
26.0
 49
5.0
 49
-6.0
 49
7.0
 49
-8.0
  0
LTYPE
  2
LONG1
 70
    64
  3
----------  --  ----------  --  
 72
    65
 73
     4
 40
40.0
 49
32.5
 49
-2.5
 49
2.5
 49
-2.5
  0
LTYPE
  2
LONG2
 70
    64
  3
--------  -  -  --------  -  -  
 72
    65
 73
     6
 40
40.0
 49
30.0
 49
-2.5
 49
1.25
 49
-2.5
 49
1.25
 49
-2.5
  0
LTYPE
  2
LONG3
 70
    64
  3
+++++++++++++++..+++++++++++++++
 72
    65
 73
     2
 40
40.0
 49
37.5
 49
-2.5
  0
LTYPE
  2
LONG4
 70
    64
  3
+++++++++++++++..+++++++++++++++
 72
    65
 73
     2
 40
80.0
 49
75.0
 49
-5.0
  0
LTYPE
  2
LONG5
 70
    64
  3
----------  --  ----------  --  
 72
    65
 73
     4
 40
60.0
 49
37.5
 49
-7.5
 49
7.5
 49
-7.5
  0
LTYPE
  2
dashed
 70
   64
  3
-------   -------------   ------
 72
   65
 73
    2
 40
7.5
 49
6
 49
-1.5
  0
LTYPE
  2
dashed_spaced
 70
   64
  3
----        --------        ----
 72
   65
 73
    2
 40
12
 49
6
 49
-6
  0
LTYPE
  2
long_dashed_dotted
 70
   64
  3
------------- --- --------------
 72
   65
 73
    4
 40
15.25
 49
12
 49
-1.5
 49
0.25
 49
-1.5
  0
LTYPE
  2
long_dashed_double-dotted
 70
   64
  3
----------- --- --- ------------
 72
   65
 73
    6
 40
17
 49
12
 49
-1.5
 49
0.25
 49
-1.5
 49
0.25
 49
-1.5
  0
LTYPE
  2
long_dashed_triplicate-dotted
 70
   64
  3
--------- --- --- --- ----------
 72
   65
 73
    8
 40
18.75
 49
12
 49
-1.5
 49
0.25
 49
-1.5
 49
0.25
 49
-1.5
 49
0.25
 49
-1.5
  0
LTYPE
  2
dotted
 70
   64
  3
   -       -       -       -    
 72
   65
 73
    2
 40
1.75
 49
0.25
 49
-1.5
  0
LTYPE
  2
chain
 70
   64
  3
-------------- -- --------------
 72
   65
 73
    4
 40
18.5
 49
12
 49
-1.5
 49
3.5
 49
-1.5
  0
LTYPE
  2
chain_double_dash
 70
   64
  3
------------ -- -- -------------
 72
   65
 73
    6
 40
23.5
 49
12
 49
-1.5
 49
3.5
 49
-1.5
 49
3.5
 49
-1.5
  0
LTYPE
  2
dashed_dotted
 70
   64
  3
-----------     -     ----------
 72
   65
 73
    4
 40
9.25
 49
6
 49
-1.5
 49
0.25
 49
-1.5
  0
LTYPE
  2
double-dashed_dotted
 70
   64
  3
------   -----------   -   -----
 72
   65
 73
    6
 40
16.75
 49
6
 49
-1.5
 49
6
 49
-1.5
 49
0.25
 49
-1.5
  0
LTYPE
  2
dashed_double-dotted
 70
   64
  3
---------    -    -    ---------
 72
   65
 73
    6
 40
11
 49
6
 49
-1.5
 49
0.25
 49
-1.5
 49
0.25
 49
-1.5
  0
LTYPE
  2
double-dashed_double-dotted
 70
   64
  3
-----   ---------   -   -   ----
 72
   65
 73
    8
 40
18.5
 49
6
 49
-1.5
 49
6
 49
-1.5
 49
0.25
 49
-1.5
 49
0.25
 49
-1.5
  0
LTYPE
  2
dashed_triplicate-dotted
 70
   64
  3
-------    -    -    -    ------
 72
   65
 73
    8
 40
12.75
 49
6
 49
-1.5
 49
0.25
 49
-1.5
 49
0.25
 49
-1.5
 49
0.25
 49
-1.5
  0
LTYPE
  2
double-dashed_triplicate-dotted
 70
   64
  3
-----  ---------  -  -  -  -----
 72
   65
 73
   10
 40
20.25
 49
6
 49
-1.5
 49
6
 49
-1.5
 49
0.25
 49
-1.5
 49
0.25
 49
-1.5
 49
0.25
 49
-1.5
  0
LTYPE
  2
undefined
 70
   64
  3
--------------------------------
 72
   65
 73
    0
 40
0
  0
LTYPE
  2
BORDER
 70
   64
  3
----     --------     -     ----
 72
   65
 73
    6
 40
1.76
 49
0.5
 49
-0.25
 49
0.5
 49
-0.25
 49
0.01
 49
-0.25
  0
LTYPE
  2
BORDER2
 70
   64
  3
----     --------     -     ----
 72
   65
 73
    6
 40
0.885
 49
0.25
 49
-0.125
 49
0.25
 49
-0.125
 49
0.01
 49
-0.125
  0
LTYPE
  2
BORDERX2
 70
   64
  3
----     --------     -     ----
 72
   65
 73
    6
 40
3.5099999999999998
 49
1
 49
-0.5
 49
1
 49
-0.5
 49
0.01
 49
-0.5
  0
LTYPE
  2
CENTER
 70
   64
  3
----------    ----    ----------
 72
   65
 73
    4
 40
2
 49
1.25
 49
-0.25
 49
0.25
 49
-0.25
  0
LTYPE
  2
CENTER2_21
 70
   64
  3
----------    ----    ----------
 72
   65
 73
    4
 40
1.125
 49
0.75
 49
-0.125
 49
0.125
 49
-0.125
  0
LTYPE
  2
CENTERX2
 70
   64
  3
----------    ----    ----------
 72
   65
 73
    4
 40
4
 49
2.5
 49
-0.5
 49
0.5
 49
-0.5
  0
LTYPE
  2
DASHDOT
 70
   64
  3
--------        -        -------
 72
   65
 73
    4
 40
1.01
 49
0.5
 49
-0.25
 49
0.01
 49
-0.25
  0
LTYPE
  2
DASHDOT2
 70
   64
  3
--------        -        -------
 72
   65
 73
    4
 40
0.51
 49
0.25
 49
-0.125
 49
0.01
 49
-0.125
  0
LTYPE
  2
DASHDOTX2
 70
   64
  3
--------        -        -------
 72
   65
 73
    4
 40
2.0099999999999998
 49
1
 49
-0.5
 49
0.01
 49
-0.5
  0
LTYPE
  2
DASHED
 70
   64
  3
------     -----------     -----
 72
   65
 73
    2
 40
0.75
 49
0.5
 49
-0.25
  0
LTYPE
  2
DASHED2_27
 70
   64
  3
------     -----------     -----
 72
   65
 73
    2
 40
0.375
 49
0.25
 49
-0.125
  0
LTYPE
  2
DASHEDX2
 70
   64
  3
------     -----------     -----
 72
   65
 73
    2
 40
1.5
 49
1
 49
-0.5
  0
LTYPE
  2
DIVIDE
 70
   64
  3
------      -      -      ------
 72
   65
 73
    6
 40
1.27
 49
0.5
 49
-0.25
 49
0.01
 49
-0.25
 49
0.01
 49
-0.25
  0
LTYPE
  2
DIVIDE2
 70
   64
  3
------      -      -      ------
 72
   65
 73
    6
 40
0.645
 49
0.25
 49
-0.125
 49
0.01
 49
-0.125
 49
0.01
 49
-0.125
  0
LTYPE
  2
DIVIDEX2
 70
   64
  3
------      -      -      ------
 72
   65
 73
    6
 40
2.5199999999999996
 49
1
 49
-0.5
 49
0.01
 49
-0.5
 49
0.01
 49
-0.5
  0
LTYPE
  2
DOT_32
 70
   64
  3
-               -               
 72
   65
 73
    2
 40
0.26
 49
0.01
 49
-0.25
  0
ENDTAB
  0
TABLE
  2
STYLE
  5
3
100
AcDbSymbolTable
 70
     1
  0
STYLE
  5
10
100
AcDbSymbolTableRecord
100
AcDbTextStyleTableRecord
  2
STANDARD
 70
     0
 40
0.0
 41
1.0
 50
0.0
 71
     0
 42
0.2
  3
txt
  4
bigfont.shx
  0
STYLE
  5
26
100
AcDbSymbolTableRecord
100
AcDbTextStyleTableRecord
  2
TATEGAKI
 70
    68
 40
0.0
 41
1.0
 50
0.0
 71
     0
 42
1.0
  3
txt
  4
bigfont.shx
  0
ENDTAB
  0
TABLE
  2
LAYER
 70
    2
  0
LAYER
  2
_0-0_0
 70
   64
 62
    7
  6
CONTINUOUS
  0
LAYER
  2
ADD_LINE
 70
   64
 62
    7
  6
CONTINUOUS
  0
ENDTAB
  0
ENDSEC
  0
SECTION
  2
BLOCKS
  0
ENDSEC
  0
SECTION
  2
ENTITIES
  0
LINE
  8
_0-0_0
  6
CONTINUOUS
 62
    7
 10
1049.9999999999991
 20
671.95838024263946
 11
1049.9999999999991
 21
653.95838024289696
  0
LINE
  8
_0-0_0
  6
CONTINUOUS
 62
    7
 10
1056
 20
671.88991323184018
 11
1056
 21
653.95838024289696
  0
LINE
  8
_0-0_0
  6
CONTINUOUS
 62
    7
 10
1044.0000000000007
 20
671.88991323181381
 11
1044.0000000000007
 21
653.95838024289606
  0
ARC
  8
_0-0_0
  6
CONTINUOUS
 62
    7
 10
1112.4235112493525
 20
705.64224396414374
 40
36.857756035856397
 50
296.43406452985812
 51
77.854704432735531
  0
ARC
  8
_0-0_0
  6
CONTINUOUS
 62
    7
 10
1112.4255341265889
 20
705.64605794923864
 40
30.854541547916909
 50
296.30434257592958
 51
75.447870391043438
  0
ARC
  8
_0-0_0
  6
CONTINUOUS
 62
    7
 10
1112.33137836481
 20
690.92856091303292
 40
17.331378364810163
 50
103.3651701219095
 51
212.9168572565751
  0
ARC
  8
_0-0_0
  6
CONTINUOUS
 62
    7
 10
1112.3263104313173
 20
690.92250440992098
 40
11.326923953630082
 50
102.96563129804343
 51
213.6967978964822
  0
ARC
  8
_0-0_0
  6
CONTINUOUS
 62
    7
 10
1110.9634677247195
 20
695.82722485965769
 40
12.250793885492042
 50
13.776934883477992
 51
102.43674145676083
  0
ARC
  8
_0-0_0
  6
CONTINUOUS
 62
    7
 10
1110.8630147889662
 20
695.42820583162393
 40
6.6208045136571672
 50
16.570710596555632
 51
99.371386512996622
  0
ARC
  8
_0-0_0
  6
CONTINUOUS
 62
    7
 10
1120.0106326494442
 20
698.12830090297666
 40
2.917036973390688
 50
196.15959921021749
 51
12.198318994678804
  0
ARC
  8
_0-0_0
  6
CONTINUOUS
 62
    7
 10
1118.4546713995023
 20
695.08920239427971
 40
24.733171365681194
 50
213.29947030324479
 51
294.8059708639538
  0
ARC
  8
_0-0_0
  6
CONTINUOUS
 62
    7
 10
1118.4540137802933
 20
695.09888411323743
 40
18.742279093826731
 50
213.9262248228371
 51
294.07097389723998
  0
ARC
  8
_0-0_0
  6
CONTINUOUS
 62
    7
 10
1123.9709954615491
 20
670.30493568834288
 40
73.98947255161886
 50
106.11856125905091
 51
178.71950321960293
  0
ARC
  8
_0-0_0
  6
CONTINUOUS
 62
    7
 10
1123.9709954615491
 20
670.30493568834288
 40
67.98947255161886
 50
106.20864160636081
 51
178.71950321960293
  0
ARC
  8
_0-0_0
  6
CONTINUOUS
 62
    7
 10
987.57648875064751
 20
705.64224396414374
 40
36.857756035856397
 50
75.876267485982055
 51
80.244323157416972
  0
ARC
  8
_0-0_0
  6
CONTINUOUS
 62
    7
 10
987.5744658734111
 20
705.64605794923864
 40
30.854541547916909
 50
76.060363826987313
 51
78.317909418206639
  0
ARC
  8
_0-0_0
  6
CONTINUOUS
 62
    7
 10
987.66862163518999
 20
690.92856091303292
 40
17.331378364810163
 50
327.0831427434249
 51
76.634829878141176
  0
ARC
  8
_0-0_0
  6
CONTINUOUS
 62
    7
 10
987.67368956868256
 20
690.92250440992098
 40
11.326923953630082
 50
326.30320210351783
 51
77.034368701894181
  0
ARC
  8
_0-0_0
  6
CONTINUOUS
 62
    7
 10
989.03653227528036
 20
695.82722485965769
 40
12.250793885492042
 50
77.563258543239158
 51
166.22306511652201
  0
ARC
  8
_0-0_0
  6
CONTINUOUS
 62
    7
 10
989.13698521103368
 20
695.42820583162393
 40
6.6208045136571672
 50
80.628613486951977
 51
163.42928940344439
  0
ARC
  8
_0-0_0
  6
CONTINUOUS
 62
    7
 10
979.98936735055565
 20
698.12830090297666
 40
2.917036973390688
 50
167.8016810053212
 51
343.84040078978234
  0
ARC
  8
_0-0_0
  6
CONTINUOUS
 62
    7
 10
981.54532860049756
 20
695.08920239427971
 40
24.733171365681194
 50
245.19402913599893
 51
326.70052969675527
  0
ARC
  8
_0-0_0
  6
CONTINUOUS
 62
    7
 10
981.54598621970661
 20
695.09888411323743
 40
18.742279093826731
 50
245.92902610275999
 51
326.07377517720607
  0
ARC
  8
_0-0_0
  6
CONTINUOUS
 62
    7
 10
976.02900453845086
 20
670.30493568834288
 40
73.98947255161886
 50
1.2804967803970611
 51
73.881438740949108
  0
ARC
  8
_0-0_0
  6
CONTINUOUS
 62
    7
 10
976.02900453845086
 20
670.30493568834288
 40
67.98947255161886
 50
1.2804967803970611
 51
73.7913583936392
  0
LINE
  8
_0-0_0
  6
CONTINUOUS
 62
    7
 10
1049.9999999999991
 20
813.04161975736042
 11
1049.9999999999991
 21
831.04161975710304
  0
LINE
  8
_0-0_0
  6
CONTINUOUS
 62
    7
 10
1056
 20
813.1100867681597
 11
1056
 21
831.04161975710304
  0
LINE
  8
_0-0_0
  6
CONTINUOUS
 62
    7
 10
1044.0000000000007
 20
813.11008676818597
 11
1044.0000000000007
 21
831.04161975710213
  0
ARC
  8
_0-0_0
  6
CONTINUOUS
 62
    7
 10
1112.4235112493525
 20
779.35775603585626
 40
36.857756035856397
 50
255.87626748593163
 51
260.24432315741694
  0
ARC
  8
_0-0_0
  6
CONTINUOUS
 62
    7
 10
1112.4255341265889
 20
779.35394205076125
 40
30.854541547916909
 50
256.06036382693679
 51
258.31790941820663
  0
ARC
  8
_0-0_0
  6
CONTINUOUS
 62
    7
 10
1112.33137836481
 20
794.07143908696696
 40
17.331378364810163
 50
147.0831427434249
 51
256.6348298780905
  0
ARC
  8
_0-0_0
  6
CONTINUOUS
 62
    7
 10
1112.3263104313173
 20
794.0774955900788
 40
11.326923953630082
 50
146.3032021035178
 51
257.03436870195662
  0
ARC
  8
_0-0_0
  6
CONTINUOUS
 62
    7
 10
1110.9634677247195
 20
789.17277514034231
 40
12.250793885492042
 50
257.56325854323921
 51
346.22306511652198
  0
ARC
  8
_0-0_0
  6
CONTINUOUS
 62
    7
 10
1110.8630147889662
 20
789.57179416837585
 40
6.6208045136571672
 50
260.62861348700341
 51
343.42928940344439
  0
ARC
  8
_0-0_0
  6
CONTINUOUS
 62
    7
 10
1120.0106326494442
 20
786.87169909702334
 40
2.917036973390688
 50
347.80168100532137
 51
163.84040078978239
  0
ARC
  8
_0-0_0
  6
CONTINUOUS
 62
    7
 10
1118.4546713995023
 20
789.91079760572029
 40
24.733171365681194
 50
65.19402913604624
 51
146.70052969675513
  0
ARC
  8
_0-0_0
  6
CONTINUOUS
 62
    7
 10
1118.4540137802933
 20
789.90111588676245
 40
18.742279093826731
 50
65.929026102759977
 51
146.07377517720616
  0
ARC
  8
_0-0_0
  6
CONTINUOUS
 62
    7
 10
1123.9709954615491
 20
814.69506431165701
 40
73.98947255161886
 50
181.28049678034489
 51
253.88143874094911
  0
ARC
  8
_0-0_0
  6
CONTINUOUS
 62
    7
 10
1123.9709954615491
 20
814.69506431165701
 40
67.98947255161886
 50
181.28049678034489
 51
253.7913583936392
  0
ARC
  8
_0-0_0
  6
CONTINUOUS
 62
    7
 10
987.57648875064751
 20
779.35775603585626
 40
36.857756035856397
 50
116.43406452985802
 51
257.85470443268468
  0
ARC
  8
_0-0_0
  6
CONTINUOUS
 62
    7
 10
987.5744658734111
 20
779.35394205076125
 40
30.854541547916909
 50
116.30434257585972
 51
255.44787039099307
  0
ARC
  8
_0-0_0
  6
CONTINUOUS
 62
    7
 10
987.66862163518999
 20
794.07143908696696
 40
17.331378364810163
 50
283.3651701218588
 51
32.916857256575028
  0
ARC
  8
_0-0_0
  6
CONTINUOUS
 62
    7
 10
987.67368956868256
 20
794.0774955900788
 40
11.326923953630082
 50
282.96563129809419
 51
33.696797896482288
  0
ARC
  8
_0-0_0
  6
CONTINUOUS
 62
    7
 10
989.03653227528036
 20
789.17277514034231
 40
12.250793885492042
 50
193.77693488347805
 51
282.43674145676084
  0
ARC
  8
_0-0_0
  6
CONTINUOUS
 62
    7
 10
989.13698521103368
 20
789.57179416837585
 40
6.6208045136571672
 50
196.57071059655561
 51
279.37138651304798
  0
ARC
  8
_0-0_0
  6
CONTINUOUS
 62
    7
 10
979.98936735055565
 20
786.87169909702334
 40
2.917036973390688
 50
16.159599210217529
 51
192.19831899467883
  0
ARC
  8
_0-0_0
  6
CONTINUOUS
 62
    7
 10
981.54532860049756
 20
789.91079760572029
 40
24.733171365681194
 50
33.299470303244853
 51
114.80597086400098
  0
ARC
  8
_0-0_0
  6
CONTINUOUS
 62
    7
 10
981.54598621970661
 20
789.90111588676245
 40
18.742279093826731
 50
33.926224822793912
 51
114.07097389724001
  0
ARC
  8
_0-0_0
  6
CONTINUOUS
 62
    7
 10
976.02900453845086
 20
814.69506431165701
 40
73.98947255161886
 50
286.11856125905092
 51
358.71950321965511
  0
ARC
  8
_0-0_0
  6
CONTINUOUS
 62
    7
 10
976.02900453845086
 20
814.69506431165701
 40
67.98947255161886
 50
286.20864160636086
 51
358.71950321965517
  0
LINE
  8
_0-0_0
  6
CONTINUOUS
 62
    7
 10
1056.0000000000009
 20
1242.5
 11
1044.0000000000007
 21
1242.5
  0
LINE
  8
_0-0_0
  6
CONTINUOUS
 62
    7
 10
1056.0000000000009
 20
242.5
 11
1044.0000000000007
 21
242.5
  0
LINE
  8
_0-0_0
  6
CONTINUOUS
 62
    7
 10
1058.5832805203663
 20
835.04161975710304
 11
1042.4510757374137
 21
835.04161975710304
  0
LINE
  8
_0-0_0
  6
CONTINUOUS
 62
    7
 10
1042.4510757374137
 20
841.04161975710304
 11
1058.5832805203663
 21
841.04161975710304
  0
ARC
  8
_0-0_0
  6
CONTINUOUS
 62
    7
 10
1042.4510757374137
 20
838.04161975710304
 40
3.0000000000000004
 50
89.999999000005104
 51
269.99999700001541
  0
ARC
  8
_0-0_0
  6
CONTINUOUS
 62
    7
 10
1058.5832805203663
 20
838.04161975710304
 40
3.0000000000000004
 50
269.99999700001541
 51
89.999999000005189
  0
LINE
  8
_0-0_0
  6
CONTINUOUS
 62
    7
 10
1042.4510757374137
 20
835.04161975710304
 11
1042.4510757374137
 21
832.04161975710304
  0
ARC
  8
_0-0_0
  6
CONTINUOUS
 62
    7
 10
1043.4510757374137
 20
832.04161975710304
 40
1
 50
179.99999500002554
 51
269.99999700001541
  0
ARC
  8
_0-0_0
  6
CONTINUOUS
 62
    7
 10
1043.4510757374137
 20
844.04161975710304
 40
1
 50
89.999999000005104
 51
179.99999500002556
  0
LINE
  8
_0-0_0
  6
CONTINUOUS
 62
    7
 10
1042.4510757374137
 20
844.04161975710304
 11
1042.4510757374137
 21
841.04161975710304
  0
LINE
  8
_0-0_0
  6
CONTINUOUS
 62
    7
 10
1058.5832805203663
 20
841.04161975710304
 11
1058.5832805203663
 21
844.04161975710304
  0
ARC
  8
_0-0_0
  6
CONTINUOUS
 62
    7
 10
1057.5832805203661
 20
844.04161975710304
 40
1
 50
0
 51
89.999999000005104
  0
LINE
  8
_0-0_0
  6
CONTINUOUS
 62
    7
 10
1057.5832805203661
 20
845.04161975710304
 11
1043.4510757374137
 21
845.04161975710304
  0
LINE
  8
_0-0_0
  6
CONTINUOUS
 62
    7
 10
1058.5832805203663
 20
835.04161975710304
 11
1058.5832805203663
 21
832.04161975710304
  0
ARC
  8
_0-0_0
  6
CONTINUOUS
 62
    7
 10
1057.5832805203661
 20
832.04161975710304
 40
1
 50
269.99999700001541
 51
0.0000000000000127
  0
LINE
  8
_0-0_0
  6
CONTINUOUS
 62
    7
 10
1057.5832805203661
 20
831.04161975710304
 11
1043.4510757374137
 21
831.04161975710304
  0
LINE
  8
_0-0_0
  6
CONTINUOUS
 62
    7
 10
1040.9306132905656
 20
840.62777403473683
 11
1059.0133845203663
 21
840.66291375710261
  0
LINE
  8
_0-0_0
  6
CONTINUOUS
 62
    7
 10
1045.7173995203666
 20
840.17128175710332
 11
1059.9651265203665
 21
840.17128175710332
  0
LINE
  8
_0-0_0
  6
CONTINUOUS
 62
    7
 10
1051.342623520366
 20
838.98632175710281
 11
1060.3344605203663
 21
838.98632175710281
  0
LINE
  8
_0-0_0
  6
CONTINUOUS
 62
    7
 10
1043.4510757374137
 20
831.04161975710304
 11
1057.5832805203661
 21
831.04161975710304
  0
LINE
  8
_0-0_0
  6
CONTINUOUS
 62
    7
 10
1042.4510757374137
 20
835.04161975710304
 11
1042.4510757374137
 21
832.04161984436905
  0
LINE
  8
_0-0_0
  6
CONTINUOUS
 62
    7
 10
1043.4510756850541
 20
831.04161975710304
 11
1057.5832805203661
 21
831.04161975710213
  0
LINE
  8
_0-0_0
  6
CONTINUOUS
 62
    7
 10
1058.5832805203663
 20
832.04161975710304
 11
1058.5832805203663
 21
835.04161975710304
  0
LINE
  8
_0-0_0
  6
CONTINUOUS
 62
    7
 10
1042.4510757374137
 20
844.04161984436905
 11
1042.4510757897733
 21
841.04161975710304
  0
LINE
  8
_0-0_0
  6
CONTINUOUS
 62
    7
 10
1057.5832805203661
 20
845.04161975710304
 11
1043.4510757374137
 21
845.04161975710304
  0
LINE
  8
_0-0_0
  6
CONTINUOUS
 62
    7
 10
1058.5832805727259
 20
841.04161975710304
 11
1058.5832805203663
 21
844.04161975710304
  0
LINE
  8
_0-0_0
  6
CONTINUOUS
 62
    7
 10
1056
 20
845.04161975710304
 11
1056
 21
1242.5
  0
LINE
  8
_0-0_0
  6
CONTINUOUS
 62
    7
 10
1049.9999999999998
 20
845.04161975710304
 11
1049.9999999999998
 21
1242.5
  0
LINE
  8
_0-0_0
  6
CONTINUOUS
 62
    7
 10
1044.0000000000007
 20
845.04161975710213
 11
1044.0000000000007
 21
1242.5
  0
LINE
  8
_0-0_0
  6
CONTINUOUS
 62
    7
 10
989.82193052204536
 20
734.43389760852267
 11
989.82193052204536
 21
750.56610239147528
  0
LINE
  8
_0-0_0
  6
CONTINUOUS
 62
    7
 10
983.82193052204548
 20
750.56610239147528
 11
983.82193052204548
 21
734.43389760852267
  0
ARC
  8
_0-0_0
  6
CONTINUOUS
 62
    7
 10
986.82193052204536
 20
750.56610239147528
 40
3.0000000000000004
 50
0.0000029999846689
 51
180.00000099999488
  0
ARC
  8
_0-0_0
  6
CONTINUOUS
 62
    7
 10
986.82193052204536
 20
734.43389760852267
 40
3.0000000000000004
 50
180.00000099999488
 51
0.0000029999846434
  0
LINE
  8
_0-0_0
  6
CONTINUOUS
 62
    7
 10
989.82193052204536
 20
750.56610239147528
 11
992.82193052204536
 21
750.56610239147528
  0
ARC
  8
_0-0_0
  6
CONTINUOUS
 62
    7
 10
992.82193052204536
 20
749.5661023914754
 40
1
 50
0.0000029999846689
 51
90.000004999974479
  0
ARC
  8
_0-0_0
  6
CONTINUOUS
 62
    7
 10
980.82193052204548
 20
749.5661023914754
 40
1
 50
90.000004999974479
 51
180.00000099999491
  0
LINE
  8
_0-0_0
  6
CONTINUOUS
 62
    7
 10
980.82193052204548
 20
750.56610239147528
 11
983.82193052204548
 21
750.56610239147528
  0
LINE
  8
_0-0_0
  6
CONTINUOUS
 62
    7
 10
983.82193052204548
 20
734.43389760852267
 11
980.82193052204548
 21
734.43389760852267
  0
ARC
  8
_0-0_0
  6
CONTINUOUS
 62
    7
 10
980.82193052204548
 20
735.43389760852278
 40
1
 50
180.00000099999488
 51
270
  0
LINE
  8
_0-0_0
  6
CONTINUOUS
 62
    7
 10
979.82193052204536
 20
735.43389760852278
 11
979.82193052204536
 21
749.5661023914754
  0
LINE
  8
_0-0_0
  6
CONTINUOUS
 62
    7
 10
989.82193052204536
 20
734.43389760852267
 11
992.82193052204536
 21
734.43389760852267
  0
ARC
  8
_0-0_0
  6
CONTINUOUS
 62
    7
 10
992.82193052204536
 20
735.43389760852278
 40
1
 50
270
 51
0.0000029999846561
  0
LINE
  8
_0-0_0
  6
CONTINUOUS
 62
    7
 10
993.82193052204548
 20
735.43389760852278
 11
993.82193052204548
 21
749.5661023914754
  0
LINE
  8
_0-0_0
  6
CONTINUOUS
 62
    7
 10
984.23577624441168
 20
752.08656483832328
 11
984.20063652204578
 21
734.00379360852276
  0
LINE
  8
_0-0_0
  6
CONTINUOUS
 62
    7
 10
984.6922685220452
 20
747.2997786085225
 11
984.6922685220452
 21
733.05205160852256
  0
LINE
  8
_0-0_0
  6
CONTINUOUS
 62
    7
 10
985.8772285220457
 20
741.67455460852307
 11
985.8772285220457
 21
732.68271760852258
  0
LINE
  8
_0-0_0
  6
CONTINUOUS
 62
    7
 10
993.82193052204548
 20
749.5661023914754
 11
993.82193052204548
 21
735.43389760852278
  0
LINE
  8
_0-0_0
  6
CONTINUOUS
 62
    7
 10
989.82193052204536
 20
750.56610239147528
 11
992.82193043477935
 21
750.56610239147528
  0
LINE
  8
_0-0_0
  6
CONTINUOUS
 62
    7
 10
993.82193052204548
 20
749.56610244383501
 11
993.82193052204627
 21
735.43389760852278
  0
LINE
  8
_0-0_0
  6
CONTINUOUS
 62
    7
 10
992.82193052204536
 20
734.43389760852267
 11
989.82193052204536
 21
734.43389760852267
  0
LINE
  8
_0-0_0
  6
CONTINUOUS
 62
    7
 10
980.82193043477946
 20
750.56610239147528
 11
983.82193052204548
 21
750.56610233911567
  0
LINE
  8
_0-0_0
  6
CONTINUOUS
 62
    7
 10
979.82193052204536
 20
735.43389760852278
 11
979.82193052204536
 21
749.5661023914754
  0
LINE
  8
_0-0_0
  6
CONTINUOUS
 62
    7
 10
983.82193052204548
 20
734.43389755616317
 11
980.82193052204548
 21
734.43389760852267
  0
ARC
  8
_0-0_0
  6
CONTINUOUS
 62
    7
 10
987.57648875064751
 20
705.64224396414374
 40
36.857756035856397
 50
102.1452955673154
 51
243.56593547014199
  0
ARC
  8
_0-0_0
  6
CONTINUOUS
 62
    7
 10
987.5744658734111
 20
705.64605794923864
 40
30.854541547916909
 50
104.55212960900691
 51
243.69565742414031
  0
ARC
  8
_0-0_0
  6
CONTINUOUS
 62
    7
 10
987.57648875064751
 20
779.35775603585626
 40
36.857756035856397
 50
279.75567684258317
 51
284.123732514018
  0
ARC
  8
_0-0_0
  6
CONTINUOUS
 62
    7
 10
987.5744658734111
 20
779.35394205076125
 40
30.854541547916909
 50
281.68209058179337
 51
283.93963617301262
  0
LINE
  8
_0-0_0
  6
CONTINUOUS
 62
    7
 10
1110.1780694779409
 20
734.4338976085246
 11
1110.1780694779409
 21
750.56610239147722
  0
LINE
  8
_0-0_0
  6
CONTINUOUS
 62
    7
 10
1116.1780694779409
 20
750.56610239147722
 11
1116.1780694779409
 21
734.4338976085246
  0
ARC
  8
_0-0_0
  6
CONTINUOUS
 62
    7
 10
1113.1780694779409
 20
750.56610239147722
 40
3.0000000000000004
 50
359.99999900000512
 51
179.9999970000153
  0
ARC
  8
_0-0_0
  6
CONTINUOUS
 62
    7
 10
1113.1780694779409
 20
734.4338976085246
 40
3.0000000000000004
 50
179.9999970000153
 51
359.99999900000512
  0
LINE
  8
_0-0_0
  6
CONTINUOUS
 62
    7
 10
1110.1780694779409
 20
750.56610239147722
 11
1107.1780694779409
 21
750.56610239147722
  0
ARC
  8
_0-0_0
  6
CONTINUOUS
 62
    7
 10
1107.1780694779409
 20
749.56610239147722
 40
1
 50
89.99999500002555
 51
179.9999970000153
  0
ARC
  8
_0-0_0
  6
CONTINUOUS
 62
    7
 10
1119.1780694779409
 20
749.56610239147722
 40
1
 50
359.99999900000512
 51
89.999995000025535
  0
LINE
  8
_0-0_0
  6
CONTINUOUS
 62
    7
 10
1119.1780694779409
 20
750.56610239147722
 11
1116.1780694779409
 21
750.56610239147722
  0
LINE
  8
_0-0_0
  6
CONTINUOUS
 62
    7
 10
1116.1780694779409
 20
734.4338976085246
 11
1119.1780694779409
 21
734.4338976085246
  0
ARC
  8
_0-0_0
  6
CONTINUOUS
 62
    7
 10
1119.1780694779409
 20
735.43389760852449
 40
1
 50
270
 51
359.99999900000512
  0
LINE
  8
_0-0_0
  6
CONTINUOUS
 62
    7
 10
1120.1780694779409
 20
735.43389760852449
 11
1120.1780694779409
 21
749.56610239147722
  0
LINE
  8
_0-0_0
  6
CONTINUOUS
 62
    7
 10
1110.1780694779409
 20
734.4338976085246
 11
1107.1780694779409
 21
734.4338976085246
  0
ARC
  8
_0-0_0
  6
CONTINUOUS
 62
    7
 10
1107.1780694779409
 20
735.43389760852449
 40
1
 50
179.9999970000153
 51
270
  0
LINE
  8
_0-0_0
  6
CONTINUOUS
 62
    7
 10
1106.1780694779409
 20
735.43389760852449
 11
1106.1780694779409
 21
749.56610239147722
  0
LINE
  8
_0-0_0
  6
CONTINUOUS
 62
    7
 10
1115.7642237555747
 20
752.08656483832499
 11
1115.7993634779402
 21
734.00379360852457
  0
LINE
  8
_0-0_0
  6
CONTINUOUS
 62
    7
 10
1115.3077314779412
 20
747.29977860852432
 11
1115.3077314779412
 21
733.05205160852438
  0
LINE
  8
_0-0_0
  6
CONTINUOUS
 62
    7
 10
1114.1227714779407
 20
741.67455460852477
 11
1114.1227714779407
 21
732.6827176085244
  0
LINE
  8
_0-0_0
  6
CONTINUOUS
 62
    7
 10
1106.1780694779409
 20
749.56610239147722
 11
1106.1780694779409
 21
735.43389760852449
  0
LINE
  8
_0-0_0
  6
CONTINUOUS
 62
    7
 10
1110.1780694779409
 20
750.56610239147722
 11
1107.1780695652069
 21
750.56610239147722
  0
LINE
  8
_0-0_0
  6
CONTINUOUS
 62
    7
 10
1106.1780694779409
 20
749.56610244383683
 11
1106.17806947794
 21
735.43389760852449
  0
LINE
  8
_0-0_0
  6
CONTINUOUS
 62
    7
 10
1107.1780694779409
 20
734.4338976085246
 11
1110.1780694779409
 21
734.4338976085246
  0
LINE
  8
_0-0_0
  6
CONTINUOUS
 62
    7
 10
1119.1780695652069
 20
750.56610239147722
 11
1116.1780694779409
 21
750.56610233911761
  0
LINE
  8
_0-0_0
  6
CONTINUOUS
 62
    7
 10
1120.1780694779409
 20
735.43389760852449
 11
1120.1780694779409
 21
749.56610239147722
  0
LINE
  8
_0-0_0
  6
CONTINUOUS
 62
    7
 10
1116.1780694779409
 20
734.43389755616499
 11
1119.1780694779409
 21
734.4338976085246
  0
ARC
  8
_0-0_0
  6
CONTINUOUS
 62
    7
 10
1112.4235112493525
 20
705.64224396414374
 40
36.857756035856397
 50
99.755676842583057
 51
104.12373251406849
  0
ARC
  8
_0-0_0
  6
CONTINUOUS
 62
    7
 10
1112.4255341265889
 20
705.64605794923864
 40
30.854541547916909
 50
101.68209058179342
 51
103.93963617306322
  0
ARC
  8
_0-0_0
  6
CONTINUOUS
 62
    7
 10
1112.4235112493525
 20
779.35775603585626
 40
36.857756035856397
 50
282.14529556726461
 51
63.56593547014198
  0
ARC
  8
_0-0_0
  6
CONTINUOUS
 62
    7
 10
1112.4255341265889
 20
779.35394205076125
 40
30.854541547916909
 50
284.55212960895648
 51
63.695657424093568
  0
LINE
  8
_0-0_0
  6
CONTINUOUS
 62
    7
 10
1058.5832805203672
 20
649.95838024289594
 11
1042.4510757374146
 21
649.95838024289594
  0
LINE
  8
_0-0_0
  6
CONTINUOUS
 62
    7
 10
1042.4510757374146
 20
643.95838024289606
 11
1058.5832805203672
 21
643.95838024289606
  0
ARC
  8
_0-0_0
  6
CONTINUOUS
 62
    7
 10
1042.4510757374146
 20
646.95838024289606
 40
3.0000000000000004
 50
90.000002999984659
 51
270.00000099999488
  0
ARC
  8
_0-0_0
  6
CONTINUOUS
 62
    7
 10
1058.5832805203672
 20
646.95838024289606
 40
3.0000000000000004
 50
270.00000099999488
 51
90.000002999984645
  0
LINE
  8
_0-0_0
  6
CONTINUOUS
 62
    7
 10
1042.4510757374146
 20
649.95838024289594
 11
1042.4510757374146
 21
652.95838024289594
  0
ARC
  8
_0-0_0
  6
CONTINUOUS
 62
    7
 10
1043.4510757374146
 20
652.95838024289594
 40
1
 50
90.000002999984659
 51
180.00000499997441
  0
ARC
  8
_0-0_0
  6
CONTINUOUS
 62
    7
 10
1043.4510757374146
 20
640.95838024289606
 40
1
 50
180.00000499997444
 51
270.00000099999488
  0
LINE
  8
_0-0_0
  6
CONTINUOUS
 62
    7
 10
1042.4510757374146
 20
640.95838024289606
 11
1042.4510757374146
 21
643.95838024289606
  0
LINE
  8
_0-0_0
  6
CONTINUOUS
 62
    7
 10
1058.5832805203672
 20
643.95838024289606
 11
1058.5832805203672
 21
640.95838024289606
  0
ARC
  8
_0-0_0
  6
CONTINUOUS
 62
    7
 10
1057.5832805203672
 20
640.95838024289606
 40
1
 50
270.00000099999488
 51
0
  0
LINE
  8
_0-0_0
  6
CONTINUOUS
 62
    7
 10
1057.5832805203672
 20
639.95838024289606
 11
1043.4510757374146
 21
639.95838024289606
  0
LINE
  8
_0-0_0
  6
CONTINUOUS
 62
    7
 10
1058.5832805203672
 20
649.95838024289594
 11
1058.5832805203672
 21
652.95838024289594
  0
ARC
  8
_0-0_0
  6
CONTINUOUS
 62
    7
 10
1057.5832805203672
 20
652.95838024289594
 40
1
 50
0
 51
90.000002999984659
  0
LINE
  8
_0-0_0
  6
CONTINUOUS
 62
    7
 10
1057.5832805203672
 20
653.95838024289606
 11
1043.4510757374146
 21
653.95838024289606
  0
LINE
  8
_0-0_0
  6
CONTINUOUS
 62
    7
 10
1040.9306132905667
 20
644.37222596526226
 11
1059.013384520367
 21
644.33708624289636
  0
LINE
  8
_0-0_0
  6
CONTINUOUS
 62
    7
 10
1045.7173995203673
 20
644.82871824289577
 11
1059.9651265203674
 21
644.82871824289577
  0
LINE
  8
_0-0_0
  6
CONTINUOUS
 62
    7
 10
1051.3426235203669
 20
646.01367824289628
 11
1060.3344605203674
 21
646.01367824289628
  0
LINE
  8
_0-0_0
  6
CONTINUOUS
 62
    7
 10
1043.4510757374146
 20
653.95838024289606
 11
1057.5832805203672
 21
653.95838024289606
  0
LINE
  8
_0-0_0
  6
CONTINUOUS
 62
    7
 10
1042.4510757374146
 20
649.95838024289594
 11
1042.4510757374146
 21
652.95838015562992
  0
LINE
  8
_0-0_0
  6
CONTINUOUS
 62
    7
 10
1043.451075685055
 20
653.95838024289606
 11
1057.5832805203672
 21
653.95838024289696
  0
LINE
  8
_0-0_0
  6
CONTINUOUS
 62
    7
 10
1058.5832805203672
 20
652.95838024289594
 11
1058.5832805203672
 21
649.95838024289594
  0
LINE
  8
_0-0_0
  6
CONTINUOUS
 62
    7
 10
1042.4510757374146
 20
640.95838015563004
 11
1042.4510757897742
 21
643.95838024289606
  0
LINE
  8
_0-0_0
  6
CONTINUOUS
 62
    7
 10
1057.5832805203672
 20
639.95838024289606
 11
1043.4510757374146
 21
639.95838024289606
  0
LINE
  8
_0-0_0
  6
CONTINUOUS
 62
    7
 10
1058.5832805727268
 20
643.95838024289606
 11
1058.5832805203672
 21
640.95838024289606
  0
LINE
  8
_0-0_0
  6
CONTINUOUS
 62
    7
 10
1055.9999999999989
 20
639.95838024289606
 11
1056.0000000000009
 21
242.5
  0
LINE
  8
_0-0_0
  6
CONTINUOUS
 62
    7
 10
1049.9999999999973
 20
639.95838024289606
 11
1050.0000000000009
 21
242.5
  0
LINE
  8
_0-0_0
  6
CONTINUOUS
 62
    7
 10
1044.0000000000018
 20
639.95838024289515
 11
1043.9999999999991
 21
242.5
  0
ENDSEC
  0
EOF
