  0
SECTION
  2
HEADER
  9
$ACADVER
  1
AC1009
  9
$INSBASE
 10
0
 20
0
 30
0
  9
$EXTMIN
 10
0
 20
0
  9
$EXTMAX
 10
2100
 20
1485
  9
$LIMMIN
 10
0
 20
0
  9
$LIMMAX
 10
2100
 20
1485
  9
$LTSCALE
 40
5
  0
ENDSEC
  0
SECTION
  2
TABLES
  0
TABLE
  2
LTYPE
 70
     9
  0
LTYPE
  2
CONTINUOUS
 70
    64
  3
実線
 72
    65
 73
     0
 40
0.0
  0
LTYPE
  2
DASHED1
 70
    64
  3
--  --  --  --  --  --  --  --  
 72
    65
 73
     2
 40
2.5
 49
1.25
 49
-1.25
  0
LTYPE
  2
DASHED2
 70
    64
  3
----    ----    ----    ----    
 72
    65
 73
     2
 40
5.0
 49
2.5
 49
-2.5
  0
LTYPE
  2
DASHED3
 70
    64
  3
------  ------  ------  ------  
 72
    65
 73
     2
 40
5.0
 49
3.75
 49
-1.25
  0
LTYPE
  2
CENTER1
 70
    64
  3
----- - ----- - ----- - ----- - 
 72
    65
 73
     4
 40
10.0
 49
6.25
 49
-1.25
 49
1.25
 49
-1.25
  0
LTYPE
  2
CENTER2
 70
    64
  3
----------  --  ----------  --  
 72
    65
 73
     4
 40
20.0
 49
12.5
 49
-2.5
 49
2.5
 49
-2.5
  0
LTYPE
  2
PHANTOM1
 70
    64
  3
--- - - --- - - --- - - --- - - 
 72
    65
 73
     6
 40
10.0
 49
3.25
 49
-1.25
 49
1.25
 49
-1.25
 49
1.25
 49
-1.25
  0
LTYPE
  2
PHANTOM2
 70
    64
  3
--------  -  -  --------  -  -  
 72
    65
 73
     6
 40
20.0
 49
10.0
 49
-2.5
 49
1.25
 49
-2.5
 49
1.25
 49
-2.5
  0
LTYPE
  2
DOT
 70
    64
  3
-   -   -   -   -   -   -   -   
 72
    65
 73
     2
 40
2.5
 49
0.625
 49
-1.875
  0
LTYPE
  2
DUMMY
 70
    64
  3
ダミー
 72
    65
 73
     0
 40
0.0
  0
LTYPE
  2
RAND1
 70
    64
  3
ランダム線1
 72
    65
 73
     4
 40
10.0
 49
1.0
 49
-2.0
 49
3.0
 49
-4.0
  0
LTYPE
  2
RAND2
 70
    64
  3
ランダム線2
 72
    65
 73
     4
 40
14.0
 49
2.0
 49
-3.0
 49
4.0
 49
-5.0
  0
LTYPE
  2
RAND3
 70
    64
  3
ランダム線3
 72
    65
 73
     4
 40
18.0
 49
3.0
 49
-4.0
 49
5.0
 49
-6.0
  0
LTYPE
  2
RAND4
 70
    64
  3
ランダム線4
 72
    65
 73
     4
 40
22.0
 49
4.0
 49
-5.0
 49
6.0
 49
-7.0
  0
LTYPE
  2
RAND5
 70
    64
  3
ランダム線5
 72
    65
 73
     4
 40
26.0
 49
5.0
 49
-6.0
 49
7.0
 49
-8.0
  0
LTYPE
  2
LONG1
 70
    64
  3
----------  --  ----------  --  
 72
    65
 73
     4
 40
40.0
 49
32.5
 49
-2.5
 49
2.5
 49
-2.5
  0
LTYPE
  2
LONG2
 70
    64
  3
--------  -  -  --------  -  -  
 72
    65
 73
     6
 40
40.0
 49
30.0
 49
-2.5
 49
1.25
 49
-2.5
 49
1.25
 49
-2.5
  0
LTYPE
  2
LONG3
 70
    64
  3
+++++++++++++++..+++++++++++++++
 72
    65
 73
     2
 40
40.0
 49
37.5
 49
-2.5
  0
LTYPE
  2
LONG4
 70
    64
  3
+++++++++++++++..+++++++++++++++
 72
    65
 73
     2
 40
80.0
 49
75.0
 49
-5.0
  0
LTYPE
  2
LONG5
 70
    64
  3
----------  --  ----------  --  
 72
    65
 73
     4
 40
60.0
 49
37.5
 49
-7.5
 49
7.5
 49
-7.5
  0
LTYPE
  2
dashed
 70
   64
  3
-------   -------------   ------
 72
   65
 73
    2
 40
7.5
 49
6
 49
-1.5
  0
LTYPE
  2
dashed_spaced
 70
   64
  3
----        --------        ----
 72
   65
 73
    2
 40
12
 49
6
 49
-6
  0
LTYPE
  2
long_dashed_dotted
 70
   64
  3
------------- --- --------------
 72
   65
 73
    4
 40
15.25
 49
12
 49
-1.5
 49
0.25
 49
-1.5
  0
LTYPE
  2
long_dashed_double-dotted
 70
   64
  3
----------- --- --- ------------
 72
   65
 73
    6
 40
17
 49
12
 49
-1.5
 49
0.25
 49
-1.5
 49
0.25
 49
-1.5
  0
LTYPE
  2
long_dashed_triplicate-dotted
 70
   64
  3
--------- --- --- --- ----------
 72
   65
 73
    8
 40
18.75
 49
12
 49
-1.5
 49
0.25
 49
-1.5
 49
0.25
 49
-1.5
 49
0.25
 49
-1.5
  0
LTYPE
  2
dotted
 70
   64
  3
   -       -       -       -    
 72
   65
 73
    2
 40
1.75
 49
0.25
 49
-1.5
  0
LTYPE
  2
chain
 70
   64
  3
-------------- -- --------------
 72
   65
 73
    4
 40
18.5
 49
12
 49
-1.5
 49
3.5
 49
-1.5
  0
LTYPE
  2
chain_double_dash
 70
   64
  3
------------ -- -- -------------
 72
   65
 73
    6
 40
23.5
 49
12
 49
-1.5
 49
3.5
 49
-1.5
 49
3.5
 49
-1.5
  0
LTYPE
  2
dashed_dotted
 70
   64
  3
-----------     -     ----------
 72
   65
 73
    4
 40
9.25
 49
6
 49
-1.5
 49
0.25
 49
-1.5
  0
LTYPE
  2
double-dashed_dotted
 70
   64
  3
------   -----------   -   -----
 72
   65
 73
    6
 40
16.75
 49
6
 49
-1.5
 49
6
 49
-1.5
 49
0.25
 49
-1.5
  0
LTYPE
  2
dashed_double-dotted
 70
   64
  3
---------    -    -    ---------
 72
   65
 73
    6
 40
11
 49
6
 49
-1.5
 49
0.25
 49
-1.5
 49
0.25
 49
-1.5
  0
LTYPE
  2
double-dashed_double-dotted
 70
   64
  3
-----   ---------   -   -   ----
 72
   65
 73
    8
 40
18.5
 49
6
 49
-1.5
 49
6
 49
-1.5
 49
0.25
 49
-1.5
 49
0.25
 49
-1.5
  0
LTYPE
  2
dashed_triplicate-dotted
 70
   64
  3
-------    -    -    -    ------
 72
   65
 73
    8
 40
12.75
 49
6
 49
-1.5
 49
0.25
 49
-1.5
 49
0.25
 49
-1.5
 49
0.25
 49
-1.5
  0
LTYPE
  2
double-dashed_triplicate-dotted
 70
   64
  3
-----  ---------  -  -  -  -----
 72
   65
 73
   10
 40
20.25
 49
6
 49
-1.5
 49
6
 49
-1.5
 49
0.25
 49
-1.5
 49
0.25
 49
-1.5
 49
0.25
 49
-1.5
  0
LTYPE
  2
undefined
 70
   64
  3
--------------------------------
 72
   65
 73
    0
 40
0
  0
LTYPE
  2
BORDER
 70
   64
  3
----     --------     -     ----
 72
   65
 73
    6
 40
1.76
 49
0.5
 49
-0.25
 49
0.5
 49
-0.25
 49
0.01
 49
-0.25
  0
LTYPE
  2
BORDER2
 70
   64
  3
----     --------     -     ----
 72
   65
 73
    6
 40
0.885
 49
0.25
 49
-0.125
 49
0.25
 49
-0.125
 49
0.01
 49
-0.125
  0
LTYPE
  2
BORDERX2
 70
   64
  3
----     --------     -     ----
 72
   65
 73
    6
 40
3.5099999999999998
 49
1
 49
-0.5
 49
1
 49
-0.5
 49
0.01
 49
-0.5
  0
LTYPE
  2
CENTER
 70
   64
  3
----------    ----    ----------
 72
   65
 73
    4
 40
2
 49
1.25
 49
-0.25
 49
0.25
 49
-0.25
  0
LTYPE
  2
CENTER2_21
 70
   64
  3
----------    ----    ----------
 72
   65
 73
    4
 40
1.125
 49
0.75
 49
-0.125
 49
0.125
 49
-0.125
  0
LTYPE
  2
CENTERX2
 70
   64
  3
----------    ----    ----------
 72
   65
 73
    4
 40
4
 49
2.5
 49
-0.5
 49
0.5
 49
-0.5
  0
LTYPE
  2
DASHDOT
 70
   64
  3
--------        -        -------
 72
   65
 73
    4
 40
1.01
 49
0.5
 49
-0.25
 49
0.01
 49
-0.25
  0
LTYPE
  2
DASHDOT2
 70
   64
  3
--------        -        -------
 72
   65
 73
    4
 40
0.51
 49
0.25
 49
-0.125
 49
0.01
 49
-0.125
  0
LTYPE
  2
DASHDOTX2
 70
   64
  3
--------        -        -------
 72
   65
 73
    4
 40
2.0099999999999998
 49
1
 49
-0.5
 49
0.01
 49
-0.5
  0
LTYPE
  2
DASHED
 70
   64
  3
------     -----------     -----
 72
   65
 73
    2
 40
0.75
 49
0.5
 49
-0.25
  0
LTYPE
  2
DASHED2_27
 70
   64
  3
------     -----------     -----
 72
   65
 73
    2
 40
0.375
 49
0.25
 49
-0.125
  0
LTYPE
  2
DASHEDX2
 70
   64
  3
------     -----------     -----
 72
   65
 73
    2
 40
1.5
 49
1
 49
-0.5
  0
LTYPE
  2
DIVIDE
 70
   64
  3
------      -      -      ------
 72
   65
 73
    6
 40
1.27
 49
0.5
 49
-0.25
 49
0.01
 49
-0.25
 49
0.01
 49
-0.25
  0
LTYPE
  2
DIVIDE2
 70
   64
  3
------      -      -      ------
 72
   65
 73
    6
 40
0.645
 49
0.25
 49
-0.125
 49
0.01
 49
-0.125
 49
0.01
 49
-0.125
  0
LTYPE
  2
DIVIDEX2
 70
   64
  3
------      -      -      ------
 72
   65
 73
    6
 40
2.5199999999999996
 49
1
 49
-0.5
 49
0.01
 49
-0.5
 49
0.01
 49
-0.5
  0
LTYPE
  2
DOT_32
 70
   64
  3
-               -               
 72
   65
 73
    2
 40
0.26
 49
0.01
 49
-0.25
  0
ENDTAB
  0
TABLE
  2
STYLE
  5
3
100
AcDbSymbolTable
 70
     1
  0
STYLE
  5
10
100
AcDbSymbolTableRecord
100
AcDbTextStyleTableRecord
  2
STANDARD
 70
     0
 40
0.0
 41
1.0
 50
0.0
 71
     0
 42
0.2
  3
txt
  4
bigfont.shx
  0
STYLE
  5
26
100
AcDbSymbolTableRecord
100
AcDbTextStyleTableRecord
  2
TATEGAKI
 70
    68
 40
0.0
 41
1.0
 50
0.0
 71
     0
 42
1.0
  3
txt
  4
bigfont.shx
  0
ENDTAB
  0
TABLE
  2
LAYER
 70
    2
  0
LAYER
  2
_0-0_0
 70
   64
 62
    7
  6
CONTINUOUS
  0
LAYER
  2
ADD_LINE
 70
   64
 62
    7
  6
CONTINUOUS
  0
ENDTAB
  0
ENDSEC
  0
SECTION
  2
BLOCKS
  0
ENDSEC
  0
SECTION
  2
ENTITIES
  0
LINE
  8
_0-0_0
  6
CONTINUOUS
 62
    7
 10
1049.9999999999986
 20
1171.9619060020054
 11
1049.9999999999998
 21
1153.9619060022619
  0
LINE
  8
_0-0_0
  6
CONTINUOUS
 62
    7
 10
1055.9999999999995
 20
1171.893438991206
 11
1055.9999999999995
 21
1153.9619060022619
  0
LINE
  8
_0-0_0
  6
CONTINUOUS
 62
    7
 10
1044.0000000000007
 20
1171.8934389911797
 11
1043.9999999999995
 21
1153.9619060022619
  0
LINE
  8
_0-0_0
  6
CONTINUOUS
 62
    7
 10
1043.9999999999995
 20
242.50352575936546
 11
1055.9999999999995
 21
242.50352575936546
  0
ARC
  8
_0-0_0
  6
CONTINUOUS
 62
    7
 10
1112.423511249352
 20
1205.6457697235098
 40
36.857756035856397
 50
296.43406452985812
 51
104.12373251407482
  0
ARC
  8
_0-0_0
  6
CONTINUOUS
 62
    7
 10
1112.4255341265887
 20
1205.6495837086045
 40
30.854541547916909
 50
296.30434257591799
 51
103.93963617306322
  0
ARC
  8
_0-0_0
  6
CONTINUOUS
 62
    7
 10
1112.3313783648096
 20
1190.9320866723988
 40
17.331378364810163
 50
103.3651701219155
 51
212.9168572565751
  0
ARC
  8
_0-0_0
  6
CONTINUOUS
 62
    7
 10
1112.3263104313171
 20
1190.9260301692871
 40
11.326923953630082
 50
102.9656312980492
 51
213.6967978964822
  0
ARC
  8
_0-0_0
  6
CONTINUOUS
 62
    7
 10
1110.9634677247191
 20
1195.8307506190235
 40
12.250793885492042
 50
13.776934883477992
 51
102.43674145676081
  0
ARC
  8
_0-0_0
  6
CONTINUOUS
 62
    7
 10
1110.8630147889658
 20
1195.4317315909898
 40
6.6208045136571672
 50
16.570710596555632
 51
99.371386512996622
  0
ARC
  8
_0-0_0
  6
CONTINUOUS
 62
    7
 10
1120.010632649444
 20
1198.1318266623427
 40
2.917036973390688
 50
196.15959921021749
 51
12.198318994678804
  0
ARC
  8
_0-0_0
  6
CONTINUOUS
 62
    7
 10
1118.4546713995021
 20
1195.0927281536456
 40
24.733171365681194
 50
213.29947030324479
 51
294.80597086394278
  0
ARC
  8
_0-0_0
  6
CONTINUOUS
 62
    7
 10
1118.4540137802928
 20
1195.1024098726034
 40
18.742279093826731
 50
213.9262248228155
 51
294.07097389722941
  0
ARC
  8
_0-0_0
  6
CONTINUOUS
 62
    7
 10
1123.9709954615487
 20
1170.3084614477089
 40
73.98947255161886
 50
106.11856125905091
 51
178.71950321962899
  0
ARC
  8
_0-0_0
  6
CONTINUOUS
 62
    7
 10
1123.9709954615487
 20
1170.3084614477089
 40
67.98947255161886
 50
106.20864160636081
 51
178.71950321962899
  0
ARC
  8
_0-0_0
  6
CONTINUOUS
 62
    7
 10
987.57648875064717
 20
1205.6457697235098
 40
36.857756035856397
 50
75.876267485982055
 51
243.56593547014199
  0
ARC
  8
_0-0_0
  6
CONTINUOUS
 62
    7
 10
987.57446587341076
 20
1205.6495837086045
 40
30.854541547916909
 50
76.060363826987313
 51
243.69565742414031
  0
ARC
  8
_0-0_0
  6
CONTINUOUS
 62
    7
 10
987.66862163518965
 20
1190.9320866723988
 40
17.331378364810163
 50
327.0831427434249
 51
76.634829878141176
  0
ARC
  8
_0-0_0
  6
CONTINUOUS
 62
    7
 10
987.67368956868245
 20
1190.9260301692871
 40
11.326923953630082
 50
326.30320210351783
 51
77.034368701900092
  0
ARC
  8
_0-0_0
  6
CONTINUOUS
 62
    7
 10
989.03653227528014
 20
1195.8307506190235
 40
12.250793885492042
 50
77.563258543239158
 51
166.22306511652201
  0
ARC
  8
_0-0_0
  6
CONTINUOUS
 62
    7
 10
989.13698521103345
 20
1195.4317315909898
 40
6.6208045136571672
 50
80.628613486951977
 51
163.42928940344439
  0
ARC
  8
_0-0_0
  6
CONTINUOUS
 62
    7
 10
979.98936735055554
 20
1198.1318266623427
 40
2.917036973390688
 50
167.8016810053212
 51
343.84040078978234
  0
ARC
  8
_0-0_0
  6
CONTINUOUS
 62
    7
 10
981.54532860049744
 20
1195.0927281536456
 40
24.733171365681194
 50
245.19402913599893
 51
326.70052969675527
  0
ARC
  8
_0-0_0
  6
CONTINUOUS
 62
    7
 10
981.54598621970638
 20
1195.1024098726034
 40
18.742279093826731
 50
245.92902610277065
 51
326.07377517718453
  0
ARC
  8
_0-0_0
  6
CONTINUOUS
 62
    7
 10
976.02900453845052
 20
1170.3084614477089
 40
73.98947255161886
 50
1.280496780371013
 51
73.88143874094186
  0
ARC
  8
_0-0_0
  6
CONTINUOUS
 62
    7
 10
976.02900453845052
 20
1170.3084614477089
 40
67.98947255161886
 50
1.280496780371013
 51
73.7913583936392
  0
LINE
  8
_0-0_0
  6
CONTINUOUS
 62
    7
 10
1058.583280520367
 20
1149.9619060022619
 11
1042.4510757374144
 21
1149.9619060022619
  0
LINE
  8
_0-0_0
  6
CONTINUOUS
 62
    7
 10
1042.4510757374144
 20
1143.9619060022619
 11
1058.583280520367
 21
1143.9619060022619
  0
ARC
  8
_0-0_0
  6
CONTINUOUS
 62
    7
 10
1042.4510757374144
 20
1146.9619060022619
 40
3.0000000000000004
 50
90.000002999984659
 51
270.00000099999488
  0
ARC
  8
_0-0_0
  6
CONTINUOUS
 62
    7
 10
1058.583280520367
 20
1146.9619060022619
 40
3.0000000000000004
 50
270.00000099999488
 51
90.000002999984645
  0
LINE
  8
_0-0_0
  6
CONTINUOUS
 62
    7
 10
1042.4510757374144
 20
1149.9619060022619
 11
1042.4510757374144
 21
1152.9619060022619
  0
ARC
  8
_0-0_0
  6
CONTINUOUS
 62
    7
 10
1043.4510757374144
 20
1152.9619060022619
 40
1
 50
90.000002999984659
 51
180.00000499997441
  0
ARC
  8
_0-0_0
  6
CONTINUOUS
 62
    7
 10
1043.4510757374144
 20
1140.9619060022619
 40
1
 50
180.00000499997444
 51
270.00000099999488
  0
LINE
  8
_0-0_0
  6
CONTINUOUS
 62
    7
 10
1042.4510757374144
 20
1140.9619060022619
 11
1042.4510757374144
 21
1143.9619060022619
  0
LINE
  8
_0-0_0
  6
CONTINUOUS
 62
    7
 10
1058.583280520367
 20
1143.9619060022619
 11
1058.583280520367
 21
1140.9619060022619
  0
ARC
  8
_0-0_0
  6
CONTINUOUS
 62
    7
 10
1057.5832805203668
 20
1140.9619060022619
 40
1
 50
270.00000099999488
 51
0
  0
LINE
  8
_0-0_0
  6
CONTINUOUS
 62
    7
 10
1057.5832805203668
 20
1139.9619060022619
 11
1043.4510757374144
 21
1139.9619060022619
  0
LINE
  8
_0-0_0
  6
CONTINUOUS
 62
    7
 10
1058.583280520367
 20
1149.9619060022619
 11
1058.583280520367
 21
1152.9619060022619
  0
ARC
  8
_0-0_0
  6
CONTINUOUS
 62
    7
 10
1057.5832805203668
 20
1152.9619060022619
 40
1
 50
0
 51
90.000002999984659
  0
LINE
  8
_0-0_0
  6
CONTINUOUS
 62
    7
 10
1057.5832805203668
 20
1153.9619060022619
 11
1043.4510757374144
 21
1153.9619060022619
  0
LINE
  8
_0-0_0
  6
CONTINUOUS
 62
    7
 10
1040.9306132905663
 20
1144.3757517246281
 11
1059.013384520367
 21
1144.3406120022626
  0
LINE
  8
_0-0_0
  6
CONTINUOUS
 62
    7
 10
1045.7173995203673
 20
1144.8322440022616
 11
1059.9651265203672
 21
1144.8322440022616
  0
LINE
  8
_0-0_0
  6
CONTINUOUS
 62
    7
 10
1051.3426235203665
 20
1146.0172040022621
 11
1060.334460520367
 21
1146.0172040022621
  0
LINE
  8
_0-0_0
  6
CONTINUOUS
 62
    7
 10
1043.4510757374144
 20
1153.9619060022619
 11
1057.5832805203668
 21
1153.9619060022619
  0
LINE
  8
_0-0_0
  6
CONTINUOUS
 62
    7
 10
1042.4510757374144
 20
1149.9619060022619
 11
1042.4510757374144
 21
1152.9619059149959
  0
LINE
  8
_0-0_0
  6
CONTINUOUS
 62
    7
 10
1043.4510756850548
 20
1153.9619060022619
 11
1057.5832805203668
 21
1153.9619060022628
  0
LINE
  8
_0-0_0
  6
CONTINUOUS
 62
    7
 10
1058.583280520367
 20
1152.9619060022619
 11
1058.583280520367
 21
1149.9619060022619
  0
LINE
  8
_0-0_0
  6
CONTINUOUS
 62
    7
 10
1042.4510757374144
 20
1140.9619059149959
 11
1042.451075789774
 21
1143.9619060022619
  0
LINE
  8
_0-0_0
  6
CONTINUOUS
 62
    7
 10
1057.5832805203668
 20
1139.9619060022619
 11
1043.4510757374144
 21
1139.9619060022619
  0
LINE
  8
_0-0_0
  6
CONTINUOUS
 62
    7
 10
1058.5832805727266
 20
1143.9619060022619
 11
1058.583280520367
 21
1140.9619060022619
  0
LINE
  8
_0-0_0
  6
CONTINUOUS
 62
    7
 10
1056.0000000000007
 20
1139.9619060022619
 11
1055.9999999999995
 21
242.50352575936546
  0
LINE
  8
_0-0_0
  6
CONTINUOUS
 62
    7
 10
1049.9999999999986
 20
1139.9619060022619
 11
1049.9999999999998
 21
242.50352575936546
  0
LINE
  8
_0-0_0
  6
CONTINUOUS
 62
    7
 10
1044.0000000000007
 20
1139.9619060022619
 11
1043.9999999999995
 21
242.50352575936546
  0
ENDSEC
  0
EOF
