  0
SECTION
  2
HEADER
  9
$ACADVER
  1
AC1009
  9
$INSBASE
 10
0
 20
0
 30
0
  9
$EXTMIN
 10
0
 20
0
  9
$EXTMAX
 10
4200
 20
2970
  9
$LIMMIN
 10
0
 20
0
  9
$LIMMAX
 10
4200
 20
2970
  9
$LTSCALE
 40
10
  0
ENDSEC
  0
SECTION
  2
TABLES
  0
TABLE
  2
LTYPE
 70
     9
  0
LTYPE
  2
CONTINUOUS
 70
    64
  3
実線
 72
    65
 73
     0
 40
0.0
  0
LTYPE
  2
DASHED1
 70
    64
  3
--  --  --  --  --  --  --  --  
 72
    65
 73
     2
 40
2.5
 49
1.25
 49
-1.25
  0
LTYPE
  2
DASHED2
 70
    64
  3
----    ----    ----    ----    
 72
    65
 73
     2
 40
5.0
 49
2.5
 49
-2.5
  0
LTYPE
  2
DASHED3
 70
    64
  3
------  ------  ------  ------  
 72
    65
 73
     2
 40
5.0
 49
3.75
 49
-1.25
  0
LTYPE
  2
CENTER1
 70
    64
  3
----- - ----- - ----- - ----- - 
 72
    65
 73
     4
 40
10.0
 49
6.25
 49
-1.25
 49
1.25
 49
-1.25
  0
LTYPE
  2
CENTER2
 70
    64
  3
----------  --  ----------  --  
 72
    65
 73
     4
 40
20.0
 49
12.5
 49
-2.5
 49
2.5
 49
-2.5
  0
LTYPE
  2
PHANTOM1
 70
    64
  3
--- - - --- - - --- - - --- - - 
 72
    65
 73
     6
 40
10.0
 49
3.25
 49
-1.25
 49
1.25
 49
-1.25
 49
1.25
 49
-1.25
  0
LTYPE
  2
PHANTOM2
 70
    64
  3
--------  -  -  --------  -  -  
 72
    65
 73
     6
 40
20.0
 49
10.0
 49
-2.5
 49
1.25
 49
-2.5
 49
1.25
 49
-2.5
  0
LTYPE
  2
DOT
 70
    64
  3
-   -   -   -   -   -   -   -   
 72
    65
 73
     2
 40
2.5
 49
0.625
 49
-1.875
  0
LTYPE
  2
DUMMY
 70
    64
  3
ダミー
 72
    65
 73
     0
 40
0.0
  0
LTYPE
  2
RAND1
 70
    64
  3
ランダム線1
 72
    65
 73
     4
 40
10.0
 49
1.0
 49
-2.0
 49
3.0
 49
-4.0
  0
LTYPE
  2
RAND2
 70
    64
  3
ランダム線2
 72
    65
 73
     4
 40
14.0
 49
2.0
 49
-3.0
 49
4.0
 49
-5.0
  0
LTYPE
  2
RAND3
 70
    64
  3
ランダム線3
 72
    65
 73
     4
 40
18.0
 49
3.0
 49
-4.0
 49
5.0
 49
-6.0
  0
LTYPE
  2
RAND4
 70
    64
  3
ランダム線4
 72
    65
 73
     4
 40
22.0
 49
4.0
 49
-5.0
 49
6.0
 49
-7.0
  0
LTYPE
  2
RAND5
 70
    64
  3
ランダム線5
 72
    65
 73
     4
 40
26.0
 49
5.0
 49
-6.0
 49
7.0
 49
-8.0
  0
LTYPE
  2
LONG1
 70
    64
  3
----------  --  ----------  --  
 72
    65
 73
     4
 40
40.0
 49
32.5
 49
-2.5
 49
2.5
 49
-2.5
  0
LTYPE
  2
LONG2
 70
    64
  3
--------  -  -  --------  -  -  
 72
    65
 73
     6
 40
40.0
 49
30.0
 49
-2.5
 49
1.25
 49
-2.5
 49
1.25
 49
-2.5
  0
LTYPE
  2
LONG3
 70
    64
  3
+++++++++++++++..+++++++++++++++
 72
    65
 73
     2
 40
40.0
 49
37.5
 49
-2.5
  0
LTYPE
  2
LONG4
 70
    64
  3
+++++++++++++++..+++++++++++++++
 72
    65
 73
     2
 40
80.0
 49
75.0
 49
-5.0
  0
LTYPE
  2
LONG5
 70
    64
  3
----------  --  ----------  --  
 72
    65
 73
     4
 40
60.0
 49
37.5
 49
-7.5
 49
7.5
 49
-7.5
  0
LTYPE
  2
dashed
 70
   64
  3
-------   -------------   ------
 72
   65
 73
    2
 40
7.5
 49
6
 49
-1.5
  0
LTYPE
  2
dashed_spaced
 70
   64
  3
----        --------        ----
 72
   65
 73
    2
 40
12
 49
6
 49
-6
  0
LTYPE
  2
long_dashed_dotted
 70
   64
  3
------------- --- --------------
 72
   65
 73
    4
 40
15.25
 49
12
 49
-1.5
 49
0.25
 49
-1.5
  0
LTYPE
  2
long_dashed_double-dotted
 70
   64
  3
----------- --- --- ------------
 72
   65
 73
    6
 40
17
 49
12
 49
-1.5
 49
0.25
 49
-1.5
 49
0.25
 49
-1.5
  0
LTYPE
  2
long_dashed_triplicate-dotted
 70
   64
  3
--------- --- --- --- ----------
 72
   65
 73
    8
 40
18.75
 49
12
 49
-1.5
 49
0.25
 49
-1.5
 49
0.25
 49
-1.5
 49
0.25
 49
-1.5
  0
LTYPE
  2
dotted
 70
   64
  3
   -       -       -       -    
 72
   65
 73
    2
 40
1.75
 49
0.25
 49
-1.5
  0
LTYPE
  2
chain
 70
   64
  3
-------------- -- --------------
 72
   65
 73
    4
 40
18.5
 49
12
 49
-1.5
 49
3.5
 49
-1.5
  0
LTYPE
  2
chain_double_dash
 70
   64
  3
------------ -- -- -------------
 72
   65
 73
    6
 40
23.5
 49
12
 49
-1.5
 49
3.5
 49
-1.5
 49
3.5
 49
-1.5
  0
LTYPE
  2
dashed_dotted
 70
   64
  3
-----------     -     ----------
 72
   65
 73
    4
 40
9.25
 49
6
 49
-1.5
 49
0.25
 49
-1.5
  0
LTYPE
  2
double-dashed_dotted
 70
   64
  3
------   -----------   -   -----
 72
   65
 73
    6
 40
16.75
 49
6
 49
-1.5
 49
6
 49
-1.5
 49
0.25
 49
-1.5
  0
LTYPE
  2
dashed_double-dotted
 70
   64
  3
---------    -    -    ---------
 72
   65
 73
    6
 40
11
 49
6
 49
-1.5
 49
0.25
 49
-1.5
 49
0.25
 49
-1.5
  0
LTYPE
  2
double-dashed_double-dotted
 70
   64
  3
-----   ---------   -   -   ----
 72
   65
 73
    8
 40
18.5
 49
6
 49
-1.5
 49
6
 49
-1.5
 49
0.25
 49
-1.5
 49
0.25
 49
-1.5
  0
LTYPE
  2
dashed_triplicate-dotted
 70
   64
  3
-------    -    -    -    ------
 72
   65
 73
    8
 40
12.75
 49
6
 49
-1.5
 49
0.25
 49
-1.5
 49
0.25
 49
-1.5
 49
0.25
 49
-1.5
  0
LTYPE
  2
double-dashed_triplicate-dotted
 70
   64
  3
-----  ---------  -  -  -  -----
 72
   65
 73
   10
 40
20.25
 49
6
 49
-1.5
 49
6
 49
-1.5
 49
0.25
 49
-1.5
 49
0.25
 49
-1.5
 49
0.25
 49
-1.5
  0
LTYPE
  2
undefined
 70
   64
  3
--------------------------------
 72
   65
 73
    0
 40
0
  0
ENDTAB
  0
TABLE
  2
STYLE
  5
3
100
AcDbSymbolTable
 70
     1
  0
STYLE
  5
10
100
AcDbSymbolTableRecord
100
AcDbTextStyleTableRecord
  2
STANDARD
 70
     0
 40
0.0
 41
1.0
 50
0.0
 71
     0
 42
0.2
  3
txt
  4
bigfont.shx
  0
STYLE
  5
26
100
AcDbSymbolTableRecord
100
AcDbTextStyleTableRecord
  2
TATEGAKI
 70
    68
 40
0.0
 41
1.0
 50
0.0
 71
     0
 42
1.0
  3
txt
  4
bigfont.shx
  0
ENDTAB
  0
TABLE
  2
LAYER
 70
    2
  0
LAYER
  2
_0-0_
 70
   64
 62
    7
  6
CONTINUOUS
  0
LAYER
  2
ADD_LINE
 70
   64
 62
    7
  6
CONTINUOUS
  0
ENDTAB
  0
ENDSEC
  0
SECTION
  2
BLOCKS
  0
ENDSEC
  0
SECTION
  2
ENTITIES
  0
LINE
  8
_0-0_
  6
CONTINUOUS
 62
    7
 10
961.79359430604973
 20
2011.1565836298932
 11
973.79359430604961
 21
2011.1565836298932
  0
LINE
  8
_0-0_
  6
CONTINUOUS
 62
    7
 10
973.79359430604961
 20
1011.1566141474714
 11
961.79359430604973
 21
1011.1566141474714
  0
LINE
  8
_0-0_
  6
CONTINUOUS
 62
    7
 10
982.91252130800285
 20
1506.436307750987
 11
960.36784357362774
 21
1525.1528452265729
  0
LINE
  8
_0-0_
  6
CONTINUOUS
 62
    7
 10
958.46882623964348
 20
1522.8304270136823
 11
953.40470880800285
 21
1516.6372812617292
  0
LINE
  8
_0-0_
  6
CONTINUOUS
 62
    7
 10
951.50569147401836
 20
1514.3148630488386
 11
974.05036920839348
 21
1495.5983103144636
  0
LINE
  8
_0-0_
  6
CONTINUOUS
 62
    7
 10
975.94938654237785
 20
1497.9207437861432
 11
981.01350397401848
 21
1504.1138742793073
  0
LINE
  8
_0-0_
  6
CONTINUOUS
 62
    7
 10
975.94938654237785
 20
1497.9207437861432
 11
953.40470880800285
 21
1516.6372812617292
  0
LINE
  8
_0-0_
  6
CONTINUOUS
 62
    7
 10
981.01350397401848
 20
1504.1138742793073
 11
960.01710504823723
 21
1521.5644052851667
  0
LINE
  8
_0-0_
  6
CONTINUOUS
 62
    7
 10
960.01710504823723
 20
1521.5644052851667
 11
958.46882623964348
 21
1522.8304270136823
  0
LINE
  8
_0-0_
  6
CONTINUOUS
 62
    7
 10
935.89942926698723
 20
1702.7564218867292
 11
943.81684870058098
 21
1701.6098001826276
  0
LINE
  8
_0-0_
  6
CONTINUOUS
 62
    7
 10
935.89942926698723
 20
1702.7564218867292
 11
938.26554865175285
 21
1719.0943125117292
  0
LINE
  8
_0-0_
  6
CONTINUOUS
 62
    7
 10
935.29652399354973
 20
1719.5242746699323
 11
932.93040460878399
 21
1703.1864145625104
  0
LINE
  8
_0-0_
  6
CONTINUOUS
 62
    7
 10
946.7858733587841
 20
1701.1798075068464
 11
949.1519622259716
 21
1717.5176828730573
  0
LINE
  8
_0-0_
  6
CONTINUOUS
 62
    7
 10
943.81684870058098
 20
1701.6098001826276
 11
945.89628595644035
 21
1715.9683359492292
  0
LINE
  8
_0-0_
  6
CONTINUOUS
 62
    7
 10
945.89628595644035
 20
1715.9683359492292
 11
946.18293756776848
 21
1717.9476755488386
  0
LINE
  8
_0-0_
  6
CONTINUOUS
 62
    7
 10
946.18293756776848
 20
1717.9476755488386
 11
938.26554865175285
 21
1719.0943125117292
  0
LINE
  8
_0-0_
  6
CONTINUOUS
 62
    7
 10
999.68775934511211
 20
1319.5567453730573
 11
991.77033991151848
 21
1320.7033670771589
  0
LINE
  8
_0-0_
  6
CONTINUOUS
 62
    7
 10
999.68775934511211
 20
1319.5567453730573
 11
997.3216399603466
 21
1303.2188547480573
  0
LINE
  8
_0-0_
  6
CONTINUOUS
 62
    7
 10
1000.2906646185497
 20
1302.7888925898542
 11
1002.6567840033154
 21
1319.1267526972761
  0
LINE
  8
_0-0_
  6
CONTINUOUS
 62
    7
 10
988.80131525331535
 20
1321.1333597529401
 11
986.43522638612785
 21
1304.7954843867292
  0
LINE
  8
_0-0_
  6
CONTINUOUS
 62
    7
 10
991.77033991151848
 20
1320.7033670771589
 11
989.6909026556591
 21
1306.3448313105573
  0
LINE
  8
_0-0_
  6
CONTINUOUS
 62
    7
 10
989.6909026556591
 20
1306.3448313105573
 11
989.40425104433086
 21
1304.3654917109479
  0
LINE
  8
_0-0_
  6
CONTINUOUS
 62
    7
 10
989.40425104433086
 20
1304.3654917109479
 11
997.3216399603466
 21
1303.2188547480573
  0
LINE
  8
_0-0_
  6
CONTINUOUS
 62
    7
 10
959.53944391542461
 20
1179.2526529658307
 11
959.53944391542461
 21
1171.2526529658307
  0
LINE
  8
_0-0_
  6
CONTINUOUS
 62
    7
 10
959.53944391542461
 20
1168.2526529658307
 11
976.04774469667473
 21
1168.2526529658307
  0
LINE
  8
_0-0_
  6
CONTINUOUS
 62
    7
 10
976.04774469667473
 20
1171.2526529658307
 11
976.04774469667473
 21
1179.2526529658307
  0
LINE
  8
_0-0_
  6
CONTINUOUS
 62
    7
 10
976.04774469667473
 20
1171.2526529658307
 11
959.53944391542461
 21
1171.2526529658307
  0
LINE
  8
_0-0_
  6
CONTINUOUS
 62
    7
 10
976.04774469667473
 20
1179.2526529658307
 11
961.53944391542473
 21
1179.2526529658307
  0
LINE
  8
_0-0_
  6
CONTINUOUS
 62
    7
 10
961.53944391542473
 20
1179.2526529658307
 11
959.53944391542461
 21
1179.2526529658307
  0
LINE
  8
_0-0_
  6
CONTINUOUS
 62
    7
 10
976.04179376894035
 20
1171.136747204112
 11
959.47489923769024
 21
1171.136747204112
  0
LINE
  8
_0-0_
  6
CONTINUOUS
 62
    7
 10
973.79359430604961
 20
1182.2526529658307
 11
973.79359430604961
 21
1184.6490152705182
  0
LINE
  8
_0-0_
  6
CONTINUOUS
 62
    7
 10
961.79359430604973
 20
1182.2526529658307
 11
961.79359430604973
 21
1186.1565836298932
  0
LINE
  8
_0-0_
  6
CONTINUOUS
 62
    7
 10
976.04774469667473
 20
1182.2526529658307
 11
959.53944391542461
 21
1182.2526529658307
  0
LINE
  8
_0-0_
  6
CONTINUOUS
 62
    7
 10
961.79359430604973
 20
1186.1565836298932
 11
973.79359430604961
 21
1186.1565836298932
  0
LINE
  8
_0-0_
  6
CONTINUOUS
 62
    7
 10
973.67126793199577
 20
1184.1773355830182
 11
973.67126793199577
 21
1186.1565836298932
  0
LINE
  8
_0-0_
  6
CONTINUOUS
 62
    7
 10
961.79359430604973
 20
1011.1566141474714
 11
961.79359430604973
 21
1168.2526529658307
  0
LINE
  8
_0-0_
  6
CONTINUOUS
 62
    7
 10
973.79359430604961
 20
1011.1566141474714
 11
973.79359430604961
 21
1168.2526529658307
  0
LINE
  8
_0-0_
  6
CONTINUOUS
 62
    7
 10
973.79359430604961
 20
1840.0605448115339
 11
973.79359430604961
 21
1836.1565836298932
  0
LINE
  8
_0-0_
  6
CONTINUOUS
 62
    7
 10
959.53944391542461
 20
1843.0605448115339
 11
974.04774469667473
 21
1843.0605448115339
  0
LINE
  8
_0-0_
  6
CONTINUOUS
 62
    7
 10
959.53944391542461
 20
1851.0605448115339
 11
976.04774469667473
 21
1851.0605448115339
  0
LINE
  8
_0-0_
  6
CONTINUOUS
 62
    7
 10
976.04774469667473
 20
1854.0605448115339
 11
959.53944391542461
 21
1854.0605448115339
  0
LINE
  8
_0-0_
  6
CONTINUOUS
 62
    7
 10
959.53944391542461
 20
1840.0605448115339
 11
976.04774469667473
 21
1840.0605448115339
  0
LINE
  8
_0-0_
  6
CONTINUOUS
 62
    7
 10
961.79359430604973
 20
1840.0605448115339
 11
961.79359430604973
 21
1837.6641214716901
  0
LINE
  8
_0-0_
  6
CONTINUOUS
 62
    7
 10
959.53944391542461
 20
1851.0605448115339
 11
959.53944391542461
 21
1843.0605448115339
  0
LINE
  8
_0-0_
  6
CONTINUOUS
 62
    7
 10
974.04774469667473
 20
1843.0605448115339
 11
976.04774469667473
 21
1843.0605448115339
  0
LINE
  8
_0-0_
  6
CONTINUOUS
 62
    7
 10
976.04774469667473
 20
1843.0605448115339
 11
976.04774469667473
 21
1851.0605448115339
  0
LINE
  8
_0-0_
  6
CONTINUOUS
 62
    7
 10
973.79359430604961
 20
1836.1565836298932
 11
961.79359430604973
 21
1836.1565836298932
  0
LINE
  8
_0-0_
  6
CONTINUOUS
 62
    7
 10
962.06502956682243
 20
1838.5126932490339
 11
962.06502956682243
 21
1836.1565836298932
  0
LINE
  8
_0-0_
  6
CONTINUOUS
 62
    7
 10
961.79359430604973
 20
2011.1565836298932
 11
961.79359430604973
 21
1854.0605448115339
  0
LINE
  8
_0-0_
  6
CONTINUOUS
 62
    7
 10
973.79359430604961
 20
2011.1565836298932
 11
973.79359430604961
 21
1854.0605448115339
  0
ARC
  8
_0-0_
  6
CONTINUOUS
 62
    7
 10
920.98678201967277
 20
1667.0754984248151
 40
44.865211486816406
 50
84.104354858398452
 51
167.65093994140628
  0
ARC
  8
_0-0_
  6
CONTINUOUS
 62
    7
 10
920.98678201967277
 20
1667.0754984248151
 40
38.865211486816406
 50
84.466598510742188
 51
167.89233398437497
  0
ARC
  8
_0-0_
  6
CONTINUOUS
 62
    7
 10
1374.4664763861279
 20
1255.9503458369245
 40
474.08642578125006
 50
149.11758422851562
 51
150.0831298828125
  0
ARC
  8
_0-0_
  6
CONTINUOUS
 62
    7
 10
1004.7059478216747
 20
1480.1042154658307
 40
41.776390075683594
 50
41.286972045898445
 51
131.57257080078128
  0
ARC
  8
_0-0_
  6
CONTINUOUS
 62
    7
 10
1023.4265288763622
 20
1473.8568247187604
 40
16.964923858642578
 50
207.30142211914062
 51
334.70753479003906
  0
ARC
  8
_0-0_
  6
CONTINUOUS
 62
    7
 10
1007.9126128607372
 20
1485.221219860362
 40
36.032001495361328
 50
328.89860534667969
 51
38.536376953125057
  0
ARC
  8
_0-0_
  6
CONTINUOUS
 62
    7
 10
1067.1677703314404
 20
1484.1901834834089
 40
61.542739868164063
 50
177.50196838378909
 51
197.11816406250003
  0
ARC
  8
_0-0_
  6
CONTINUOUS
 62
    7
 10
1067.1677703314404
 20
1484.1901834834089
 40
55.542739868164063
 50
177.50196838378909
 51
196.5199890136719
  0
ARC
  8
_0-0_
  6
CONTINUOUS
 62
    7
 10
1023.4265288763622
 20
1473.8568247187604
 40
10.964923858642578
 50
209.86579895019531
 51
334.70753479003906
  0
ARC
  8
_0-0_
  6
CONTINUOUS
 62
    7
 10
1007.9126128607372
 20
1485.221219860362
 40
30.032001495361328
 50
328.89860534667969
 51
38.263397216796932
  0
ARC
  8
_0-0_
  6
CONTINUOUS
 62
    7
 10
1004.977004950581
 20
1480.824491344737
 40
35.097824096679688
 50
40.932174682617202
 51
131.09974670410159
  0
ARC
  8
_0-0_
  6
CONTINUOUS
 62
    7
 10
1328.6199798040966
 20
1274.7062662470807
 40
418.62194824218756
 50
148.06129455566406
 51
149.2117004394531
  0
ARC
  8
_0-0_
  6
CONTINUOUS
 62
    7
 10
1008.703079169331
 20
1487.2554453242292
 40
3.0437400341033936
 50
347.77688598632812
 51
187.22705078125
  0
ARC
  8
_0-0_
  6
CONTINUOUS
 62
    7
 10
1328.6199798040966
 20
1274.7062662470807
 40
418.62194824218756
 50
149.2117004394531
 51
160.97718811035153
  0
ARC
  8
_0-0_
  6
CONTINUOUS
 62
    7
 10
1374.4664763861279
 20
1255.9503458369245
 40
474.08642578125006
 50
150.08312988281253
 51
160.61798095703128
  0
ARC
  8
_0-0_
  6
CONTINUOUS
 62
    7
 10
4454.8363189154252
 20
-229.31021324510681
 40
3899.1660156250005
 50
153.58894348144537
 51
155.42623901367196
  0
ARC
  8
_0-0_
  6
CONTINUOUS
 62
    7
 10
51231.485000556051
 20
-22098.224275745106
 40
55529.296875
 50
154.84936523437503
 51
154.97816467285159
  0
ARC
  8
_0-0_
  6
CONTINUOUS
 62
    7
 10
4456.0421294623002
 20
-6.1056234013565813
 40
3805.647216796875
 50
154.47547912597659
 51
156.39079284667974
  0
ARC
  8
_0-0_
  6
CONTINUOUS
 62
    7
 10
-114232.06578069396
 20
55416.094083629898
 40
127190.90625
 50
334.92634582519531
 51
334.98423767089844
  0
ARC
  8
_0-0_
  6
CONTINUOUS
 62
    7
 10
930.61018366151848
 20
1541.4886759150495
 40
35.097824096679688
 50
220.93217468261719
 51
307.86088562011719
  0
ARC
  8
_0-0_
  6
CONTINUOUS
 62
    7
 10
930.88124079042473
 20
1542.2089517939557
 40
41.776390075683594
 50
221.28697204589844
 51
308.85803222656256
  0
ARC
  8
_0-0_
  6
CONTINUOUS
 62
    7
 10
912.16065973573723
 20
1548.4563425410261
 40
10.964923858642578
 50
29.865783691406246
 51
154.70753479003906
  0
ARC
  8
_0-0_
  6
CONTINUOUS
 62
    7
 10
912.16065973573723
 20
1548.4563425410261
 40
16.964923858642578
 50
27.301422119140632
 51
154.70753479003909
  0
ARC
  8
_0-0_
  6
CONTINUOUS
 62
    7
 10
927.67457575136223
 20
1537.0919473994245
 40
30.032001495361328
 50
148.89860534667972
 51
218.2633972167969
  0
ARC
  8
_0-0_
  6
CONTINUOUS
 62
    7
 10
927.67457575136223
 20
1537.0919473994245
 40
36.032001495361328
 50
148.89860534667972
 51
218.53637695312503
  0
ARC
  8
_0-0_
  6
CONTINUOUS
 62
    7
 10
868.41938776308098
 20
1538.1229837763776
 40
55.542739868164063
 50
357.501953125
 51
16.519973754882756
  0
ARC
  8
_0-0_
  6
CONTINUOUS
 62
    7
 10
868.41938776308098
 20
1538.1229837763776
 40
61.542739868164063
 50
357.501953125
 51
17.118148803710881
  0
ARC
  8
_0-0_
  6
CONTINUOUS
 62
    7
 10
926.88410944276836
 20
1535.0577371943464
 40
3.0437400341033936
 50
167.77687072753903
 51
7.2270355224609375
  0
ARC
  8
_0-0_
  6
CONTINUOUS
 62
    7
 10
561.12068170839336
 20
1766.3628061640729
 40
474.08642578125006
 50
330.0831298828125
 51
340.61798095703131
  0
ARC
  8
_0-0_
  6
CONTINUOUS
 62
    7
 10
606.96723932558086
 20
1747.6069162714948
 40
418.62194824218756
 50
329.21170043945318
 51
340.97718811035162
  0
ARC
  8
_0-0_
  6
CONTINUOUS
 62
    7
 10
561.12068170839336
 20
1766.3628061640729
 40
474.08642578125006
 50
329.11758422851562
 51
330.0831298828125
  0
ARC
  8
_0-0_
  6
CONTINUOUS
 62
    7
 10
606.96723932558086
 20
1747.6069162714948
 40
418.62194824218756
 50
328.01687622070312
 51
329.21170043945318
  0
ARC
  8
_0-0_
  6
CONTINUOUS
 62
    7
 10
959.4183196478466
 20
1523.9916361201276
 40
1.5000000000000002
 50
50.727310180664055
 51
230.72731018066406
  0
ARC
  8
_0-0_
  6
CONTINUOUS
 62
    7
 10
974.99989313417473
 20
1496.7595346796979
 40
1.5000000000000002
 50
230.72731018066406
 51
50.727310180664063
  0
ARC
  8
_0-0_
  6
CONTINUOUS
 62
    7
 10
981.96302789979973
 20
1505.2750833857526
 40
1.5000000000000002
 50
230.72731018066406
 51
50.727310180664063
  0
ARC
  8
_0-0_
  6
CONTINUOUS
 62
    7
 10
952.4551848822216
 20
1515.4760721552839
 40
1.5000000000000002
 50
52.123443603515611
 51
230.72731018066406
  0
ARC
  8
_0-0_
  6
CONTINUOUS
 62
    7
 10
930.88124079042473
 20
1542.2089517939557
 40
41.776390075683594
 50
328.15884399414062
 51
332.66386413574219
  0
ARC
  8
_0-0_
  6
CONTINUOUS
 62
    7
 10
930.61018366151848
 20
1541.4886759150495
 40
35.097824096679688
 50
330.8720703125
 51
333.58680725097656
  0
ARC
  8
_0-0_
  6
CONTINUOUS
 62
    7
 10
954.58757013612785
 20
1742.4838693964948
 40
27.712579727172852
 50
331.52214050292969
 51
71.251968383789062
  0
ARC
  8
_0-0_
  6
CONTINUOUS
 62
    7
 10
954.58757013612785
 20
1742.4838693964948
 40
33.712577819824219
 50
330.99133300781256
 51
71.251968383789119
  0
ARC
  8
_0-0_
  6
CONTINUOUS
 62
    7
 10
970.85316461854973
 20
1773.6254557002057
 40
66.995368957519531
 50
156.72528076171875
 51
229.35952758789065
  0
ARC
  8
_0-0_
  6
CONTINUOUS
 62
    7
 10
970.85316461854973
 20
1773.6254557002057
 40
72.995368957519531
 50
156.53994750976568
 51
230.88479614257818
  0
ARC
  8
_0-0_
  6
CONTINUOUS
 62
    7
 10
933.79789728456535
 20
1631.4836862910261
 40
79.632453918457031
 50
25.502761840820334
 51
79.698089599609389
  0
ARC
  8
_0-0_
  6
CONTINUOUS
 62
    7
 10
933.79789728456535
 20
1631.4836862910261
 40
73.632453918457031
 50
22.701354980468775
 51
79.530029296875043
  0
ARC
  8
_0-0_
  6
CONTINUOUS
 62
    7
 10
951.65312189394035
 20
1747.2804697382917
 40
32.700634002685547
 50
265.6683349609375
 51
326.58024597167969
  0
ARC
  8
_0-0_
  6
CONTINUOUS
 62
    7
 10
954.02052301698723
 20
1744.5815866816511
 40
35.260261535644531
 50
260.23306274414062
 51
328.45629882812506
  0
ARC
  8
_0-0_
  6
CONTINUOUS
 62
    7
 10
936.78102106386223
 20
1719.3092783320417
 40
1.5000000000000002
 50
353.15573120117187
 51
171.75953674316406
  0
ARC
  8
_0-0_
  6
CONTINUOUS
 62
    7
 10
934.41493219667461
 20
1702.9714182246198
 40
1.5000000000000002
 50
171.75953674316409
 51
351.75953674316406
  0
ARC
  8
_0-0_
  6
CONTINUOUS
 62
    7
 10
950.21296686464336
 20
1748.9328440058698
 40
34.817684173583984
 50
228.66751098632812
 51
244.12577819824216
  0
ARC
  8
_0-0_
  6
CONTINUOUS
 62
    7
 10
950.21296686464336
 20
1748.9328440058698
 40
40.817684173583984
 50
231.49710083007815
 51
246.7842712402344
  0
ARC
  8
_0-0_
  6
CONTINUOUS
 62
    7
 10
945.30134577089348
 20
1701.394803844737
 40
1.5000000000000002
 50
171.75953674316409
 51
351.75953674316406
  0
ARC
  8
_0-0_
  6
CONTINUOUS
 62
    7
 10
947.6674651556591
 20
1717.7326792109479
 40
1.5000000000000002
 50
351.75953674316401
 51
171.75953674316406
  0
ARC
  8
_0-0_
  6
CONTINUOUS
 62
    7
 10
961.41389459901848
 20
1755.8419626582136
 40
12.993658065795898
 50
77.814468383789091
 51
163.05886840820315
  0
ARC
  8
_0-0_
  6
CONTINUOUS
 62
    7
 10
961.41389459901848
 20
1755.8419626582136
 40
18.993658065795898
 50
77.814468383789091
 51
163.05886840820315
  0
ARC
  8
_0-0_
  6
CONTINUOUS
 62
    7
 10
946.4302825384716
 20
1761.5397775996198
 40
3.1899979114532471
 50
182.93338012695312
 51
323.18435668945312
  0
ARC
  8
_0-0_
  6
CONTINUOUS
 62
    7
 10
928.73226541811027
 20
1662.3734720576276
 40
53.517715454101563
 50
164.50531005859378
 51
223.5832214355469
  0
ARC
  8
_0-0_
  6
CONTINUOUS
 62
    7
 10
928.73226541811027
 20
1662.3734720576276
 40
47.51771545410157
 50
164.30543518066409
 51
223.5832214355469
  0
ARC
  8
_0-0_
  6
CONTINUOUS
 62
    7
 10
922.53548807436016
 20
1640.7635782587995
 40
23.259891510009766
 50
317.14909362792969
 51
83.468231201171932
  0
ARC
  8
_0-0_
  6
CONTINUOUS
 62
    7
 10
915.02950662904777
 20
1648.7385843623151
 40
34.194511413574219
 50
222.86274719238281
 51
315.90583801269531
  0
ARC
  8
_0-0_
  6
CONTINUOUS
 62
    7
 10
915.02950662904777
 20
1648.7385843623151
 40
28.194511413574222
 50
222.86274719238281
 51
310.75918579101568
  0
ARC
  8
_0-0_
  6
CONTINUOUS
 62
    7
 10
924.30508035951652
 20
1660.9532297480573
 40
3.0479569435119629
 50
73.290969848632812
 51
273.64549255371099
  0
ARC
  8
_0-0_
  6
CONTINUOUS
 62
    7
 10
922.53548807436016
 20
1640.7635782587995
 40
17.259891510009766
 50
309.16973876953125
 51
83.468231201171875
  0
ARC
  8
_0-0_
  6
CONTINUOUS
 62
    7
 10
904.62027353578605
 20
1324.5590494502057
 40
387.71212768554687
 50
85.641708374023466
 51
86.898818969726591
  0
ARC
  8
_0-0_
  6
CONTINUOUS
 62
    7
 10
918.54547876649895
 20
1495.7915752757062
 40
210.05921936035156
 50
85.988159179687472
 51
88.311660766601534
  0
ARC
  8
_0-0_
  6
CONTINUOUS
 62
    7
 10
927.0748023443798
 20
1633.9852884638776
 40
79.021484375
 50
343.21043395996094
 51
19.144485473632827
  0
ARC
  8
_0-0_
  6
CONTINUOUS
 62
    7
 10
922.3840827398875
 20
1633.4211862910261
 40
89.348739624023438
 50
344.15785217285156
 51
21.226074218750007
  0
ARC
  8
_0-0_
  6
CONTINUOUS
 62
    7
 10
748.3057708197216
 20
1771.7915018427839
 40
312.37933349609375
 50
333.24874877929687
 51
357.13107299804687
  0
ARC
  8
_0-0_
  6
CONTINUOUS
 62
    7
 10
959.94657892519035
 20
1773.4026773798932
 40
57.24263000488282
 50
82.120880126953139
 51
152.2021179199219
  0
ARC
  8
_0-0_
  6
CONTINUOUS
 62
    7
 10
959.94657892519035
 20
1773.4026773798932
 40
63.242630004882812
 50
82.872482299804716
 51
152.41751098632815
  0
ARC
  8
_0-0_
  6
CONTINUOUS
 62
    7
 10
963.57014507585563
 20
1737.796659313487
 40
98.450561523437514
 50
10.747940063476584
 51
87.541290283203153
  0
ARC
  8
_0-0_
  6
CONTINUOUS
 62
    7
 10
748.3057708197216
 20
1771.7915018427839
 40
306.37933349609375
 50
333.24874877929687
 51
357.13107299804687
  0
ARC
  8
_0-0_
  6
CONTINUOUS
 62
    7
 10
963.57014507585563
 20
1737.796659313487
 40
92.4505615234375
 50
10.747940063476584
 51
87.541290283203153
  0
ARC
  8
_0-0_
  6
CONTINUOUS
 62
    7
 10
1014.6004065924267
 20
1355.2376688349714
 40
44.865211486816406
 50
264.10435485839844
 51
347.65093994140625
  0
ARC
  8
_0-0_
  6
CONTINUOUS
 62
    7
 10
1014.6004065924267
 20
1355.2376688349714
 40
38.865211486816406
 50
264.46659851074219
 51
347.892333984375
  0
ARC
  8
_0-0_
  6
CONTINUOUS
 62
    7
 10
980.9996184759716
 20
1279.8292978632917
 40
27.712579727172852
 50
151.52214050292969
 51
251.25196838378906
  0
ARC
  8
_0-0_
  6
CONTINUOUS
 62
    7
 10
980.9996184759716
 20
1279.8292978632917
 40
33.712577819824219
 50
150.9913330078125
 51
251.25196838378906
  0
ARC
  8
_0-0_
  6
CONTINUOUS
 62
    7
 10
964.73402399354973
 20
1248.6877115595807
 40
66.995368957519531
 50
336.72528076171875
 51
49.359527587890632
  0
ARC
  8
_0-0_
  6
CONTINUOUS
 62
    7
 10
964.73402399354973
 20
1248.6877115595807
 40
72.995368957519531
 50
336.53994750976568
 51
50.884796142578168
  0
ARC
  8
_0-0_
  6
CONTINUOUS
 62
    7
 10
1001.7892913275341
 20
1390.8294809687604
 40
79.632453918457031
 50
205.50276184082034
 51
259.69808959960937
  0
ARC
  8
_0-0_
  6
CONTINUOUS
 62
    7
 10
1001.7892913275341
 20
1390.8294809687604
 40
73.632453918457031
 50
202.70135498046878
 51
259.53002929687506
  0
ARC
  8
_0-0_
  6
CONTINUOUS
 62
    7
 10
983.9340667181591
 20
1275.0326975214948
 40
32.700634002685547
 50
85.6683349609375
 51
146.58024597167969
  0
ARC
  8
_0-0_
  6
CONTINUOUS
 62
    7
 10
981.56666559511223
 20
1277.7315805781354
 40
35.260261535644531
 50
80.233062744140625
 51
148.456298828125
  0
ARC
  8
_0-0_
  6
CONTINUOUS
 62
    7
 10
998.80616754823723
 20
1303.0038889277448
 40
1.5000000000000002
 50
173.15573120117187
 51
351.75953674316401
  0
ARC
  8
_0-0_
  6
CONTINUOUS
 62
    7
 10
1001.1722564154247
 20
1319.3417490351667
 40
1.5000000000000002
 50
351.75953674316406
 51
171.75953674316409
  0
ARC
  8
_0-0_
  6
CONTINUOUS
 62
    7
 10
985.37422174745598
 20
1273.3803232539167
 40
34.817684173583984
 50
48.667510986328132
 51
64.125778198242202
  0
ARC
  8
_0-0_
  6
CONTINUOUS
 62
    7
 10
985.37422174745598
 20
1273.3803232539167
 40
40.817684173583984
 50
51.497100830078125
 51
66.784271240234375
  0
ARC
  8
_0-0_
  6
CONTINUOUS
 62
    7
 10
990.28584284120598
 20
1320.9183634150495
 40
1.5000000000000002
 50
351.75953674316406
 51
171.75953674316409
  0
ARC
  8
_0-0_
  6
CONTINUOUS
 62
    7
 10
987.91972345644024
 20
1304.5804880488386
 40
1.5000000000000002
 50
171.75953674316406
 51
351.75953674316401
  0
ARC
  8
_0-0_
  6
CONTINUOUS
 62
    7
 10
974.17329401308098
 20
1266.4712046015729
 40
12.993658065795898
 50
257.81446838378906
 51
343.05886840820312
  0
ARC
  8
_0-0_
  6
CONTINUOUS
 62
    7
 10
974.17329401308098
 20
1266.4712046015729
 40
18.993658065795898
 50
257.81446838378906
 51
343.05886840820312
  0
ARC
  8
_0-0_
  6
CONTINUOUS
 62
    7
 10
989.15690607362774
 20
1260.7733896601667
 40
3.1899979114532471
 50
2.933380126953125
 51
143.1843566894531
  0
ARC
  8
_0-0_
  6
CONTINUOUS
 62
    7
 10
1006.8549231939892
 20
1359.9396952021589
 40
53.517715454101563
 50
344.50531005859381
 51
43.583221435546903
  0
ARC
  8
_0-0_
  6
CONTINUOUS
 62
    7
 10
1006.8549231939892
 20
1359.9396952021589
 40
47.51771545410157
 50
344.30543518066412
 51
43.583221435546911
  0
ARC
  8
_0-0_
  6
CONTINUOUS
 62
    7
 10
1013.0517005377392
 20
1381.549589000987
 40
23.259891510009766
 50
137.14909362792972
 51
263.46823120117193
  0
ARC
  8
_0-0_
  6
CONTINUOUS
 62
    7
 10
1020.5576819830516
 20
1373.5745828974714
 40
34.194511413574219
 50
42.862747192382813
 51
135.90583801269531
  0
ARC
  8
_0-0_
  6
CONTINUOUS
 62
    7
 10
1020.5576819830516
 20
1373.5745828974714
 40
28.194511413574222
 50
42.862747192382813
 51
130.75918579101562
  0
ARC
  8
_0-0_
  6
CONTINUOUS
 62
    7
 10
1011.2821082525829
 20
1361.3599375117292
 40
3.0479569435119629
 50
253.29096984863281
 51
93.645492553710952
  0
ARC
  8
_0-0_
  6
CONTINUOUS
 62
    7
 10
1013.0517005377392
 20
1381.549589000987
 40
17.259891510009766
 50
129.16973876953125
 51
263.46823120117187
  0
ARC
  8
_0-0_
  6
CONTINUOUS
 62
    7
 10
1030.9669150763134
 20
1697.7541178095807
 40
387.71212768554687
 50
265.64170837402344
 51
266.89881896972656
  0
ARC
  8
_0-0_
  6
CONTINUOUS
 62
    7
 10
1017.0417098456005
 20
1526.5215919840803
 40
210.05921936035156
 50
265.9881591796875
 51
268.31166076660156
  0
ARC
  8
_0-0_
  6
CONTINUOUS
 62
    7
 10
1008.5123862677196
 20
1388.3278787959089
 40
79.021484375
 50
163.21043395996097
 51
199.14448547363281
  0
ARC
  8
_0-0_
  6
CONTINUOUS
 62
    7
 10
1013.2031058722118
 20
1388.8919809687604
 40
89.348739624023438
 50
164.15785217285156
 51
201.22607421875
  0
ARC
  8
_0-0_
  6
CONTINUOUS
 62
    7
 10
1187.2814177923779
 20
1250.5216654170026
 40
312.37933349609375
 50
153.24874877929687
 51
177.13107299804687
  0
ARC
  8
_0-0_
  6
CONTINUOUS
 62
    7
 10
975.6406096869091
 20
1248.9104898798932
 40
57.24263000488282
 50
262.12088012695312
 51
332.20211791992187
  0
ARC
  8
_0-0_
  6
CONTINUOUS
 62
    7
 10
975.6406096869091
 20
1248.9104898798932
 40
63.242630004882812
 50
262.87248229980469
 51
332.41751098632818
  0
ARC
  8
_0-0_
  6
CONTINUOUS
 62
    7
 10
972.01704353624382
 20
1284.5165079462995
 40
98.450561523437514
 50
190.74794006347659
 51
267.54129028320313
  0
ARC
  8
_0-0_
  6
CONTINUOUS
 62
    7
 10
1187.2814177923779
 20
1250.5216654170026
 40
306.37933349609375
 50
153.24874877929687
 51
177.13107299804687
  0
ARC
  8
_0-0_
  6
CONTINUOUS
 62
    7
 10
972.01704353624382
 20
1284.5165079462995
 40
92.4505615234375
 50
190.74794006347659
 51
267.54129028320313
  0
ARC
  8
_0-0_
  6
CONTINUOUS
 62
    7
 10
959.53944391542461
 20
1180.7526529658307
 40
1.5000000000000002
 50
90
 51
270
  0
ARC
  8
_0-0_
  6
CONTINUOUS
 62
    7
 10
976.04774469667473
 20
1169.7526529658307
 40
1.5000000000000002
 50
270
 51
90
  0
ARC
  8
_0-0_
  6
CONTINUOUS
 62
    7
 10
976.04774469667473
 20
1180.7526529658307
 40
1.5000000000000002
 50
270
 51
90
  0
ARC
  8
_0-0_
  6
CONTINUOUS
 62
    7
 10
959.53944391542461
 20
1169.7526529658307
 40
1.5000000000000002
 50
91.396194458007784
 51
270
  0
ARC
  8
_0-0_
  6
CONTINUOUS
 62
    7
 10
959.53944391542461
 20
1852.5605448115339
 40
1.5000000000000002
 50
90
 51
270
  0
ARC
  8
_0-0_
  6
CONTINUOUS
 62
    7
 10
959.53944391542461
 20
1841.5605448115339
 40
1.5000000000000002
 50
90
 51
270
  0
ARC
  8
_0-0_
  6
CONTINUOUS
 62
    7
 10
976.04774469667473
 20
1841.5605448115339
 40
1.5000000000000002
 50
270
 51
90
  0
ARC
  8
_0-0_
  6
CONTINUOUS
 62
    7
 10
976.04774469667473
 20
1852.5605448115339
 40
1.5000000000000002
 50
271.39619445800781
 51
90
  0
ENDSEC
  0
EOF
