  0
SECTION
  2
HEADER
  9
$ACADVER
  1
AC1009
  9
$INSBASE
 10
0
 20
0
 30
0
  9
$EXTMIN
 10
0
 20
0
  9
$EXTMAX
 10
2100
 20
1485
  9
$LIMMIN
 10
0
 20
0
  9
$LIMMAX
 10
2100
 20
1485
  9
$LTSCALE
 40
5
  0
ENDSEC
  0
SECTION
  2
TABLES
  0
TABLE
  2
LTYPE
 70
     9
  0
LTYPE
  2
CONTINUOUS
 70
    64
  3
実線
 72
    65
 73
     0
 40
0.0
  0
LTYPE
  2
DASHED1
 70
    64
  3
--  --  --  --  --  --  --  --  
 72
    65
 73
     2
 40
2.5
 49
1.25
 49
-1.25
  0
LTYPE
  2
DASHED2
 70
    64
  3
----    ----    ----    ----    
 72
    65
 73
     2
 40
5.0
 49
2.5
 49
-2.5
  0
LTYPE
  2
DASHED3
 70
    64
  3
------  ------  ------  ------  
 72
    65
 73
     2
 40
5.0
 49
3.75
 49
-1.25
  0
LTYPE
  2
CENTER1
 70
    64
  3
----- - ----- - ----- - ----- - 
 72
    65
 73
     4
 40
10.0
 49
6.25
 49
-1.25
 49
1.25
 49
-1.25
  0
LTYPE
  2
CENTER2
 70
    64
  3
----------  --  ----------  --  
 72
    65
 73
     4
 40
20.0
 49
12.5
 49
-2.5
 49
2.5
 49
-2.5
  0
LTYPE
  2
PHANTOM1
 70
    64
  3
--- - - --- - - --- - - --- - - 
 72
    65
 73
     6
 40
10.0
 49
3.25
 49
-1.25
 49
1.25
 49
-1.25
 49
1.25
 49
-1.25
  0
LTYPE
  2
PHANTOM2
 70
    64
  3
--------  -  -  --------  -  -  
 72
    65
 73
     6
 40
20.0
 49
10.0
 49
-2.5
 49
1.25
 49
-2.5
 49
1.25
 49
-2.5
  0
LTYPE
  2
DOT
 70
    64
  3
-   -   -   -   -   -   -   -   
 72
    65
 73
     2
 40
2.5
 49
0.625
 49
-1.875
  0
LTYPE
  2
DUMMY
 70
    64
  3
ダミー
 72
    65
 73
     0
 40
0.0
  0
LTYPE
  2
RAND1
 70
    64
  3
ランダム線1
 72
    65
 73
     4
 40
10.0
 49
1.0
 49
-2.0
 49
3.0
 49
-4.0
  0
LTYPE
  2
RAND2
 70
    64
  3
ランダム線2
 72
    65
 73
     4
 40
14.0
 49
2.0
 49
-3.0
 49
4.0
 49
-5.0
  0
LTYPE
  2
RAND3
 70
    64
  3
ランダム線3
 72
    65
 73
     4
 40
18.0
 49
3.0
 49
-4.0
 49
5.0
 49
-6.0
  0
LTYPE
  2
RAND4
 70
    64
  3
ランダム線4
 72
    65
 73
     4
 40
22.0
 49
4.0
 49
-5.0
 49
6.0
 49
-7.0
  0
LTYPE
  2
RAND5
 70
    64
  3
ランダム線5
 72
    65
 73
     4
 40
26.0
 49
5.0
 49
-6.0
 49
7.0
 49
-8.0
  0
LTYPE
  2
LONG1
 70
    64
  3
----------  --  ----------  --  
 72
    65
 73
     4
 40
40.0
 49
32.5
 49
-2.5
 49
2.5
 49
-2.5
  0
LTYPE
  2
LONG2
 70
    64
  3
--------  -  -  --------  -  -  
 72
    65
 73
     6
 40
40.0
 49
30.0
 49
-2.5
 49
1.25
 49
-2.5
 49
1.25
 49
-2.5
  0
LTYPE
  2
LONG3
 70
    64
  3
+++++++++++++++..+++++++++++++++
 72
    65
 73
     2
 40
40.0
 49
37.5
 49
-2.5
  0
LTYPE
  2
LONG4
 70
    64
  3
+++++++++++++++..+++++++++++++++
 72
    65
 73
     2
 40
80.0
 49
75.0
 49
-5.0
  0
LTYPE
  2
LONG5
 70
    64
  3
----------  --  ----------  --  
 72
    65
 73
     4
 40
60.0
 49
37.5
 49
-7.5
 49
7.5
 49
-7.5
  0
LTYPE
  2
dashed
 70
   64
  3
-------   -------------   ------
 72
   65
 73
    2
 40
7.5
 49
6
 49
-1.5
  0
LTYPE
  2
dashed_spaced
 70
   64
  3
----        --------        ----
 72
   65
 73
    2
 40
12
 49
6
 49
-6
  0
LTYPE
  2
long_dashed_dotted
 70
   64
  3
------------- --- --------------
 72
   65
 73
    4
 40
15.25
 49
12
 49
-1.5
 49
0.25
 49
-1.5
  0
LTYPE
  2
long_dashed_double-dotted
 70
   64
  3
----------- --- --- ------------
 72
   65
 73
    6
 40
17
 49
12
 49
-1.5
 49
0.25
 49
-1.5
 49
0.25
 49
-1.5
  0
LTYPE
  2
long_dashed_triplicate-dotted
 70
   64
  3
--------- --- --- --- ----------
 72
   65
 73
    8
 40
18.75
 49
12
 49
-1.5
 49
0.25
 49
-1.5
 49
0.25
 49
-1.5
 49
0.25
 49
-1.5
  0
LTYPE
  2
dotted
 70
   64
  3
   -       -       -       -    
 72
   65
 73
    2
 40
1.75
 49
0.25
 49
-1.5
  0
LTYPE
  2
chain
 70
   64
  3
-------------- -- --------------
 72
   65
 73
    4
 40
18.5
 49
12
 49
-1.5
 49
3.5
 49
-1.5
  0
LTYPE
  2
chain_double_dash
 70
   64
  3
------------ -- -- -------------
 72
   65
 73
    6
 40
23.5
 49
12
 49
-1.5
 49
3.5
 49
-1.5
 49
3.5
 49
-1.5
  0
LTYPE
  2
dashed_dotted
 70
   64
  3
-----------     -     ----------
 72
   65
 73
    4
 40
9.25
 49
6
 49
-1.5
 49
0.25
 49
-1.5
  0
LTYPE
  2
double-dashed_dotted
 70
   64
  3
------   -----------   -   -----
 72
   65
 73
    6
 40
16.75
 49
6
 49
-1.5
 49
6
 49
-1.5
 49
0.25
 49
-1.5
  0
LTYPE
  2
dashed_double-dotted
 70
   64
  3
---------    -    -    ---------
 72
   65
 73
    6
 40
11
 49
6
 49
-1.5
 49
0.25
 49
-1.5
 49
0.25
 49
-1.5
  0
LTYPE
  2
double-dashed_double-dotted
 70
   64
  3
-----   ---------   -   -   ----
 72
   65
 73
    8
 40
18.5
 49
6
 49
-1.5
 49
6
 49
-1.5
 49
0.25
 49
-1.5
 49
0.25
 49
-1.5
  0
LTYPE
  2
dashed_triplicate-dotted
 70
   64
  3
-------    -    -    -    ------
 72
   65
 73
    8
 40
12.75
 49
6
 49
-1.5
 49
0.25
 49
-1.5
 49
0.25
 49
-1.5
 49
0.25
 49
-1.5
  0
LTYPE
  2
double-dashed_triplicate-dotted
 70
   64
  3
-----  ---------  -  -  -  -----
 72
   65
 73
   10
 40
20.25
 49
6
 49
-1.5
 49
6
 49
-1.5
 49
0.25
 49
-1.5
 49
0.25
 49
-1.5
 49
0.25
 49
-1.5
  0
LTYPE
  2
undefined
 70
   64
  3
--------------------------------
 72
   65
 73
    0
 40
0
  0
LTYPE
  2
BORDER
 70
   64
  3
----     --------     -     ----
 72
   65
 73
    6
 40
1.76
 49
0.5
 49
-0.25
 49
0.5
 49
-0.25
 49
0.01
 49
-0.25
  0
LTYPE
  2
BORDER2
 70
   64
  3
----     --------     -     ----
 72
   65
 73
    6
 40
0.885
 49
0.25
 49
-0.125
 49
0.25
 49
-0.125
 49
0.01
 49
-0.125
  0
LTYPE
  2
BORDERX2
 70
   64
  3
----     --------     -     ----
 72
   65
 73
    6
 40
3.5099999999999998
 49
1
 49
-0.5
 49
1
 49
-0.5
 49
0.01
 49
-0.5
  0
LTYPE
  2
CENTER
 70
   64
  3
----------    ----    ----------
 72
   65
 73
    4
 40
2
 49
1.25
 49
-0.25
 49
0.25
 49
-0.25
  0
LTYPE
  2
CENTER2_21
 70
   64
  3
----------    ----    ----------
 72
   65
 73
    4
 40
1.125
 49
0.75
 49
-0.125
 49
0.125
 49
-0.125
  0
LTYPE
  2
CENTERX2
 70
   64
  3
----------    ----    ----------
 72
   65
 73
    4
 40
4
 49
2.5
 49
-0.5
 49
0.5
 49
-0.5
  0
LTYPE
  2
DASHDOT
 70
   64
  3
--------        -        -------
 72
   65
 73
    4
 40
1.01
 49
0.5
 49
-0.25
 49
0.01
 49
-0.25
  0
LTYPE
  2
DASHDOT2
 70
   64
  3
--------        -        -------
 72
   65
 73
    4
 40
0.51
 49
0.25
 49
-0.125
 49
0.01
 49
-0.125
  0
LTYPE
  2
DASHDOTX2
 70
   64
  3
--------        -        -------
 72
   65
 73
    4
 40
2.0099999999999998
 49
1
 49
-0.5
 49
0.01
 49
-0.5
  0
LTYPE
  2
DASHED
 70
   64
  3
------     -----------     -----
 72
   65
 73
    2
 40
0.75
 49
0.5
 49
-0.25
  0
LTYPE
  2
DASHED2_27
 70
   64
  3
------     -----------     -----
 72
   65
 73
    2
 40
0.375
 49
0.25
 49
-0.125
  0
LTYPE
  2
DASHEDX2
 70
   64
  3
------     -----------     -----
 72
   65
 73
    2
 40
1.5
 49
1
 49
-0.5
  0
LTYPE
  2
DIVIDE
 70
   64
  3
------      -      -      ------
 72
   65
 73
    6
 40
1.27
 49
0.5
 49
-0.25
 49
0.01
 49
-0.25
 49
0.01
 49
-0.25
  0
LTYPE
  2
DIVIDE2
 70
   64
  3
------      -      -      ------
 72
   65
 73
    6
 40
0.645
 49
0.25
 49
-0.125
 49
0.01
 49
-0.125
 49
0.01
 49
-0.125
  0
LTYPE
  2
DIVIDEX2
 70
   64
  3
------      -      -      ------
 72
   65
 73
    6
 40
2.5199999999999996
 49
1
 49
-0.5
 49
0.01
 49
-0.5
 49
0.01
 49
-0.5
  0
LTYPE
  2
DOT_32
 70
   64
  3
-               -               
 72
   65
 73
    2
 40
0.26
 49
0.01
 49
-0.25
  0
ENDTAB
  0
TABLE
  2
STYLE
  5
3
100
AcDbSymbolTable
 70
     1
  0
STYLE
  5
10
100
AcDbSymbolTableRecord
100
AcDbTextStyleTableRecord
  2
STANDARD
 70
     0
 40
0.0
 41
1.0
 50
0.0
 71
     0
 42
0.2
  3
txt
  4
bigfont.shx
  0
STYLE
  5
26
100
AcDbSymbolTableRecord
100
AcDbTextStyleTableRecord
  2
TATEGAKI
 70
    68
 40
0.0
 41
1.0
 50
0.0
 71
     0
 42
1.0
  3
txt
  4
bigfont.shx
  0
ENDTAB
  0
TABLE
  2
LAYER
 70
    2
  0
LAYER
  2
_0-0_0
 70
   64
 62
    7
  6
CONTINUOUS
  0
LAYER
  2
ADD_LINE
 70
   64
 62
    7
  6
CONTINUOUS
  0
ENDTAB
  0
ENDSEC
  0
SECTION
  2
BLOCKS
  0
ENDSEC
  0
SECTION
  2
ENTITIES
  0
LINE
  8
_0-0_0
  6
CONTINUOUS
 62
    7
 10
1037.5857319162678
 20
927.56472967060881
 11
1037.5857319162678
 21
1342.5647296706102
  0
LINE
  8
_0-0_0
  6
CONTINUOUS
 62
    7
 10
1062.5857319162678
 20
905.06472967060881
 11
1062.5857319162678
 21
909.29871331743789
  0
ARC
  8
_0-0_0
  6
CONTINUOUS
 62
    7
 10
1055.2940652496018
 20
877.56472967060881
 40
32.708333333333663
 50
122.77908066807042
 51
237.22091933192959
  0
ARC
  8
_0-0_0
  6
CONTINUOUS
 62
    7
 10
1044.8773985829339
 20
877.56472967060881
 40
32.708333333333663
 50
302.77908066808379
 51
57.2209193319162
  0
ARC
  8
_0-0_0
  6
CONTINUOUS
 62
    7
 10
1071.3317062964452
 20
877.56472967060881
 40
38.711666457610747
 50
134.73414499212021
 51
225.26585500788019
  0
ARC
  8
_0-0_0
  6
CONTINUOUS
 62
    7
 10
1028.8397575360859
 20
877.56472967060881
 40
38.711666457615543
 50
314.73414499213408
 51
45.265855007865426
  0
LINE
  8
_0-0_0
  6
CONTINUOUS
 62
    7
 10
1050.0857319162678
 20
905.06472967060881
 11
1050.0857319162678
 21
850.06472967060881
  0
ARC
  8
_0-0_0
  6
CONTINUOUS
 62
    7
 10
1033.0857319162669
 20
918.4317214940229
 40
2.9999999999986344
 50
140.66857366187679
 51
219.33142633810971
  0
LINE
  8
_0-0_0
  6
CONTINUOUS
 62
    7
 10
1030.7652538513057
 20
916.53030582404699
 11
1037.5857319162669
 21
909.29871331743789
  0
LINE
  8
_0-0_0
  6
CONTINUOUS
 62
    7
 10
1037.5857319162669
 20
909.29871331743789
 11
1037.5857319162678
 21
905.06472967060881
  0
LINE
  8
_0-0_0
  6
CONTINUOUS
 62
    7
 10
1062.5857319162687
 20
927.56472967060881
 11
1062.5857319162587
 21
1342.5647296706102
  0
LINE
  8
_0-0_0
  6
CONTINUOUS
 62
    7
 10
1062.5857319162678
 20
827.56472967060881
 11
1062.5857319162506
 21
142.56472967060901
  0
LINE
  8
_0-0_0
  6
CONTINUOUS
 62
    7
 10
1037.5857319162669
 20
827.56472967060881
 11
1037.5857319162669
 21
142.56472967060901
  0
LINE
  8
_0-0_0
  6
CONTINUOUS
 62
    7
 10
1062.5857319162524
 20
142.56472967060901
 11
1037.5857319162669
 21
142.56472967060901
  0
LINE
  8
_0-0_0
  6
CONTINUOUS
 62
    7
 10
1062.5857319162524
 20
1342.5647296706088
 11
1037.5857319162669
 21
1342.5647296706088
  0
LINE
  8
_0-0_0
  6
CONTINUOUS
 62
    7
 10
1062.5857319162687
 20
927.56472967060881
 11
1037.5857319162678
 21
927.56472967060881
  0
LINE
  8
_0-0_0
  6
CONTINUOUS
 62
    7
 10
1037.5857319162678
 20
927.56472967060881
 11
1030.7652538513057
 21
920.3331371639988
  0
ARC
  8
_0-0_0
  6
CONTINUOUS
 62
    7
 10
1067.0857319162697
 20
918.4317214940229
 40
2.9999999999986344
 50
320.66857366188316
 51
39.331426338125006
  0
LINE
  8
_0-0_0
  6
CONTINUOUS
 62
    7
 10
1069.4062099812299
 20
916.53030582404699
 11
1062.5857319162687
 21
909.29871331743789
  0
LINE
  8
_0-0_0
  6
CONTINUOUS
 62
    7
 10
1062.5857319162678
 20
927.56472967060881
 11
1069.4062099812299
 21
920.3331371639988
  0
LINE
  8
_0-0_0
  6
CONTINUOUS
 62
    7
 10
1037.5857319162669
 20
909.29871331743789
 11
1062.5857319162678
 21
909.29871331743698
  0
LINE
  8
_0-0_0
  6
CONTINUOUS
 62
    7
 10
1037.5857319162678
 20
905.06472967060881
 11
1062.5857319162678
 21
905.06472967060881
  0
LINE
  8
_0-0_0
  6
CONTINUOUS
 62
    7
 10
1030.7652538513057
 20
920.3331371639988
 11
1069.4062099812299
 21
920.3331371639988
  0
LINE
  8
_0-0_0
  6
CONTINUOUS
 62
    7
 10
1069.4062099812327
 20
916.53030582405017
 11
1030.7652538513057
 21
916.53030582404699
  0
LINE
  8
_0-0_0
  6
CONTINUOUS
 62
    7
 10
1062.5857319162678
 20
850.06472967060881
 11
1062.5857319162678
 21
845.83074602378019
  0
ARC
  8
_0-0_0
  6
CONTINUOUS
 62
    7
 10
1033.0857319162669
 20
836.69773784719519
 40
2.9999999999986344
 50
140.6685736619084
 51
219.33142633813733
  0
LINE
  8
_0-0_0
  6
CONTINUOUS
 62
    7
 10
1030.7652538513057
 20
838.59915351717109
 11
1037.5857319162669
 21
845.83074602378019
  0
LINE
  8
_0-0_0
  6
CONTINUOUS
 62
    7
 10
1037.5857319162669
 20
845.83074602378019
 11
1037.5857319162678
 21
850.06472967060881
  0
LINE
  8
_0-0_0
  6
CONTINUOUS
 62
    7
 10
1062.5857319162687
 20
827.56472967060881
 11
1037.5857319162678
 21
827.56472967060881
  0
LINE
  8
_0-0_0
  6
CONTINUOUS
 62
    7
 10
1037.5857319162678
 20
827.56472967060881
 11
1030.7652538513057
 21
834.79632217722019
  0
ARC
  8
_0-0_0
  6
CONTINUOUS
 62
    7
 10
1067.0857319162697
 20
836.69773784719519
 40
2.9999999999986344
 50
320.66857366186201
 51
39.331426338134754
  0
LINE
  8
_0-0_0
  6
CONTINUOUS
 62
    7
 10
1069.4062099812299
 20
838.59915351717109
 11
1062.5857319162687
 21
845.83074602378019
  0
LINE
  8
_0-0_0
  6
CONTINUOUS
 62
    7
 10
1062.5857319162678
 20
827.56472967060881
 11
1069.4062099812299
 21
834.79632217722019
  0
LINE
  8
_0-0_0
  6
CONTINUOUS
 62
    7
 10
1037.5857319162669
 20
845.83074602378019
 11
1062.5857319162678
 21
845.8307460237811
  0
LINE
  8
_0-0_0
  6
CONTINUOUS
 62
    7
 10
1037.5857319162678
 20
850.06472967060881
 11
1062.5857319162678
 21
850.06472967060881
  0
LINE
  8
_0-0_0
  6
CONTINUOUS
 62
    7
 10
1030.7652538513057
 20
834.79632217722019
 11
1069.4062099812299
 21
834.79632217722019
  0
LINE
  8
_0-0_0
  6
CONTINUOUS
 62
    7
 10
1069.4062099812327
 20
838.59915351716791
 11
1030.7652538513057
 21
838.59915351717109
  0
ENDSEC
  0
EOF
