  0
SECTION
  2
HEADER
  9
$ACADVER
  1
AC1009
  9
$INSBASE
 10
0
 20
0
 30
0
  9
$EXTMIN
 10
0
 20
0
  9
$EXTMAX
 10
2376
 20
1680
  9
$LIMMIN
 10
0
 20
0
  9
$LIMMAX
 10
2376
 20
1680
  9
$LTSCALE
 40
4
  0
ENDSEC
  0
SECTION
  2
TABLES
  0
TABLE
  2
LTYPE
 70
     9
  0
LTYPE
  2
CONTINUOUS
 70
    64
  3
実線
 72
    65
 73
     0
 40
0.0
  0
LTYPE
  2
DASHED1
 70
    64
  3
--  --  --  --  --  --  --  --  
 72
    65
 73
     2
 40
2.5
 49
1.25
 49
-1.25
  0
LTYPE
  2
DASHED2
 70
    64
  3
----    ----    ----    ----    
 72
    65
 73
     2
 40
5.0
 49
2.5
 49
-2.5
  0
LTYPE
  2
DASHED3
 70
    64
  3
------  ------  ------  ------  
 72
    65
 73
     2
 40
5.0
 49
3.75
 49
-1.25
  0
LTYPE
  2
CENTER1
 70
    64
  3
----- - ----- - ----- - ----- - 
 72
    65
 73
     4
 40
10.0
 49
6.25
 49
-1.25
 49
1.25
 49
-1.25
  0
LTYPE
  2
CENTER2
 70
    64
  3
----------  --  ----------  --  
 72
    65
 73
     4
 40
20.0
 49
12.5
 49
-2.5
 49
2.5
 49
-2.5
  0
LTYPE
  2
PHANTOM1
 70
    64
  3
--- - - --- - - --- - - --- - - 
 72
    65
 73
     6
 40
10.0
 49
3.25
 49
-1.25
 49
1.25
 49
-1.25
 49
1.25
 49
-1.25
  0
LTYPE
  2
PHANTOM2
 70
    64
  3
--------  -  -  --------  -  -  
 72
    65
 73
     6
 40
20.0
 49
10.0
 49
-2.5
 49
1.25
 49
-2.5
 49
1.25
 49
-2.5
  0
LTYPE
  2
DOT
 70
    64
  3
-   -   -   -   -   -   -   -   
 72
    65
 73
     2
 40
2.5
 49
0.625
 49
-1.875
  0
LTYPE
  2
DUMMY
 70
    64
  3
ダミー
 72
    65
 73
     0
 40
0.0
  0
LTYPE
  2
RAND1
 70
    64
  3
ランダム線1
 72
    65
 73
     4
 40
10.0
 49
1.0
 49
-2.0
 49
3.0
 49
-4.0
  0
LTYPE
  2
RAND2
 70
    64
  3
ランダム線2
 72
    65
 73
     4
 40
14.0
 49
2.0
 49
-3.0
 49
4.0
 49
-5.0
  0
LTYPE
  2
RAND3
 70
    64
  3
ランダム線3
 72
    65
 73
     4
 40
18.0
 49
3.0
 49
-4.0
 49
5.0
 49
-6.0
  0
LTYPE
  2
RAND4
 70
    64
  3
ランダム線4
 72
    65
 73
     4
 40
22.0
 49
4.0
 49
-5.0
 49
6.0
 49
-7.0
  0
LTYPE
  2
RAND5
 70
    64
  3
ランダム線5
 72
    65
 73
     4
 40
26.0
 49
5.0
 49
-6.0
 49
7.0
 49
-8.0
  0
LTYPE
  2
LONG1
 70
    64
  3
----------  --  ----------  --  
 72
    65
 73
     4
 40
40.0
 49
32.5
 49
-2.5
 49
2.5
 49
-2.5
  0
LTYPE
  2
LONG2
 70
    64
  3
--------  -  -  --------  -  -  
 72
    65
 73
     6
 40
40.0
 49
30.0
 49
-2.5
 49
1.25
 49
-2.5
 49
1.25
 49
-2.5
  0
LTYPE
  2
LONG3
 70
    64
  3
+++++++++++++++..+++++++++++++++
 72
    65
 73
     2
 40
40.0
 49
37.5
 49
-2.5
  0
LTYPE
  2
LONG4
 70
    64
  3
+++++++++++++++..+++++++++++++++
 72
    65
 73
     2
 40
80.0
 49
75.0
 49
-5.0
  0
LTYPE
  2
LONG5
 70
    64
  3
----------  --  ----------  --  
 72
    65
 73
     4
 40
60.0
 49
37.5
 49
-7.5
 49
7.5
 49
-7.5
  0
LTYPE
  2
dashed
 70
   64
  3
-------   -------------   ------
 72
   65
 73
    2
 40
7.5
 49
6
 49
-1.5
  0
LTYPE
  2
dashed_spaced
 70
   64
  3
----        --------        ----
 72
   65
 73
    2
 40
12
 49
6
 49
-6
  0
LTYPE
  2
long_dashed_dotted
 70
   64
  3
------------- --- --------------
 72
   65
 73
    4
 40
15.25
 49
12
 49
-1.5
 49
0.25
 49
-1.5
  0
LTYPE
  2
long_dashed_double-dotted
 70
   64
  3
----------- --- --- ------------
 72
   65
 73
    6
 40
17
 49
12
 49
-1.5
 49
0.25
 49
-1.5
 49
0.25
 49
-1.5
  0
LTYPE
  2
long_dashed_triplicate-dotted
 70
   64
  3
--------- --- --- --- ----------
 72
   65
 73
    8
 40
18.75
 49
12
 49
-1.5
 49
0.25
 49
-1.5
 49
0.25
 49
-1.5
 49
0.25
 49
-1.5
  0
LTYPE
  2
dotted
 70
   64
  3
   -       -       -       -    
 72
   65
 73
    2
 40
1.75
 49
0.25
 49
-1.5
  0
LTYPE
  2
chain
 70
   64
  3
-------------- -- --------------
 72
   65
 73
    4
 40
18.5
 49
12
 49
-1.5
 49
3.5
 49
-1.5
  0
LTYPE
  2
chain_double_dash
 70
   64
  3
------------ -- -- -------------
 72
   65
 73
    6
 40
23.5
 49
12
 49
-1.5
 49
3.5
 49
-1.5
 49
3.5
 49
-1.5
  0
LTYPE
  2
dashed_dotted
 70
   64
  3
-----------     -     ----------
 72
   65
 73
    4
 40
9.25
 49
6
 49
-1.5
 49
0.25
 49
-1.5
  0
LTYPE
  2
double-dashed_dotted
 70
   64
  3
------   -----------   -   -----
 72
   65
 73
    6
 40
16.75
 49
6
 49
-1.5
 49
6
 49
-1.5
 49
0.25
 49
-1.5
  0
LTYPE
  2
dashed_double-dotted
 70
   64
  3
---------    -    -    ---------
 72
   65
 73
    6
 40
11
 49
6
 49
-1.5
 49
0.25
 49
-1.5
 49
0.25
 49
-1.5
  0
LTYPE
  2
double-dashed_double-dotted
 70
   64
  3
-----   ---------   -   -   ----
 72
   65
 73
    8
 40
18.5
 49
6
 49
-1.5
 49
6
 49
-1.5
 49
0.25
 49
-1.5
 49
0.25
 49
-1.5
  0
LTYPE
  2
dashed_triplicate-dotted
 70
   64
  3
-------    -    -    -    ------
 72
   65
 73
    8
 40
12.75
 49
6
 49
-1.5
 49
0.25
 49
-1.5
 49
0.25
 49
-1.5
 49
0.25
 49
-1.5
  0
LTYPE
  2
double-dashed_triplicate-dotted
 70
   64
  3
-----  ---------  -  -  -  -----
 72
   65
 73
   10
 40
20.25
 49
6
 49
-1.5
 49
6
 49
-1.5
 49
0.25
 49
-1.5
 49
0.25
 49
-1.5
 49
0.25
 49
-1.5
  0
LTYPE
  2
undefined
 70
   64
  3
--------------------------------
 72
   65
 73
    0
 40
0
  0
LTYPE
  2
BORDER
 70
   64
  3
----     --------     -     ----
 72
   65
 73
    6
 40
1.76
 49
0.5
 49
-0.25
 49
0.5
 49
-0.25
 49
0.01
 49
-0.25
  0
LTYPE
  2
BORDER2
 70
   64
  3
----     --------     -     ----
 72
   65
 73
    6
 40
0.885
 49
0.25
 49
-0.125
 49
0.25
 49
-0.125
 49
0.01
 49
-0.125
  0
LTYPE
  2
BORDERX2
 70
   64
  3
----     --------     -     ----
 72
   65
 73
    6
 40
3.5099999999999998
 49
1
 49
-0.5
 49
1
 49
-0.5
 49
0.01
 49
-0.5
  0
LTYPE
  2
CENTER
 70
   64
  3
----------    ----    ----------
 72
   65
 73
    4
 40
2
 49
1.25
 49
-0.25
 49
0.25
 49
-0.25
  0
LTYPE
  2
CENTER2_21
 70
   64
  3
----------    ----    ----------
 72
   65
 73
    4
 40
1.125
 49
0.75
 49
-0.125
 49
0.125
 49
-0.125
  0
LTYPE
  2
CENTERX2
 70
   64
  3
----------    ----    ----------
 72
   65
 73
    4
 40
4
 49
2.5
 49
-0.5
 49
0.5
 49
-0.5
  0
LTYPE
  2
DASHDOT
 70
   64
  3
--------        -        -------
 72
   65
 73
    4
 40
1.01
 49
0.5
 49
-0.25
 49
0.01
 49
-0.25
  0
LTYPE
  2
DASHDOT2
 70
   64
  3
--------        -        -------
 72
   65
 73
    4
 40
0.51
 49
0.25
 49
-0.125
 49
0.01
 49
-0.125
  0
LTYPE
  2
DASHDOTX2
 70
   64
  3
--------        -        -------
 72
   65
 73
    4
 40
2.0099999999999998
 49
1
 49
-0.5
 49
0.01
 49
-0.5
  0
LTYPE
  2
DASHED
 70
   64
  3
------     -----------     -----
 72
   65
 73
    2
 40
0.75
 49
0.5
 49
-0.25
  0
LTYPE
  2
DASHED2_27
 70
   64
  3
------     -----------     -----
 72
   65
 73
    2
 40
0.375
 49
0.25
 49
-0.125
  0
LTYPE
  2
DASHEDX2
 70
   64
  3
------     -----------     -----
 72
   65
 73
    2
 40
1.5
 49
1
 49
-0.5
  0
LTYPE
  2
DIVIDE
 70
   64
  3
------      -      -      ------
 72
   65
 73
    6
 40
1.27
 49
0.5
 49
-0.25
 49
0.01
 49
-0.25
 49
0.01
 49
-0.25
  0
LTYPE
  2
DIVIDE2
 70
   64
  3
------      -      -      ------
 72
   65
 73
    6
 40
0.645
 49
0.25
 49
-0.125
 49
0.01
 49
-0.125
 49
0.01
 49
-0.125
  0
LTYPE
  2
DIVIDEX2
 70
   64
  3
------      -      -      ------
 72
   65
 73
    6
 40
2.5199999999999996
 49
1
 49
-0.5
 49
0.01
 49
-0.5
 49
0.01
 49
-0.5
  0
LTYPE
  2
DOT_32
 70
   64
  3
-               -               
 72
   65
 73
    2
 40
0.26
 49
0.01
 49
-0.25
  0
ENDTAB
  0
TABLE
  2
STYLE
  5
3
100
AcDbSymbolTable
 70
     1
  0
STYLE
  5
10
100
AcDbSymbolTableRecord
100
AcDbTextStyleTableRecord
  2
STANDARD
 70
     0
 40
0.0
 41
1.0
 50
0.0
 71
     0
 42
0.2
  3
txt
  4
bigfont.shx
  0
STYLE
  5
26
100
AcDbSymbolTableRecord
100
AcDbTextStyleTableRecord
  2
TATEGAKI
 70
    68
 40
0.0
 41
1.0
 50
0.0
 71
     0
 42
1.0
  3
txt
  4
bigfont.shx
  0
ENDTAB
  0
TABLE
  2
LAYER
 70
    3
  0
LAYER
  2
_0-0_
 70
   64
 62
    7
  6
CONTINUOUS
  0
LAYER
  2
_0-1_LAYER_10
 70
   64
 62
    7
  6
CONTINUOUS
  0
LAYER
  2
ADD_LINE
 70
   64
 62
    7
  6
CONTINUOUS
  0
ENDTAB
  0
ENDSEC
  0
SECTION
  2
BLOCKS
  0
ENDSEC
  0
SECTION
  2
ENTITIES
  0
LINE
  8
_0-1_LAYER_10
  6
CONTINUOUS
 62
    7
 10
1176.4345934979078
 20
1377.3840554999999
 11
1201.4346004979079
 21
1377.3840554999999
  0
ARC
  8
_0-1_LAYER_10
  6
CONTINUOUS
 62
    7
 10
1176.0361904979079
 20
918.41909650000002
 40
5.6135510000000011
 50
226.636619
 51
274.069728
  0
ARC
  8
_0-1_LAYER_10
  6
CONTINUOUS
 62
    7
 10
1175.1051824979079
 20
916.96157749999998
 40
3.9281099999999989
 50
179.07230100000001
 51
221.90664400000009
  0
ARC
  8
_0-1_LAYER_10
  6
CONTINUOUS
 62
    7
 10
1176.6257444979078
 20
924.0161425
 40
2.7918910000000001
 50
266.07400799999999
 51
51.07432100000014
  0
ARC
  8
_0-1_LAYER_10
  6
CONTINUOUS
 62
    7
 10
1166.8913994979077
 20
903.74429250000003
 40
25.213263999999999
 50
62.893051000000007
 51
80.212355000000017
  0
LINE
  8
_0-1_LAYER_10
  6
CONTINUOUS
 62
    7
 10
1171.1775854979078
 20
928.59060550000004
 11
1171.1775854979078
 21
930.69338849999997
  0
LINE
  8
_0-1_LAYER_10
  6
CONTINUOUS
 62
    7
 10
1171.1775854979078
 20
930.69338849999997
 11
1188.0000004979079
 21
930.69338849999997
  0
LINE
  8
_0-1_LAYER_10
  6
CONTINUOUS
 62
    7
 10
1188.0000004979079
 20
930.69338849999997
 11
1188.0000004979079
 21
928.59060550000004
  0
LINE
  8
_0-1_LAYER_10
  6
CONTINUOUS
 62
    7
 10
1188.0000004979079
 20
928.59060550000004
 11
1171.1775854979078
 21
928.59060550000004
  0
ARC
  8
_0-1_LAYER_10
  6
CONTINUOUS
 62
    7
 10
1172.4411244979078
 20
939.22451649999994
 40
8.6241749999999993
 50
180.79641900000001
 51
261.57520799999998
  0
LINE
  8
_0-1_LAYER_10
  6
CONTINUOUS
 62
    7
 10
1176.4345934979078
 20
912.81960949999996
 11
1188.0000004979079
 21
912.81960949999996
  0
ARC
  8
_0-1_LAYER_10
  6
CONTINUOUS
 62
    7
 10
1176.0361904979079
 20
915.63149850000002
 40
5.6135510000000011
 50
85.930179999999993
 51
133.36508499999999
  0
ARC
  8
_0-1_LAYER_10
  6
CONTINUOUS
 62
    7
 10
1175.1051824979079
 20
917.0887745
 40
3.9281099999999989
 50
138.09335200000001
 51
180.927695
  0
ARC
  8
_0-1_LAYER_10
  6
CONTINUOUS
 62
    7
 10
1199.9638114979077
 20
918.41909650000002
 40
5.6135510000000011
 50
265.930273
 51
313.36336899999998
  0
ARC
  8
_0-1_LAYER_10
  6
CONTINUOUS
 62
    7
 10
1200.8948194979077
 20
916.96157749999998
 40
3.9281099999999989
 50
318.09335700000003
 51
0.9276960000000302
  0
ARC
  8
_0-1_LAYER_10
  6
CONTINUOUS
 62
    7
 10
1199.3742574979078
 20
924.0161425
 40
2.7918910000000001
 50
128.92570799999999
 51
273.92599300000001
  0
ARC
  8
_0-1_LAYER_10
  6
CONTINUOUS
 62
    7
 10
1209.1086024979079
 20
903.74429250000003
 40
25.213263999999999
 50
99.787649999999999
 51
117.10695400000002
  0
LINE
  8
_0-1_LAYER_10
  6
CONTINUOUS
 62
    7
 10
1204.8224144979079
 20
928.59060550000004
 11
1204.8224144979079
 21
930.69338849999997
  0
LINE
  8
_0-1_LAYER_10
  6
CONTINUOUS
 62
    7
 10
1204.8224144979079
 20
930.69338849999997
 11
1188.0000004979079
 21
930.69338849999997
  0
LINE
  8
_0-1_LAYER_10
  6
CONTINUOUS
 62
    7
 10
1188.0000004979079
 20
928.59060550000004
 11
1204.8224144979079
 21
928.59060550000004
  0
ARC
  8
_0-1_LAYER_10
  6
CONTINUOUS
 62
    7
 10
1203.5588754979078
 20
939.22451649999994
 40
8.6241749999999993
 50
278.42479300000002
 51
359.20358299999998
  0
LINE
  8
_0-1_LAYER_10
  6
CONTINUOUS
 62
    7
 10
1199.5654084979078
 20
912.81960949999996
 11
1188.0000004979079
 21
912.81960949999996
  0
ARC
  8
_0-1_LAYER_10
  6
CONTINUOUS
 62
    7
 10
1199.9638114979077
 20
915.63149850000002
 40
5.6135510000000011
 50
46.634909
 51
94.069818999999995
  0
ARC
  8
_0-1_LAYER_10
  6
CONTINUOUS
 62
    7
 10
1200.8948194979077
 20
917.0887745
 40
3.9281099999999989
 50
359.07230600000003
 51
41.906646000000016
  0
ARC
  8
_0-1_LAYER_10
  6
CONTINUOUS
 62
    7
 10
1176.0361904979079
 20
959.79031150000003
 40
5.6135510000000011
 50
85.930179999999993
 51
133.364238
  0
ARC
  8
_0-1_LAYER_10
  6
CONTINUOUS
 62
    7
 10
1175.1051824979079
 20
961.24758750000001
 40
3.9281099999999989
 50
138.092027
 51
180.927695
  0
ARC
  8
_0-1_LAYER_10
  6
CONTINUOUS
 62
    7
 10
1176.6257444979078
 20
954.19302149999999
 40
2.7918910000000001
 50
308.92724299999998
 51
93.925646999999969
  0
ARC
  8
_0-1_LAYER_10
  6
CONTINUOUS
 62
    7
 10
1166.8913994979077
 20
974.46487249999996
 40
25.213263999999999
 50
279.787689
 51
297.10708199999999
  0
LINE
  8
_0-1_LAYER_10
  6
CONTINUOUS
 62
    7
 10
1171.1775854979078
 20
949.61868149999998
 11
1171.1775854979078
 21
947.51589749999994
  0
LINE
  8
_0-1_LAYER_10
  6
CONTINUOUS
 62
    7
 10
1171.1775854979078
 20
947.51589749999994
 11
1188.0000004979079
 21
947.51589749999994
  0
LINE
  8
_0-1_LAYER_10
  6
CONTINUOUS
 62
    7
 10
1188.0000004979079
 20
947.51589749999994
 11
1188.0000004979079
 21
949.61868149999998
  0
LINE
  8
_0-1_LAYER_10
  6
CONTINUOUS
 62
    7
 10
1188.0000004979079
 20
949.61868149999998
 11
1171.1775854979078
 21
949.61868149999998
  0
ARC
  8
_0-1_LAYER_10
  6
CONTINUOUS
 62
    7
 10
1172.4411244979078
 20
938.98464850000005
 40
8.6241749999999993
 50
98.424665000000019
 51
179.20277200000001
  0
LINE
  8
_0-1_LAYER_10
  6
CONTINUOUS
 62
    7
 10
1176.4345934979078
 20
965.38967649999995
 11
1188.0000004979079
 21
965.38967649999995
  0
ARC
  8
_0-1_LAYER_10
  6
CONTINUOUS
 62
    7
 10
1176.0361904979079
 20
962.57790950000003
 40
5.6135510000000011
 50
226.636619
 51
274.06981000000002
  0
ARC
  8
_0-1_LAYER_10
  6
CONTINUOUS
 62
    7
 10
1175.1051824979079
 20
961.12038949999999
 40
3.9281099999999989
 50
179.07230100000001
 51
221.90664400000009
  0
ARC
  8
_0-1_LAYER_10
  6
CONTINUOUS
 62
    7
 10
1199.9638114979077
 20
959.79031150000003
 40
5.6135510000000011
 50
46.635767000000001
 51
94.069818999999995
  0
ARC
  8
_0-1_LAYER_10
  6
CONTINUOUS
 62
    7
 10
1200.8948194979077
 20
961.24758750000001
 40
3.9281099999999989
 50
359.07230600000003
 51
41.907970999999961
  0
ARC
  8
_0-1_LAYER_10
  6
CONTINUOUS
 62
    7
 10
1199.3742574979078
 20
954.19302149999999
 40
2.7918910000000001
 50
86.074351000000021
 51
231.07270400000013
  0
ARC
  8
_0-1_LAYER_10
  6
CONTINUOUS
 62
    7
 10
1209.1086024979079
 20
974.46487249999996
 40
25.213263999999999
 50
242.89292000000012
 51
260.21231200000005
  0
LINE
  8
_0-1_LAYER_10
  6
CONTINUOUS
 62
    7
 10
1204.8224144979079
 20
949.61868149999998
 11
1204.8224144979079
 21
947.51589749999994
  0
LINE
  8
_0-1_LAYER_10
  6
CONTINUOUS
 62
    7
 10
1204.8224144979079
 20
947.51589749999994
 11
1188.0000004979079
 21
947.51589749999994
  0
LINE
  8
_0-1_LAYER_10
  6
CONTINUOUS
 62
    7
 10
1188.0000004979079
 20
947.51589749999994
 11
1188.0000004979079
 21
949.61868149999998
  0
LINE
  8
_0-1_LAYER_10
  6
CONTINUOUS
 62
    7
 10
1188.0000004979079
 20
949.61868149999998
 11
1204.8224144979079
 21
949.61868149999998
  0
ARC
  8
_0-1_LAYER_10
  6
CONTINUOUS
 62
    7
 10
1203.5588754979078
 20
938.98464850000005
 40
8.6241749999999993
 50
0.797227
 51
81.575333000000015
  0
LINE
  8
_0-1_LAYER_10
  6
CONTINUOUS
 62
    7
 10
1199.5654084979078
 20
965.38967649999995
 11
1188.0000004979079
 21
965.38967649999995
  0
ARC
  8
_0-1_LAYER_10
  6
CONTINUOUS
 62
    7
 10
1199.9638114979077
 20
962.57790950000003
 40
5.6135510000000011
 50
265.93019100000015
 51
313.36336900000015
  0
ARC
  8
_0-1_LAYER_10
  6
CONTINUOUS
 62
    7
 10
1200.8948194979077
 20
961.12038949999999
 40
3.9281099999999989
 50
318.09335700000003
 51
0.9276960000000302
  0
LINE
  8
_0-1_LAYER_10
  6
CONTINUOUS
 62
    7
 10
1176.4345934979078
 20
965.38967649999995
 11
1176.4345934979078
 21
1377.3840554999999
  0
LINE
  8
_0-1_LAYER_10
  6
CONTINUOUS
 62
    7
 10
1201.4346004979079
 20
1377.3840554999999
 11
1201.4346004979079
 21
965.38967649999995
  0
LINE
  8
_0-0_
  6
CONTINUOUS
 62
    7
 10
1201.4346004979079
 20
177.41594449999991
 11
1176.4345934979078
 21
177.41594449999991
  0
LINE
  8
_0-1_LAYER_10
  6
CONTINUOUS
 62
    7
 10
1176.4345934979078
 20
912.81960949999996
 11
1176.4345934979078
 21
177.41594449999991
  0
LINE
  8
_0-1_LAYER_10
  6
CONTINUOUS
 62
    7
 10
1201.4346004979079
 20
177.41594449999991
 11
1201.4346004979079
 21
913.00161649999995
  0
ENDSEC
  0
EOF
