  0
SECTION
  2
HEADER
  9
$ACADVER
  1
AC1015
  9
$ACADMAINTVER
 70
    20
  9
$DWGCODEPAGE
  3
ANSI_1252
  9
$INSBASE
 10
0.0
 20
0.0
 30
0.0
  9
$EXTMIN
 10
846.5102333668589
 20
255.6842194773304
 30
-0.0015258207003612
  9
$EXTMAX
 10
2846.807640834997
 20
290.7181643326552
 30
0.0000000349246008
  9
$LIMMIN
 10
0.0
 20
0.0
  9
$LIMMAX
 10
420.0
 20
297.0
  9
$ORTHOMODE
 70
     1
  9
$REGENMODE
 70
     1
  9
$FILLMODE
 70
     1
  9
$QTEXTMODE
 70
     0
  9
$MIRRTEXT
 70
     1
  9
$LTSCALE
 40
1.0
  9
$ATTMODE
 70
     1
  9
$TEXTSIZE
 40
3.0
  9
$TRACEWID
 40
0.05
  9
$TEXTSTYLE
  7
ROMANS
  9
$CLAYER
  8
P-6853
  9
$CELTYPE
  6
CONTINUOUS
  9
$CECOLOR
 62
     7
  9
$CELTSCALE
 40
1.0
  9
$DISPSILH
 70
     0
  9
$DIMSCALE
 40
1.0
  9
$DIMASZ
 40
3.0
  9
$DIMEXO
 40
1.0
  9
$DIMDLI
 40
10.0
  9
$DIMRND
 40
0.0
  9
$DIMDLE
 40
0.0
  9
$DIMEXE
 40
0.5
  9
$DIMTP
 40
0.0
  9
$DIMTM
 40
0.0
  9
$DIMTXT
 40
3.0
  9
$DIMCEN
 40
0.0
  9
$DIMTSZ
 40
0.0
  9
$DIMTOL
 70
     0
  9
$DIMLIM
 70
     0
  9
$DIMTIH
 70
     0
  9
$DIMTOH
 70
     0
  9
$DIMSE1
 70
     0
  9
$DIMSE2
 70
     0
  9
$DIMTAD
 70
     1
  9
$DIMZIN
 70
     8
  9
$DIMBLK
  1

  9
$DIMASO
 70
     1
  9
$DIMSHO
 70
     1
  9
$DIMPOST
  1

  9
$DIMAPOST
  1

  9
$DIMALT
 70
     0
  9
$DIMALTD
 70
     2
  9
$DIMALTF
 40
25.4
  9
$DIMLFAC
 40
1.0
  9
$DIMTOFL
 70
     1
  9
$DIMTVP
 40
0.0
  9
$DIMTIX
 70
     1
  9
$DIMSOXD
 70
     0
  9
$DIMSAH
 70
     0
  9
$DIMBLK1
  1

  9
$DIMBLK2
  1

  9
$DIMSTYLE
  2
ACADTOP
  9
$DIMCLRD
 70
     3
  9
$DIMCLRE
 70
     3
  9
$DIMCLRT
 70
     6
  9
$DIMTFAC
 40
0.7
  9
$DIMGAP
 40
1.5
  9
$DIMJUST
 70
     0
  9
$DIMSD1
 70
     0
  9
$DIMSD2
 70
     0
  9
$DIMTOLJ
 70
     1
  9
$DIMTZIN
 70
     8
  9
$DIMALTZ
 70
     0
  9
$DIMALTTZ
 70
     0
  9
$DIMUPT
 70
     0
  9
$DIMDEC
 70
     2
  9
$DIMTDEC
 70
     2
  9
$DIMALTU
 70
     2
  9
$DIMALTTD
 70
     2
  9
$DIMTXSTY
  7
ROMANS
  9
$DIMAUNIT
 70
     0
  9
$DIMADEC
 70
     2
  9
$DIMALTRND
 40
0.0
  9
$DIMAZIN
 70
     2
  9
$DIMDSEP
 70
    46
  9
$DIMATFIT
 70
     0
  9
$DIMFRAC
 70
     0
  9
$DIMLDRBLK
  1

  9
$DIMLUNIT
 70
     2
  9
$DIMLWD
 70
    -2
  9
$DIMLWE
 70
    -2
  9
$DIMTMOVE
 70
     0
  9
$LUNITS
 70
     2
  9
$LUPREC
 70
     4
  9
$SKETCHINC
 40
0.1
  9
$FILLETRAD
 40
0.0
  9
$AUNITS
 70
     0
  9
$AUPREC
 70
     0
  9
$MENU
  1
.
  9
$ELEVATION
 40
0.0
  9
$PELEVATION
 40
0.0
  9
$THICKNESS
 40
0.0
  9
$LIMCHECK
 70
     0
  9
$CHAMFERA
 40
0.5
  9
$CHAMFERB
 40
0.5
  9
$CHAMFERC
 40
1.0
  9
$CHAMFERD
 40
0.0
  9
$SKPOLY
 70
     1
  9
$TDCREATE
 40
2455035.582779444
  9
$TDUCREATE
 40
2455035.499446111
  9
$TDUPDATE
 40
2455035.588935104
  9
$TDUUPDATE
 40
2455035.505601771
  9
$TDINDWG
 40
0.0061565741
  9
$TDUSRTIMER
 40
0.0061565741
  9
$USRTIMER
 70
     1
  9
$ANGBASE
 50
0.0
  9
$ANGDIR
 70
     0
  9
$PDMODE
 70
     0
  9
$PDSIZE
 40
0.0
  9
$PLINEWID
 40
0.0
  9
$SPLFRAME
 70
     0
  9
$SPLINETYPE
 70
     6
  9
$SPLINESEGS
 70
     8
  9
$HANDSEED
  5
5C7
  9
$SURFTAB1
 70
     6
  9
$SURFTAB2
 70
     6
  9
$SURFTYPE
 70
     6
  9
$SURFU
 70
     6
  9
$SURFV
 70
     6
  9
$UCSBASE
  2

  9
$UCSNAME
  2

  9
$UCSORG
 10
0.0
 20
0.0
 30
0.0
  9
$UCSXDIR
 10
1.0
 20
0.0
 30
0.0
  9
$UCSYDIR
 10
0.0
 20
1.0
 30
0.0
  9
$UCSORTHOREF
  2

  9
$UCSORTHOVIEW
 70
     0
  9
$UCSORGTOP
 10
0.0
 20
0.0
 30
0.0
  9
$UCSORGBOTTOM
 10
0.0
 20
0.0
 30
0.0
  9
$UCSORGLEFT
 10
0.0
 20
0.0
 30
0.0
  9
$UCSORGRIGHT
 10
0.0
 20
0.0
 30
0.0
  9
$UCSORGFRONT
 10
0.0
 20
0.0
 30
0.0
  9
$UCSORGBACK
 10
0.0
 20
0.0
 30
0.0
  9
$PUCSBASE
  2

  9
$PUCSNAME
  2

  9
$PUCSORG
 10
0.0
 20
0.0
 30
0.0
  9
$PUCSXDIR
 10
1.0
 20
0.0
 30
0.0
  9
$PUCSYDIR
 10
0.0
 20
1.0
 30
0.0
  9
$PUCSORTHOREF
  2

  9
$PUCSORTHOVIEW
 70
     0
  9
$PUCSORGTOP
 10
0.0
 20
0.0
 30
0.0
  9
$PUCSORGBOTTOM
 10
0.0
 20
0.0
 30
0.0
  9
$PUCSORGLEFT
 10
0.0
 20
0.0
 30
0.0
  9
$PUCSORGRIGHT
 10
0.0
 20
0.0
 30
0.0
  9
$PUCSORGFRONT
 10
0.0
 20
0.0
 30
0.0
  9
$PUCSORGBACK
 10
0.0
 20
0.0
 30
0.0
  9
$USERI1
 70
     0
  9
$USERI2
 70
     0
  9
$USERI3
 70
     0
  9
$USERI4
 70
     0
  9
$USERI5
 70
     0
  9
$USERR1
 40
0.0
  9
$USERR2
 40
0.0
  9
$USERR3
 40
0.0
  9
$USERR4
 40
0.0
  9
$USERR5
 40
0.0
  9
$WORLDVIEW
 70
     1
  9
$SHADEDGE
 70
     3
  9
$SHADEDIF
 70
    70
  9
$TILEMODE
 70
     1
  9
$MAXACTVP
 70
    48
  9
$PINSBASE
 10
0.0
 20
0.0
 30
0.0
  9
$PLIMCHECK
 70
     0
  9
$PEXTMIN
 10
1.000000000000000E+20
 20
1.000000000000000E+20
 30
1.000000000000000E+20
  9
$PEXTMAX
 10
-1.000000000000000E+20
 20
-1.000000000000000E+20
 30
-1.000000000000000E+20
  9
$PLIMMIN
 10
0.0
 20
0.0
  9
$PLIMMAX
 10
12.0
 20
9.0
  9
$UNITMODE
 70
     0
  9
$VISRETAIN
 70
     1
  9
$PLINEGEN
 70
     0
  9
$PSLTSCALE
 70
     1
  9
$TREEDEPTH
 70
  3020
  9
$CMLSTYLE
  2
STANDARD
  9
$CMLJUST
 70
     0
  9
$CMLSCALE
 40
1.0
  9
$PROXYGRAPHICS
 70
     1
  9
$MEASUREMENT
 70
     1
  9
$CELWEIGHT
370
    -1
  9
$ENDCAPS
280
     0
  9
$JOINSTYLE
280
     0
  9
$LWDISPLAY
290
     0
  9
$INSUNITS
 70
     0
  9
$HYPERLINKBASE
  1

  9
$STYLESHEET
  1
india monocromatico.ctb
  9
$XEDIT
290
     1
  9
$CEPSNTYPE
380
     0
  9
$PSTYLEMODE
290
     1
  9
$FINGERPRINTGUID
  2
{4E8E14C0-0E1E-4600-93B3-1D8604877958}
  9
$VERSIONGUID
  2
{C4E1A8BF-5ABB-4A67-AFB0-DAFD8FA99592}
  9
$EXTNAMES
290
     1
  9
$PSVPSCALE
 40
0.0
  9
$OLESTARTUP
290
     0
  0
ENDSEC
  0
SECTION
  2
CLASSES
  0
CLASS
  1
DICTIONARYVAR
  2
AcDbDictionaryVar
  3
ObjectDBX Classes
 90
        0
280
     0
281
     0
  0
CLASS
  1
ACDBDICTIONARYWDFLT
  2
AcDbDictionaryWithDefault
  3
ObjectDBX Classes
 90
        0
280
     0
281
     0
  0
CLASS
  1
ACDBPLACEHOLDER
  2
AcDbPlaceHolder
  3
ObjectDBX Classes
 90
        0
280
     0
281
     0
  0
CLASS
  1
LAYOUT
  2
AcDbLayout
  3
ObjectDBX Classes
 90
        0
280
     0
281
     0
  0
CLASS
  1
TABLESTYLE
  2
AcDbTableStyle
  3
ObjectDBX Classes
 90
     4095
280
     0
281
     0
  0
CLASS
  1
MATERIAL
  2
AcDbMaterial
  3
ObjectDBX Classes
 90
     1153
280
     0
281
     0
  0
CLASS
  1
VISUALSTYLE
  2
AcDbVisualStyle
  3
ObjectDBX Classes
 90
     4095
280
     0
281
     0
  0
CLASS
  1
SCALE
  2
AcDbScale
  3
ObjectDBX Classes
 90
     1153
280
     0
281
     0
  0
CLASS
  1
MLEADERSTYLE
  2
AcDbMLeaderStyle
  3
ACDB_MLEADERSTYLE_CLASS
 90
     4095
280
     0
281
     0
  0
CLASS
  1
CELLSTYLEMAP
  2
AcDbCellStyleMap
  3
ObjectDBX Classes
 90
     1152
280
     0
281
     0
  0
CLASS
  1
ACDBQSCATEGORY
  2
AcQsCategory
  3
categories
 90
     1024
280
     0
281
     0
  0
CLASS
  1
SORTENTSTABLE
  2
AcDbSortentsTable
  3
ObjectDBX Classes
 90
        0
280
     0
281
     0
  0
CLASS
  1
AEC_REFEDIT_STATUS_TRACKER
  2
AecDbRefEditStatusTracker
  3
AecArchBase50|Product Desc: Autodesk Architectural Desktop 2007 |Company: Autodesk,Inc. |WEB Address: www.autodesk.com
 90
      129
280
     0
281
     0
  0
CLASS
  1
NPOCOLLECTION
  2
AcDbImpNonPersistentObjectsCollection
  3
ObjectDBX Classes
 90
     1153
280
     0
281
     0
  0
ENDSEC
  0
SECTION
  2
TABLES
  0
TABLE
  2
VPORT
  5
12
330
0
100
AcDbSymbolTable
 70
     1
  0
VPORT
  5
F5
330
12
100
AcDbSymbolTableRecord
100
AcDbViewportTableRecord
  2
*Active
 70
     0
 10
0.0
 20
0.0
 11
1.0
 21
1.0
 12
1846.658937100928
 22
273.2011919049928
 13
0.0
 23
0.0
 14
1.0
 24
1.0
 15
5.0
 25
5.0
 16
0.0
 26
0.0
 36
1.0
 17
0.0
 27
0.0
 37
0.0
 40
1209.827710428574
 41
1.66060606060606
 42
50.0
 43
0.0
 44
0.0
 50
0.0
 51
0.0
 71
     0
 72
   500
 73
     1
 74
     0
 75
     0
 76
     0
 77
     0
 78
     0
281
     0
 65
     1
110
0.0
120
0.0
130
0.0
111
1.0
121
0.0
131
0.0
112
0.0
122
1.0
132
0.0
 79
     0
146
0.0
  0
ENDTAB
  0
TABLE
  2
LTYPE
  5
D
330
0
100
AcDbSymbolTable
 70
    29
  0
LTYPE
  5
E
330
D
100
AcDbSymbolTableRecord
100
AcDbLinetypeTableRecord
  2
BYBLOCK
 70
     0
  3

 72
    65
 73
     0
 40
0.0
  0
LTYPE
  5
F
330
D
100
AcDbSymbolTableRecord
100
AcDbLinetypeTableRecord
  2
BYLAYER
 70
     0
  3

 72
    65
 73
     0
 40
0.0
  0
LTYPE
  5
5
330
D
100
AcDbSymbolTableRecord
100
AcDbLinetypeTableRecord
  2
CONTINUOUS
 70
     0
  3
Solid line
 72
    65
 73
     0
 40
0.0
  0
LTYPE
  5
26
330
D
100
AcDbSymbolTableRecord
100
AcDbLinetypeTableRecord
  2
BORDER
 70
     0
  3
Border __ __ . __ __ . __ __ . __ __ . __ __ .
 72
    65
 73
     6
 40
1.75
 49
0.5
 74
     0
 49
-0.25
 74
     0
 49
0.5
 74
     0
 49
-0.25
 74
     0
 49
0.0
 74
     0
 49
-0.25
 74
     0
  0
LTYPE
  5
27
330
D
100
AcDbSymbolTableRecord
100
AcDbLinetypeTableRecord
  2
BORDER2
 70
     0
  3
Border (.5x) __.__.__.__.__.__.__.__.__.__.__.
 72
    65
 73
     6
 40
0.875
 49
0.25
 74
     0
 49
-0.125
 74
     0
 49
0.25
 74
     0
 49
-0.125
 74
     0
 49
0.0
 74
     0
 49
-0.125
 74
     0
  0
LTYPE
  5
28
330
D
100
AcDbSymbolTableRecord
100
AcDbLinetypeTableRecord
  2
BORDERX2
 70
     0
  3
Border (2x) ____  ____  .  ____  ____  .  ___
 72
    65
 73
     6
 40
3.5
 49
1.0
 74
     0
 49
-0.5
 74
     0
 49
1.0
 74
     0
 49
-0.5
 74
     0
 49
0.0
 74
     0
 49
-0.5
 74
     0
  0
LTYPE
  5
29
330
D
100
AcDbSymbolTableRecord
100
AcDbLinetypeTableRecord
  2
CENTER
 70
     0
  3
Center ____ _ ____ _ ____ _ ____ _ ____ _ ____
 72
    65
 73
     4
 40
2.0
 49
1.25
 74
     0
 49
-0.25
 74
     0
 49
0.25
 74
     0
 49
-0.25
 74
     0
  0
LTYPE
  5
2A
330
D
100
AcDbSymbolTableRecord
100
AcDbLinetypeTableRecord
  2
CENTER2
 70
     0
  3
Center (.5x) ___ _ ___ _ ___ _ ___ _ ___ _ ___
 72
    65
 73
     4
 40
1.125
 49
0.75
 74
     0
 49
-0.125
 74
     0
 49
0.125
 74
     0
 49
-0.125
 74
     0
  0
LTYPE
  5
2B
330
D
100
AcDbSymbolTableRecord
100
AcDbLinetypeTableRecord
  2
CENTERX2
 70
     0
  3
Center (2x) ________  __  ________  __  _____
 72
    65
 73
     4
 40
4.0
 49
2.5
 74
     0
 49
-0.5
 74
     0
 49
0.5
 74
     0
 49
-0.5
 74
     0
  0
LTYPE
  5
2C
330
D
100
AcDbSymbolTableRecord
100
AcDbLinetypeTableRecord
  2
DASHDOT
 70
     0
  3
Dash dot __ . __ . __ . __ . __ . __ . __ . __
 72
    65
 73
     4
 40
1.0
 49
0.5
 74
     0
 49
-0.25
 74
     0
 49
0.0
 74
     0
 49
-0.25
 74
     0
  0
LTYPE
  5
2D
330
D
100
AcDbSymbolTableRecord
100
AcDbLinetypeTableRecord
  2
DASHDOT2
 70
     0
  3
Dash dot (.5x) _._._._._._._._._._._._._._._.
 72
    65
 73
     4
 40
0.5
 49
0.25
 74
     0
 49
-0.125
 74
     0
 49
0.0
 74
     0
 49
-0.125
 74
     0
  0
LTYPE
  5
2E
330
D
100
AcDbSymbolTableRecord
100
AcDbLinetypeTableRecord
  2
DASHDOTX2
 70
     0
  3
Dash dot (2x) ____  .  ____  .  ____  .  ___
 72
    65
 73
     4
 40
2.0
 49
1.0
 74
     0
 49
-0.5
 74
     0
 49
0.0
 74
     0
 49
-0.5
 74
     0
  0
LTYPE
  5
2F
330
D
100
AcDbSymbolTableRecord
100
AcDbLinetypeTableRecord
  2
DASHED
 70
     0
  3
Dashed __ __ __ __ __ __ __ __ __ __ __ __ __ _
 72
    65
 73
     2
 40
0.75
 49
0.5
 74
     0
 49
-0.25
 74
     0
  0
LTYPE
  5
30
330
D
100
AcDbSymbolTableRecord
100
AcDbLinetypeTableRecord
  2
DASHED2
 70
     0
  3
Dashed (.5x) _ _ _ _ _ _ _ _ _ _ _ _ _ _ _ _ _
 72
    65
 73
     2
 40
0.375
 49
0.25
 74
     0
 49
-0.125
 74
     0
  0
LTYPE
  5
31
330
D
100
AcDbSymbolTableRecord
100
AcDbLinetypeTableRecord
  2
DASHEDX2
 70
     0
  3
Dashed (2x) ____  ____  ____  ____  ____  ___
 72
    65
 73
     2
 40
1.5
 49
1.0
 74
     0
 49
-0.5
 74
     0
  0
LTYPE
  5
32
330
D
100
AcDbSymbolTableRecord
100
AcDbLinetypeTableRecord
  2
DIVIDE
 70
     0
  3
Divide ____ . . ____ . . ____ . . ____ . . ____
 72
    65
 73
     6
 40
1.25
 49
0.5
 74
     0
 49
-0.25
 74
     0
 49
0.0
 74
     0
 49
-0.25
 74
     0
 49
0.0
 74
     0
 49
-0.25
 74
     0
  0
LTYPE
  5
33
330
D
100
AcDbSymbolTableRecord
100
AcDbLinetypeTableRecord
  2
DIVIDE2
 70
     0
  3
Divide (.5x) __..__..__..__..__..__..__..__.._
 72
    65
 73
     6
 40
0.625
 49
0.25
 74
     0
 49
-0.125
 74
     0
 49
0.0
 74
     0
 49
-0.125
 74
     0
 49
0.0
 74
     0
 49
-0.125
 74
     0
  0
LTYPE
  5
34
330
D
100
AcDbSymbolTableRecord
100
AcDbLinetypeTableRecord
  2
DIVIDEX2
 70
     0
  3
Divide (2x) ________  .  .  ________  .  .  _
 72
    65
 73
     6
 40
2.5
 49
1.0
 74
     0
 49
-0.5
 74
     0
 49
0.0
 74
     0
 49
-0.5
 74
     0
 49
0.0
 74
     0
 49
-0.5
 74
     0
  0
LTYPE
  5
35
330
D
100
AcDbSymbolTableRecord
100
AcDbLinetypeTableRecord
  2
DOT
 70
     0
  3
Dot . . . . . . . . . . . . . . . . . . . . . .
 72
    65
 73
     2
 40
0.25
 49
0.0
 74
     0
 49
-0.25
 74
     0
  0
LTYPE
  5
36
330
D
100
AcDbSymbolTableRecord
100
AcDbLinetypeTableRecord
  2
DOT2
 70
     0
  3
Dot (.5x) .....................................
 72
    65
 73
     2
 40
0.125
 49
0.0
 74
     0
 49
-0.125
 74
     0
  0
LTYPE
  5
37
330
D
100
AcDbSymbolTableRecord
100
AcDbLinetypeTableRecord
  2
DOTX2
 70
     0
  3
Dot (2x) .  .  .  .  .  .  .  .  .  .  .  .  . 
 72
    65
 73
     2
 40
0.5
 49
0.0
 74
     0
 49
-0.5
 74
     0
  0
LTYPE
  5
38
330
D
100
AcDbSymbolTableRecord
100
AcDbLinetypeTableRecord
  2
HIDDEN
 70
     0
  3
Hidden __ __ __ __ __ __ __ __ __ __ __ __ __ _
 72
    65
 73
     2
 40
0.375
 49
0.25
 74
     0
 49
-0.125
 74
     0
  0
LTYPE
  5
39
330
D
100
AcDbSymbolTableRecord
100
AcDbLinetypeTableRecord
  2
HIDDEN2
 70
     0
  3
Hidden (.5x) _ _ _ _ _ _ _ _ _ _ _ _ _ _ _ _ _
 72
    65
 73
     2
 40
0.1875
 49
0.125
 74
     0
 49
-0.0625
 74
     0
  0
LTYPE
  5
3A
330
D
100
AcDbSymbolTableRecord
100
AcDbLinetypeTableRecord
  2
HIDDENX2
 70
     0
  3
Hidden (2x) ____ ____ ____ ____ ____ ____ ____
 72
    65
 73
     2
 40
0.75
 49
0.5
 74
     0
 49
-0.25
 74
     0
  0
LTYPE
  5
3B
330
D
100
AcDbSymbolTableRecord
100
AcDbLinetypeTableRecord
  2
PHANTOM
 70
     0
  3
Phantom ______  __  __  ______  __  __  ______
 72
    65
 73
     6
 40
2.5
 49
1.25
 74
     0
 49
-0.25
 74
     0
 49
0.25
 74
     0
 49
-0.25
 74
     0
 49
0.25
 74
     0
 49
-0.25
 74
     0
  0
LTYPE
  5
3C
330
D
100
AcDbSymbolTableRecord
100
AcDbLinetypeTableRecord
  2
PHANTOM2
 70
     0
  3
Phantom (.5x) ___ _ _ ___ _ _ ___ _ _ ___ _ _
 72
    65
 73
     6
 40
1.25
 49
0.625
 74
     0
 49
-0.125
 74
     0
 49
0.125
 74
     0
 49
-0.125
 74
     0
 49
0.125
 74
     0
 49
-0.125
 74
     0
  0
LTYPE
  5
3D
330
D
100
AcDbSymbolTableRecord
100
AcDbLinetypeTableRecord
  2
PHANTOMX2
 70
     0
  3
Phantom (2x) ____________    ____    ____   _
 72
    65
 73
     6
 40
5.0
 49
2.5
 74
     0
 49
-0.5
 74
     0
 49
0.5
 74
     0
 49
-0.5
 74
     0
 49
0.5
 74
     0
 49
-0.5
 74
     0
  0
LTYPE
  5
3E
330
D
100
AcDbSymbolTableRecord
100
AcDbLinetypeTableRecord
  2
ASSI
 70
     0
  3
-.-.-.-.-.-.-.-.-.-.-.-.-.-.-.-.-.-.-.-.-.-.-.-
 72
    65
 73
     4
 40
16.0
 49
10.0
 74
     0
 49
-2.0
 74
     0
 49
2.0
 74
     0
 49
-2.0
 74
     0
  0
LTYPE
  5
3F
330
D
100
AcDbSymbolTableRecord
100
AcDbLinetypeTableRecord
  2
INGOMBRI
 70
     0
  3
--..--..--..--..--..--..--..--..--..--..--..--
 72
    65
 73
     6
 40
20.0
 49
10.0
 74
     0
 49
-2.0
 74
     0
 49
2.0
 74
     0
 49
-2.0
 74
     0
 49
2.0
 74
     0
 49
-2.0
 74
     0
  0
LTYPE
  5
40
330
D
100
AcDbSymbolTableRecord
100
AcDbLinetypeTableRecord
  2
TRATTEGGIO
 70
     0
  3
- - - - - - - - - - - - - - - - - - - - - -
 72
    65
 73
     2
 40
5.5
 49
4.0
 74
     0
 49
-1.5
 74
     0
  0
LTYPE
  5
D5
330
D
100
AcDbSymbolTableRecord
100
AcDbLinetypeTableRecord
  2
PUNTO
 70
     0
  3
Punto . . . . . . . . . . . . . . . . . . . . .
 72
    65
 73
     2
 40
6.349999999999999
 49
0.0
 74
     0
 49
-6.349999999999999
 74
     0
  0
ENDTAB
  0
TABLE
  2
LAYER
  5
A
102
{ACAD_XDICTIONARY
360
1DF
102
}
330
0
100
AcDbSymbolTable
 70
     6
  0
LAYER
  5
4
102
{ACAD_XDICTIONARY
360
5B1
102
}
330
A
100
AcDbSymbolTableRecord
100
AcDbLayerTableRecord
  2
0
 70
     0
 62
     7
  6
CONTINUOUS
370
    -3
390
44
  0
LAYER
  5
4D
330
A
100
AcDbSymbolTableRecord
100
AcDbLayerTableRecord
  2
Defpoints
 70
     0
 62
     7
  6
CONTINUOUS
290
     0
370
    -3
390
44
  0
LAYER
  5
93
102
{ACAD_XDICTIONARY
360
5B3
102
}
330
A
100
AcDbSymbolTableRecord
100
AcDbLayerTableRecord
  2
P-0000
 70
     0
 62
     7
  6
CONTINUOUS
370
    -3
390
44
  0
LAYER
  5
E3
102
{ACAD_XDICTIONARY
360
5B5
102
}
330
A
100
AcDbSymbolTableRecord
100
AcDbLayerTableRecord
  2
MS_AXES
 70
     0
 62
     1
  6
CONTINUOUS
370
    -3
390
44
  0
LAYER
  5
EA
102
{ACAD_XDICTIONARY
360
5B7
102
}
330
A
100
AcDbSymbolTableRecord
100
AcDbLayerTableRecord
  2
P-6853
 70
     0
 62
     7
  6
CONTINUOUS
370
    -3
390
44
  0
LAYER
  5
164
102
{ACAD_XDICTIONARY
360
5B9
102
}
330
A
100
AcDbSymbolTableRecord
100
AcDbLayerTableRecord
  2
COSTRUZIONE
 70
     4
 62
     7
  6
CONTINUOUS
370
    -3
390
44
  0
ENDTAB
  0
TABLE
  2
STYLE
  5
B
330
0
100
AcDbSymbolTable
 70
     4
  0
STYLE
  5
C
330
B
100
AcDbSymbolTableRecord
100
AcDbTextStyleTableRecord
  2
STANDARD
 70
     0
 40
3.0
 41
1.0
 50
0.0
 71
     0
 42
0.2
  3
romans.shx
  4

  0
STYLE
  5
1B
330
B
100
AcDbSymbolTableRecord
100
AcDbTextStyleTableRecord
  2
ROMANS
 70
     0
 40
0.0
 41
1.0
 50
15.0
 71
     0
 42
3.0
  3
ROMANS.shx
  4

  0
STYLE
  5
D6
330
B
100
AcDbSymbolTableRecord
100
AcDbTextStyleTableRecord
  2

 70
     1
 40
0.0
 41
1.0
 50
0.0
 71
     0
 42
0.2
  3
ltypeshp.shx
  4

  0
STYLE
  5
139
330
B
100
AcDbSymbolTableRecord
100
AcDbTextStyleTableRecord
  2
Annotative
 70
     0
 40
0.0
 41
1.0
 50
0.0
 71
     0
 42
0.2
  3
txt
  4

1001
AcadAnnotative
1000
AnnotativeData
1002
{
1070
     1
1070
     1
1002
}
  0
ENDTAB
  0
TABLE
  2
VIEW
  5
10
330
0
100
AcDbSymbolTable
 70
     0
  0
ENDTAB
  0
TABLE
  2
UCS
  5
11
330
0
100
AcDbSymbolTable
 70
     0
  0
ENDTAB
  0
TABLE
  2
APPID
  5
14
330
0
100
AcDbSymbolTable
 70
    16
  0
APPID
  5
15
330
14
100
AcDbSymbolTableRecord
100
AcDbRegAppTableRecord
  2
ACAD
 70
     0
  0
APPID
  5
71
330
14
100
AcDbSymbolTableRecord
100
AcDbRegAppTableRecord
  2
TOP
 70
     0
  0
APPID
  5
96
330
14
100
AcDbSymbolTableRecord
100
AcDbRegAppTableRecord
  2
ACAD_DSTYLE_DIMTEXT_FILL
 70
     0
  0
APPID
  5
DC
330
14
100
AcDbSymbolTableRecord
100
AcDbRegAppTableRecord
  2
MS_EXP_99
 70
     0
  0
APPID
  5
DD
330
14
100
AcDbSymbolTableRecord
100
AcDbRegAppTableRecord
  2
MS_EXP_PRO
 70
     0
  0
APPID
  5
DE
330
14
100
AcDbSymbolTableRecord
100
AcDbRegAppTableRecord
  2
MS_EXP_PROJECT_BASE
 70
     0
  0
APPID
  5
DF
330
14
100
AcDbSymbolTableRecord
100
AcDbRegAppTableRecord
  2
MS_EXPLO_FILLET
 70
     0
  0
APPID
  5
E0
330
14
100
AcDbSymbolTableRecord
100
AcDbRegAppTableRecord
  2
MS_EXPLO_FOR_FILLET
 70
     0
  0
APPID
  5
E1
330
14
100
AcDbSymbolTableRecord
100
AcDbRegAppTableRecord
  2
MS
 70
     0
  0
APPID
  5
E2
330
14
100
AcDbSymbolTableRecord
100
AcDbRegAppTableRecord
  2
MS_BASE
 70
     0
  0
APPID
  5
134
330
14
100
AcDbSymbolTableRecord
100
AcDbRegAppTableRecord
  2
ACAD_MLEADERVER
 70
     0
  0
APPID
  5
13C
330
14
100
AcDbSymbolTableRecord
100
AcDbRegAppTableRecord
  2
AcadAnnotative
 70
     0
  0
APPID
  5
1DC
330
14
100
AcDbSymbolTableRecord
100
AcDbRegAppTableRecord
  2
AcAecLayerStandard
 70
     0
  0
APPID
  5
1DD
330
14
100
AcDbSymbolTableRecord
100
AcDbRegAppTableRecord
  2
ACAD_DSTYLE_DIMJAG
 70
     0
  0
APPID
  5
1DE
330
14
100
AcDbSymbolTableRecord
100
AcDbRegAppTableRecord
  2
ACAD_DSTYLE_DIMTALN
 70
     0
  0
APPID
  5
514
330
14
100
AcDbSymbolTableRecord
100
AcDbRegAppTableRecord
  2
ACAD_DSTYLE_DIMRADIAL_EXTENSION
 70
     0
  0
ENDTAB
  0
TABLE
  2
DIMSTYLE
  5
16
330
0
100
AcDbSymbolTable
 70
     1
100
AcDbDimStyleTable
 71
     1
340
143
  0
DIMSTYLE
105
143
330
16
100
AcDbSymbolTableRecord
100
AcDbDimStyleTableRecord
  2
ACADTOP
 70
     0
 41
3.0
 42
1.0
 43
10.0
 44
0.5
 73
     0
 74
     0
 77
     1
 78
     8
 79
     2
140
3.0
141
0.0
146
0.7
147
1.5
172
     1
174
     1
176
     3
177
     3
178
     6
179
     2
271
     2
272
     2
284
     8
289
     0
340
1B
  0
ENDTAB
  0
TABLE
  2
BLOCK_RECORD
  5
1
330
0
100
AcDbSymbolTable
 70
    29
  0
BLOCK_RECORD
  5
2
102
{ACAD_XDICTIONARY
360
167
102
}
330
1
100
AcDbSymbolTableRecord
100
AcDbBlockTableRecord
  2
*MODEL_SPACE
340
47
  0
BLOCK_RECORD
  5
7
330
1
100
AcDbSymbolTableRecord
100
AcDbBlockTableRecord
  2
*PAPER_SPACE
340
48
  0
BLOCK_RECORD
  5
190
330
1
100
AcDbSymbolTableRecord
100
AcDbBlockTableRecord
  2
*D1
340
0
  0
BLOCK_RECORD
  5
19C
330
1
100
AcDbSymbolTableRecord
100
AcDbBlockTableRecord
  2
*D2
340
0
  0
BLOCK_RECORD
  5
1A8
330
1
100
AcDbSymbolTableRecord
100
AcDbBlockTableRecord
  2
*D3
340
0
  0
BLOCK_RECORD
  5
1B6
330
1
100
AcDbSymbolTableRecord
100
AcDbBlockTableRecord
  2
*D4
340
0
  0
BLOCK_RECORD
  5
1C2
330
1
100
AcDbSymbolTableRecord
100
AcDbBlockTableRecord
  2
*D5
340
0
  0
BLOCK_RECORD
  5
1CE
330
1
100
AcDbSymbolTableRecord
100
AcDbBlockTableRecord
  2
*D6
340
0
  0
BLOCK_RECORD
  5
35D
330
1
100
AcDbSymbolTableRecord
100
AcDbBlockTableRecord
  2
*D8
340
0
  0
BLOCK_RECORD
  5
369
330
1
100
AcDbSymbolTableRecord
100
AcDbBlockTableRecord
  2
*D9
340
0
  0
BLOCK_RECORD
  5
375
330
1
100
AcDbSymbolTableRecord
100
AcDbBlockTableRecord
  2
*D10
340
0
  0
BLOCK_RECORD
  5
383
330
1
100
AcDbSymbolTableRecord
100
AcDbBlockTableRecord
  2
*D11
340
0
  0
BLOCK_RECORD
  5
38F
330
1
100
AcDbSymbolTableRecord
100
AcDbBlockTableRecord
  2
*D12
340
0
  0
BLOCK_RECORD
  5
39B
330
1
100
AcDbSymbolTableRecord
100
AcDbBlockTableRecord
  2
*D13
340
0
  0
BLOCK_RECORD
  5
3F3
330
1
100
AcDbSymbolTableRecord
100
AcDbBlockTableRecord
  2
*D14
340
0
  0
BLOCK_RECORD
  5
400
330
1
100
AcDbSymbolTableRecord
100
AcDbBlockTableRecord
  2
*D15
340
0
  0
BLOCK_RECORD
  5
40D
330
1
100
AcDbSymbolTableRecord
100
AcDbBlockTableRecord
  2
*D16
340
0
  0
BLOCK_RECORD
  5
41A
330
1
100
AcDbSymbolTableRecord
100
AcDbBlockTableRecord
  2
*D17
340
0
  0
BLOCK_RECORD
  5
427
330
1
100
AcDbSymbolTableRecord
100
AcDbBlockTableRecord
  2
*D18
340
0
  0
BLOCK_RECORD
  5
434
330
1
100
AcDbSymbolTableRecord
100
AcDbBlockTableRecord
  2
*D19
340
0
  0
BLOCK_RECORD
  5
441
330
1
100
AcDbSymbolTableRecord
100
AcDbBlockTableRecord
  2
*D20
340
0
  0
BLOCK_RECORD
  5
44E
330
1
100
AcDbSymbolTableRecord
100
AcDbBlockTableRecord
  2
*D21
340
0
  0
BLOCK_RECORD
  5
45B
330
1
100
AcDbSymbolTableRecord
100
AcDbBlockTableRecord
  2
*D22
340
0
  0
BLOCK_RECORD
  5
468
330
1
100
AcDbSymbolTableRecord
100
AcDbBlockTableRecord
  2
*D23
340
0
  0
BLOCK_RECORD
  5
475
330
1
100
AcDbSymbolTableRecord
100
AcDbBlockTableRecord
  2
*D24
340
0
  0
BLOCK_RECORD
  5
482
330
1
100
AcDbSymbolTableRecord
100
AcDbBlockTableRecord
  2
*D25
340
0
  0
BLOCK_RECORD
  5
4CA
330
1
100
AcDbSymbolTableRecord
100
AcDbBlockTableRecord
  2
*D26
340
0
  0
BLOCK_RECORD
  5
4D7
330
1
100
AcDbSymbolTableRecord
100
AcDbBlockTableRecord
  2
*D27
340
0
  0
BLOCK_RECORD
  5
4E4
330
1
100
AcDbSymbolTableRecord
100
AcDbBlockTableRecord
  2
*D28
340
0
  0
ENDTAB
  0
ENDSEC
  0
SECTION
  2
BLOCKS
  0
BLOCK
  5
3
330
2
100
AcDbEntity
  8
0
100
AcDbBlockBegin
  2
*MODEL_SPACE
 70
     0
 10
0.0
 20
0.0
 30
0.0
  3
*MODEL_SPACE
  1

  0
ENDBLK
  5
6
330
2
100
AcDbEntity
  8
0
100
AcDbBlockEnd
  0
BLOCK
  5
8
330
7
100
AcDbEntity
 67
     1
  8
0
100
AcDbBlockBegin
  2
*PAPER_SPACE
 70
     0
 10
0.0
 20
0.0
 30
0.0
  3
*PAPER_SPACE
  1

  0
ENDBLK
  5
9
330
7
100
AcDbEntity
 67
     1
  8
0
100
AcDbBlockEnd
  0
BLOCK
  5
191
330
190
100
AcDbEntity
  8
0
 62
     2
100
AcDbBlockBegin
  2
*D1
 70
     1
 10
0.0
 20
0.0
 30
0.0
  3
*D1
  1

  0
LINE
  5
192
330
190
100
AcDbEntity
  8
P-6853
  6
Continuous
 62
     3
370
    -2
100
AcDbLine
 10
396.0659758710725
 20
851.0060876385425
 30
0.0
 11
396.0659758710725
 21
930.5060876385427
 31
0.0
  0
LINE
  5
193
330
190
100
AcDbEntity
  8
P-6853
  6
Continuous
 62
     3
370
    -2
100
AcDbLine
 10
521.0659758710724
 20
852.3560876385426
 30
0.0
 11
521.0659758710724
 21
930.5060876385427
 31
0.0
  0
LINE
  5
194
330
190
100
AcDbEntity
  8
P-6853
  6
Continuous
 62
     3
370
    -2
100
AcDbLine
 10
408.0659758710724
 20
929.5060876385427
 30
0.0
 11
509.0659758710724
 21
929.5060876385427
 31
0.0
  0
SOLID
  5
195
330
190
100
AcDbEntity
  8
P-6853
  6
Continuous
 62
     3
100
AcDbTrace
 10
408.0659758710724
 20
931.5060876385427
 30
0.0
 11
408.0659758710724
 21
927.5060876385426
 31
0.0
 12
396.0659758710725
 22
929.5060876385427
 32
0.0
 13
396.0659758710725
 23
929.5060876385427
 33
0.0
  0
SOLID
  5
196
330
190
100
AcDbEntity
  8
P-6853
  6
Continuous
 62
     3
100
AcDbTrace
 10
509.0659758710724
 20
931.5060876385427
 30
0.0
 11
509.0659758710724
 21
927.5060876385426
 31
0.0
 12
521.0659758710724
 22
929.5060876385427
 32
0.0
 13
521.0659758710724
 23
929.5060876385427
 33
0.0
  0
MTEXT
  5
197
330
190
100
AcDbEntity
  8
P-6853
  6
Continuous
 62
     6
100
AcDbMText
 10
458.5659758710724
 20
938.5060876385427
 30
0.0
 40
12.0
 41
0.0
 71
     5
 72
     1
  1
\A1;125
  7
ROMANS
 73
     1
 44
1.0
1001
ACAD
1000
MTEXTBEGIN
1070
    73
1070
     1
1070
    44
1040
1.0
1070
    74
1070
     0
1000
MTEXTEND
  0
POINT
  5
198
330
190
100
AcDbEntity
  8
Defpoints
  6
Continuous
 62
     0
100
AcDbPoint
 10
396.0659758710725
 20
849.0060876385426
 30
0.0
  0
POINT
  5
199
330
190
100
AcDbEntity
  8
Defpoints
  6
Continuous
 62
     0
100
AcDbPoint
 10
521.0659758710724
 20
850.3560876385426
 30
0.0
  0
POINT
  5
19A
330
190
100
AcDbEntity
  8
Defpoints
  6
Continuous
 62
     0
100
AcDbPoint
 10
521.0659758710724
 20
929.5060876385427
 30
0.0
  0
ENDBLK
  5
19B
330
190
100
AcDbEntity
  8
0
 62
     2
100
AcDbBlockEnd
  0
BLOCK
  5
19D
330
19C
100
AcDbEntity
  8
0
 62
     2
100
AcDbBlockBegin
  2
*D2
 70
     1
 10
0.0
 20
0.0
 30
0.0
  3
*D2
  1

  0
LINE
  5
19E
330
19C
100
AcDbEntity
  8
P-6853
  6
Continuous
 62
     3
370
    -2
100
AcDbLine
 10
671.0659758710724
 20
852.3560876385426
 30
0.0
 11
671.0659758710724
 21
930.5060876385427
 31
0.0
  0
LINE
  5
19F
330
19C
100
AcDbEntity
  8
P-6853
  6
Continuous
 62
     3
370
    -2
100
AcDbLine
 10
521.0659758710724
 20
852.3560876385426
 30
0.0
 11
521.0659758710724
 21
930.5060876385427
 31
0.0
  0
LINE
  5
1A0
330
19C
100
AcDbEntity
  8
P-6853
  6
Continuous
 62
     3
370
    -2
100
AcDbLine
 10
659.0659758710724
 20
929.5060876385427
 30
0.0
 11
533.0659758710724
 21
929.5060876385427
 31
0.0
  0
SOLID
  5
1A1
330
19C
100
AcDbEntity
  8
P-6853
  6
Continuous
 62
     3
100
AcDbTrace
 10
659.0659758710724
 20
931.5060876385427
 30
0.0
 11
659.0659758710724
 21
927.5060876385426
 31
0.0
 12
671.0659758710724
 22
929.5060876385427
 32
0.0
 13
671.0659758710724
 23
929.5060876385427
 33
0.0
  0
SOLID
  5
1A2
330
19C
100
AcDbEntity
  8
P-6853
  6
Continuous
 62
     3
100
AcDbTrace
 10
533.0659758710724
 20
931.5060876385427
 30
0.0
 11
533.0659758710724
 21
927.5060876385426
 31
0.0
 12
521.0659758710724
 22
929.5060876385427
 32
0.0
 13
521.0659758710724
 23
929.5060876385427
 33
0.0
  0
MTEXT
  5
1A3
330
19C
100
AcDbEntity
  8
P-6853
  6
Continuous
 62
     6
100
AcDbMText
 10
596.0659758710724
 20
940.5060876385427
 30
0.0
 40
12.0
 41
0.0
 71
     5
 72
     1
  1
\A1;passo 150
  7
ROMANS
 73
     1
 44
1.0
1001
ACAD
1000
MTEXTBEGIN
1070
    73
1070
     1
1070
    44
1040
1.0
1070
    74
1070
     0
1000
MTEXTEND
  0
POINT
  5
1A4
330
19C
100
AcDbEntity
  8
Defpoints
  6
Continuous
 62
     0
100
AcDbPoint
 10
671.0659758710724
 20
850.3560876385426
 30
0.0
  0
POINT
  5
1A5
330
19C
100
AcDbEntity
  8
Defpoints
  6
Continuous
 62
     0
100
AcDbPoint
 10
521.0659758710724
 20
850.3560876385426
 30
0.0
  0
POINT
  5
1A6
330
19C
100
AcDbEntity
  8
Defpoints
  6
Continuous
 62
     0
100
AcDbPoint
 10
521.0659758710724
 20
929.5060876385427
 30
0.0
  0
ENDBLK
  5
1A7
330
19C
100
AcDbEntity
  8
0
 62
     2
100
AcDbBlockEnd
  0
BLOCK
  5
1A9
330
1A8
100
AcDbEntity
  8
0
 62
     2
100
AcDbBlockBegin
  2
*D3
 70
     1
 10
0.0
 20
0.0
 30
0.0
  3
*D3
  1

  0
LINE
  5
1AA
330
1A8
100
AcDbEntity
  8
P-6853
  6
Continuous
 62
     3
370
    -2
100
AcDbLine
 10
512.5659758710724
 20
839.0060876385426
 30
0.0
 11
512.5659758710724
 21
741.5060876385425
 31
0.0
  0
LINE
  5
1AB
330
1A8
100
AcDbEntity
  8
P-6853
  6
Continuous
 62
     3
370
    -2
100
AcDbLine
 10
529.5659758710724
 20
839.0060876385426
 30
0.0
 11
529.5659758710724
 21
741.5060876385425
 31
0.0
  0
LINE
  5
1AC
330
1A8
100
AcDbEntity
  8
P-6853
  6
Continuous
 62
     3
370
    -2
100
AcDbLine
 10
500.5659758710724
 20
742.5060876385425
 30
0.0
 11
488.5659758710723
 21
742.5060876385425
 31
0.0
  0
LINE
  5
1AD
330
1A8
100
AcDbEntity
  8
P-6853
  6
Continuous
 62
     3
370
    -2
100
AcDbLine
 10
541.5659758710724
 20
742.5060876385425
 30
0.0
 11
684.3425380702853
 21
742.5060876385425
 31
0.0
  0
LINE
  5
1AE
330
1A8
100
AcDbEntity
  8
P-6853
  6
Continuous
 62
     3
370
    -2
100
AcDbLine
 10
512.5659758710724
 20
742.5060876385425
 30
0.0
 11
529.5659758710724
 21
742.5060876385425
 31
0.0
  0
SOLID
  5
1AF
330
1A8
100
AcDbEntity
  8
P-6853
  6
Continuous
 62
     3
100
AcDbTrace
 10
500.5659758710724
 20
744.5060876385426
 30
0.0
 11
500.5659758710724
 21
740.5060876385426
 31
0.0
 12
512.5659758710724
 22
742.5060876385425
 32
0.0
 13
512.5659758710724
 23
742.5060876385425
 33
0.0
  0
SOLID
  5
1B0
330
1A8
100
AcDbEntity
  8
P-6853
  6
Continuous
 62
     3
100
AcDbTrace
 10
541.5659758710724
 20
744.5060876385426
 30
0.0
 11
541.5659758710724
 21
740.5060876385426
 31
0.0
 12
529.5659758710724
 22
742.5060876385425
 32
0.0
 13
529.5659758710724
 23
742.5060876385425
 33
0.0
  0
MTEXT
  5
1B1
330
1A8
100
AcDbEntity
  8
P-6853
  6
Continuous
 62
     6
100
AcDbMText
 10
618.9542569706788
 20
751.5060876385425
 30
0.0
 40
12.0
 41
0.0
 71
     5
 72
     1
  1
\A1;%%c17 n°16 fori
  7
ROMANS
 73
     1
 44
1.0
1001
ACAD
1000
MTEXTBEGIN
1070
    73
1070
     1
1070
    44
1040
1.0
1070
    74
1070
     0
1000
MTEXTEND
  0
POINT
  5
1B2
330
1A8
100
AcDbEntity
  8
Defpoints
  6
Continuous
 62
     0
100
AcDbPoint
 10
512.5659758710724
 20
841.0060876385426
 30
0.0
  0
POINT
  5
1B3
330
1A8
100
AcDbEntity
  8
Defpoints
  6
Continuous
 62
     0
100
AcDbPoint
 10
529.5659758710724
 20
841.0060876385426
 30
0.0
  0
POINT
  5
1B4
330
1A8
100
AcDbEntity
  8
Defpoints
  6
Continuous
 62
     0
100
AcDbPoint
 10
529.5659758710724
 20
742.5060876385425
 30
0.0
  0
ENDBLK
  5
1B5
330
1A8
100
AcDbEntity
  8
0
 62
     2
100
AcDbBlockEnd
  0
BLOCK
  5
1B7
330
1B6
100
AcDbEntity
  8
0
 62
     2
100
AcDbBlockBegin
  2
*D4
 70
     1
 10
0.0
 20
0.0
 30
0.0
  3
*D4
  1

  0
LINE
  5
1B8
330
1B6
100
AcDbEntity
  8
P-6853
  6
Continuous
 62
     3
370
    -2
100
AcDbLine
 10
2896.065975871073
 20
851.0060876385425
 30
0.0
 11
2896.065975871073
 21
930.5060876385422
 31
0.0
  0
LINE
  5
1B9
330
1B6
100
AcDbEntity
  8
P-6853
  6
Continuous
 62
     3
370
    -2
100
AcDbLine
 10
2771.065975871073
 20
852.3560876385426
 30
0.0
 11
2771.065975871073
 21
930.5060876385422
 31
0.0
  0
LINE
  5
1BA
330
1B6
100
AcDbEntity
  8
P-6853
  6
Continuous
 62
     3
370
    -2
100
AcDbLine
 10
2884.065975871073
 20
929.506087638542
 30
0.0
 11
2783.065975871073
 21
929.506087638542
 31
0.0
  0
SOLID
  5
1BB
330
1B6
100
AcDbEntity
  8
P-6853
  6
Continuous
 62
     3
100
AcDbTrace
 10
2884.065975871073
 20
931.5060876385421
 30
0.0
 11
2884.065975871073
 21
927.506087638542
 31
0.0
 12
2896.065975871073
 22
929.506087638542
 32
0.0
 13
2896.065975871073
 23
929.506087638542
 33
0.0
  0
SOLID
  5
1BC
330
1B6
100
AcDbEntity
  8
P-6853
  6
Continuous
 62
     3
100
AcDbTrace
 10
2783.065975871073
 20
931.5060876385421
 30
0.0
 11
2783.065975871073
 21
927.506087638542
 31
0.0
 12
2771.065975871073
 22
929.506087638542
 32
0.0
 13
2771.065975871073
 23
929.506087638542
 33
0.0
  0
MTEXT
  5
1BD
330
1B6
100
AcDbEntity
  8
P-6853
  6
Continuous
 62
     6
100
AcDbMText
 10
2833.565975871073
 20
938.5060876385422
 30
0.0
 40
12.0
 41
0.0
 71
     5
 72
     1
  1
\A1;125
  7
ROMANS
 73
     1
 44
1.0
1001
ACAD
1000
MTEXTBEGIN
1070
    73
1070
     1
1070
    44
1040
1.0
1070
    74
1070
     0
1000
MTEXTEND
  0
POINT
  5
1BE
330
1B6
100
AcDbEntity
  8
Defpoints
  6
Continuous
 62
     0
100
AcDbPoint
 10
2896.065975871073
 20
849.0060876385426
 30
0.0
  0
POINT
  5
1BF
330
1B6
100
AcDbEntity
  8
Defpoints
  6
Continuous
 62
     0
100
AcDbPoint
 10
2771.065975871073
 20
850.3560876385426
 30
0.0
  0
POINT
  5
1C0
330
1B6
100
AcDbEntity
  8
Defpoints
  6
Continuous
 62
     0
100
AcDbPoint
 10
2771.065975871073
 20
929.506087638542
 30
0.0
  0
ENDBLK
  5
1C1
330
1B6
100
AcDbEntity
  8
0
 62
     2
100
AcDbBlockEnd
  0
BLOCK
  5
1C3
330
1C2
100
AcDbEntity
  8
0
 62
     2
100
AcDbBlockBegin
  2
*D5
 70
     1
 10
0.0
 20
0.0
 30
0.0
  3
*D5
  1

  0
LINE
  5
1C4
330
1C2
100
AcDbEntity
  8
P-6853
  6
Continuous
 62
     3
370
    -2
100
AcDbLine
 10
2896.065975871073
 20
851.0060876385425
 30
0.0
 11
2896.065975871073
 21
970.5060876385429
 31
0.0
  0
LINE
  5
1C5
330
1C2
100
AcDbEntity
  8
P-6853
  6
Continuous
 62
     3
370
    -2
100
AcDbLine
 10
396.0659758710725
 20
851.0060876385425
 30
0.0
 11
396.0659758710725
 21
970.5060876385429
 31
0.0
  0
LINE
  5
1C6
330
1C2
100
AcDbEntity
  8
P-6853
  6
Continuous
 62
     3
370
    -2
100
AcDbLine
 10
2884.065975871073
 20
969.5060876385429
 30
0.0
 11
408.0659758710724
 21
969.5060876385429
 31
0.0
  0
SOLID
  5
1C7
330
1C2
100
AcDbEntity
  8
P-6853
  6
Continuous
 62
     3
100
AcDbTrace
 10
2884.065975871073
 20
971.5060876385431
 30
0.0
 11
2884.065975871073
 21
967.506087638543
 31
0.0
 12
2896.065975871073
 22
969.5060876385429
 32
0.0
 13
2896.065975871073
 23
969.5060876385429
 33
0.0
  0
SOLID
  5
1C8
330
1C2
100
AcDbEntity
  8
P-6853
  6
Continuous
 62
     3
100
AcDbTrace
 10
408.0659758710724
 20
971.5060876385431
 30
0.0
 11
408.0659758710724
 21
967.506087638543
 31
0.0
 12
396.0659758710725
 22
969.5060876385429
 32
0.0
 13
396.0659758710725
 23
969.5060876385429
 33
0.0
  0
MTEXT
  5
1C9
330
1C2
100
AcDbEntity
  8
P-6853
  6
Continuous
 62
     6
100
AcDbMText
 10
1646.065975871072
 20
978.5060876385429
 30
0.0
 40
12.0
 41
0.0
 71
     5
 72
     1
  1
\A1;2500
  7
ROMANS
 73
     1
 44
1.0
1001
ACAD
1000
MTEXTBEGIN
1070
    73
1070
     1
1070
    44
1040
1.0
1070
    74
1070
     0
1000
MTEXTEND
  0
POINT
  5
1CA
330
1C2
100
AcDbEntity
  8
Defpoints
  6
Continuous
 62
     0
100
AcDbPoint
 10
2896.065975871073
 20
849.0060876385426
 30
0.0
  0
POINT
  5
1CB
330
1C2
100
AcDbEntity
  8
Defpoints
  6
Continuous
 62
     0
100
AcDbPoint
 10
396.0659758710725
 20
849.0060876385426
 30
0.0
  0
POINT
  5
1CC
330
1C2
100
AcDbEntity
  8
Defpoints
  6
Continuous
 62
     0
100
AcDbPoint
 10
396.0659758710725
 20
969.5060876385429
 30
0.0
  0
ENDBLK
  5
1CD
330
1C2
100
AcDbEntity
  8
0
 62
     2
100
AcDbBlockEnd
  0
BLOCK
  5
1CF
330
1CE
100
AcDbEntity
  8
0
 62
     2
100
AcDbBlockBegin
  2
*D6
 70
     1
 10
0.0
 20
0.0
 30
0.0
  3
*D6
  1

  0
LINE
  5
1D0
330
1CE
100
AcDbEntity
  8
P-6853
  6
Continuous
 62
     3
370
    -2
100
AcDbLine
 10
394.0659758710725
 20
833.0060876385426
 30
0.0
 11
335.0659758710723
 21
833.0060876385426
 31
0.0
  0
LINE
  5
1D1
330
1CE
100
AcDbEntity
  8
P-6853
  6
Continuous
 62
     3
370
    -2
100
AcDbLine
 10
394.0659758710725
 20
849.0060876385426
 30
0.0
 11
335.0659758710723
 21
849.0060876385426
 31
0.0
  0
LINE
  5
1D2
330
1CE
100
AcDbEntity
  8
P-6853
  6
Continuous
 62
     3
370
    -2
100
AcDbLine
 10
336.0659758710724
 20
821.0060876385425
 30
0.0
 11
336.0659758710724
 21
809.0060876385425
 31
0.0
  0
LINE
  5
1D3
330
1CE
100
AcDbEntity
  8
P-6853
  6
Continuous
 62
     3
370
    -2
100
AcDbLine
 10
336.0659758710724
 20
861.0060876385425
 30
0.0
 11
336.0659758710724
 21
873.0060876385426
 31
0.0
  0
LINE
  5
1D4
330
1CE
100
AcDbEntity
  8
P-6853
  6
Continuous
 62
     3
370
    -2
100
AcDbLine
 10
336.0659758710724
 20
833.0060876385426
 30
0.0
 11
336.0659758710724
 21
849.0060876385426
 31
0.0
  0
SOLID
  5
1D5
330
1CE
100
AcDbEntity
  8
P-6853
  6
Continuous
 62
     3
100
AcDbTrace
 10
334.0659758710724
 20
821.0060876385425
 30
0.0
 11
338.0659758710724
 21
821.0060876385425
 31
0.0
 12
336.0659758710724
 22
833.0060876385426
 32
0.0
 13
336.0659758710724
 23
833.0060876385426
 33
0.0
  0
SOLID
  5
1D6
330
1CE
100
AcDbEntity
  8
P-6853
  6
Continuous
 62
     3
100
AcDbTrace
 10
334.0659758710724
 20
861.0060876385425
 30
0.0
 11
338.0659758710724
 21
861.0060876385425
 31
0.0
 12
336.0659758710724
 22
849.0060876385426
 32
0.0
 13
336.0659758710724
 23
849.0060876385426
 33
0.0
  0
MTEXT
  5
1D7
330
1CE
100
AcDbEntity
  8
P-6853
  6
Continuous
 62
     6
100
AcDbMText
 10
327.0659758710722
 20
841.0060876385426
 30
0.0
 40
12.0
 41
0.0
 71
     5
 72
     1
  1
\A1;%%c16
  7
ROMANS
 11
0.0000000000000001
 21
1.0
 31
0.0
 73
     1
 44
1.0
1001
ACAD
1000
MTEXTBEGIN
1070
    73
1070
     1
1070
    44
1040
1.0
1070
    74
1070
     0
1000
MTEXTEND
  0
POINT
  5
1D8
330
1CE
100
AcDbEntity
  8
Defpoints
  6
Continuous
 62
     0
100
AcDbPoint
 10
396.0659758710725
 20
833.0060876385426
 30
0.0
  0
POINT
  5
1D9
330
1CE
100
AcDbEntity
  8
Defpoints
  6
Continuous
 62
     0
100
AcDbPoint
 10
396.0659758710725
 20
849.0060876385426
 30
0.0
  0
POINT
  5
1DA
330
1CE
100
AcDbEntity
  8
Defpoints
  6
Continuous
 62
     0
100
AcDbPoint
 10
336.0659758710724
 20
849.0060876385426
 30
0.0
  0
ENDBLK
  5
1DB
330
1CE
100
AcDbEntity
  8
0
 62
     2
100
AcDbBlockEnd
  0
BLOCK
  5
35E
330
35D
100
AcDbEntity
  8
0
 62
     7
100
AcDbBlockBegin
  2
*D8
 70
     1
 10
0.0
 20
0.0
 30
0.0
  3
*D8
  1

  0
LINE
  5
3A7
330
35D
100
AcDbEntity
  8
P-6853
  6
Continuous
 62
     3
370
    -2
100
AcDbLine
 10
336.7207591836883
 20
282.1941268887341
 30
0.0
 11
336.7207591836883
 21
362.1941268887343
 31
0.0
  0
LINE
  5
3A8
330
35D
100
AcDbEntity
  8
P-6853
  6
Continuous
 62
     3
370
    -2
100
AcDbLine
 10
461.7207591836882
 20
283.5441268887342
 30
0.0
 11
461.7207591836882
 21
362.1941268887343
 31
0.0
  0
LINE
  5
3A9
330
35D
100
AcDbEntity
  8
P-6853
  6
Continuous
 62
     3
370
    -2
100
AcDbLine
 10
339.7207591836882
 20
361.6941268887343
 30
0.0
 11
458.7207591836881
 21
361.6941268887343
 31
0.0
  0
SOLID
  5
3AA
330
35D
100
AcDbEntity
  8
P-6853
  6
Continuous
 62
     3
100
AcDbTrace
 10
339.7207591836882
 20
362.1941268887343
 30
0.0
 11
339.7207591836882
 21
361.1941268887343
 31
0.0
 12
336.7207591836883
 22
361.6941268887343
 32
0.0
 13
336.7207591836883
 23
361.6941268887343
 33
0.0
  0
SOLID
  5
3AB
330
35D
100
AcDbEntity
  8
P-6853
  6
Continuous
 62
     3
100
AcDbTrace
 10
458.7207591836881
 20
362.1941268887343
 30
0.0
 11
458.7207591836881
 21
361.1941268887343
 31
0.0
 12
461.7207591836882
 22
361.6941268887343
 32
0.0
 13
461.7207591836882
 23
361.6941268887343
 33
0.0
  0
MTEXT
  5
3AC
330
35D
100
AcDbEntity
  8
P-6853
  6
Continuous
 62
     6
100
AcDbMText
 10
399.2207591836882
 20
364.6941268887343
 30
0.0
 40
3.0
 41
0.0
 71
     5
 72
     1
  1
\A1;125
  7
ROMANS
 73
     1
 44
1.0
1001
ACAD
1000
MTEXTBEGIN
1070
    73
1070
     1
1070
    44
1040
1.0
1070
    74
1070
     0
1000
MTEXTEND
  0
POINT
  5
3AD
330
35D
100
AcDbEntity
  8
Defpoints
  6
Continuous
 62
     0
100
AcDbPoint
 10
336.7207591836883
 20
281.1941268887342
 30
0.0
  0
POINT
  5
3AE
330
35D
100
AcDbEntity
  8
Defpoints
  6
Continuous
 62
     0
100
AcDbPoint
 10
461.7207591836882
 20
282.5441268887342
 30
0.0
  0
POINT
  5
3AF
330
35D
100
AcDbEntity
  8
Defpoints
  6
Continuous
 62
     0
100
AcDbPoint
 10
461.7207591836882
 20
361.6941268887343
 30
0.0
  0
ENDBLK
  5
35F
330
35D
100
AcDbEntity
  8
0
 62
     7
100
AcDbBlockEnd
  0
BLOCK
  5
36A
330
369
100
AcDbEntity
  8
0
 62
     7
100
AcDbBlockBegin
  2
*D9
 70
     1
 10
0.0
 20
0.0
 30
0.0
  3
*D9
  1

  0
LINE
  5
3B0
330
369
100
AcDbEntity
  8
P-6853
  6
Continuous
 62
     3
370
    -2
100
AcDbLine
 10
611.7207591836882
 20
283.5441268887342
 30
0.0
 11
611.7207591836882
 21
362.1941268887343
 31
0.0
  0
LINE
  5
3B1
330
369
100
AcDbEntity
  8
P-6853
  6
Continuous
 62
     3
370
    -2
100
AcDbLine
 10
461.7207591836882
 20
283.5441268887342
 30
0.0
 11
461.7207591836882
 21
362.1941268887343
 31
0.0
  0
LINE
  5
3B2
330
369
100
AcDbEntity
  8
P-6853
  6
Continuous
 62
     3
370
    -2
100
AcDbLine
 10
608.7207591836881
 20
361.6941268887343
 30
0.0
 11
464.7207591836881
 21
361.6941268887343
 31
0.0
  0
SOLID
  5
3B3
330
369
100
AcDbEntity
  8
P-6853
  6
Continuous
 62
     3
100
AcDbTrace
 10
608.7207591836881
 20
362.1941268887343
 30
0.0
 11
608.7207591836881
 21
361.1941268887343
 31
0.0
 12
611.7207591836882
 22
361.6941268887343
 32
0.0
 13
611.7207591836882
 23
361.6941268887343
 33
0.0
  0
SOLID
  5
3B4
330
369
100
AcDbEntity
  8
P-6853
  6
Continuous
 62
     3
100
AcDbTrace
 10
464.7207591836881
 20
362.1941268887343
 30
0.0
 11
464.7207591836881
 21
361.1941268887343
 31
0.0
 12
461.7207591836882
 22
361.6941268887343
 32
0.0
 13
461.7207591836882
 23
361.6941268887343
 33
0.0
  0
MTEXT
  5
3B5
330
369
100
AcDbEntity
  8
P-6853
  6
Continuous
 62
     6
100
AcDbMText
 10
536.7207591836882
 20
365.1941268887343
 30
0.0
 40
3.0
 41
0.0
 71
     5
 72
     1
  1
\A1;passo 150
  7
ROMANS
 73
     1
 44
1.0
1001
ACAD
1000
MTEXTBEGIN
1070
    73
1070
     1
1070
    44
1040
1.0
1070
    74
1070
     0
1000
MTEXTEND
  0
POINT
  5
3B6
330
369
100
AcDbEntity
  8
Defpoints
  6
Continuous
 62
     0
100
AcDbPoint
 10
611.7207591836882
 20
282.5441268887342
 30
0.0
  0
POINT
  5
3B7
330
369
100
AcDbEntity
  8
Defpoints
  6
Continuous
 62
     0
100
AcDbPoint
 10
461.7207591836882
 20
282.5441268887342
 30
0.0
  0
POINT
  5
3B8
330
369
100
AcDbEntity
  8
Defpoints
  6
Continuous
 62
     0
100
AcDbPoint
 10
461.7207591836882
 20
361.6941268887343
 30
0.0
  0
ENDBLK
  5
36B
330
369
100
AcDbEntity
  8
0
 62
     7
100
AcDbBlockEnd
  0
BLOCK
  5
376
330
375
100
AcDbEntity
  8
0
 62
     7
100
AcDbBlockBegin
  2
*D10
 70
     1
 10
0.0
 20
0.0
 30
0.0
  3
*D10
  1

  0
LINE
  5
3B9
330
375
100
AcDbEntity
  8
P-6853
  6
Continuous
 62
     3
370
    -2
100
AcDbLine
 10
453.2207591836882
 20
272.1941268887341
 30
0.0
 11
453.2207591836882
 21
174.1941268887341
 31
0.0
  0
LINE
  5
3BA
330
375
100
AcDbEntity
  8
P-6853
  6
Continuous
 62
     3
370
    -2
100
AcDbLine
 10
470.2207591836882
 20
272.1941268887341
 30
0.0
 11
470.2207591836882
 21
174.1941268887341
 31
0.0
  0
LINE
  5
3BB
330
375
100
AcDbEntity
  8
P-6853
  6
Continuous
 62
     3
370
    -2
100
AcDbLine
 10
450.2207591836882
 20
174.6941268887341
 30
0.0
 11
447.2207591836881
 21
174.6941268887341
 31
0.0
  0
LINE
  5
3BC
330
375
100
AcDbEntity
  8
P-6853
  6
Continuous
 62
     3
370
    -2
100
AcDbLine
 10
473.2207591836881
 20
174.6941268887341
 30
0.0
 11
576.7061105581963
 21
174.6941268887341
 31
0.0
  0
LINE
  5
3BD
330
375
100
AcDbEntity
  8
P-6853
  6
Continuous
 62
     3
370
    -2
100
AcDbLine
 10
453.2207591836882
 20
174.6941268887341
 30
0.0
 11
470.2207591836882
 21
174.6941268887341
 31
0.0
  0
SOLID
  5
3BE
330
375
100
AcDbEntity
  8
P-6853
  6
Continuous
 62
     3
100
AcDbTrace
 10
450.2207591836882
 20
175.1941268887341
 30
0.0
 11
450.2207591836882
 21
174.1941268887341
 31
0.0
 12
453.2207591836882
 22
174.6941268887341
 32
0.0
 13
453.2207591836882
 23
174.6941268887341
 33
0.0
  0
SOLID
  5
3BF
330
375
100
AcDbEntity
  8
P-6853
  6
Continuous
 62
     3
100
AcDbTrace
 10
473.2207591836881
 20
175.1941268887341
 30
0.0
 11
473.2207591836881
 21
174.1941268887341
 31
0.0
 12
470.2207591836882
 22
174.6941268887341
 32
0.0
 13
470.2207591836882
 23
174.6941268887341
 33
0.0
  0
MTEXT
  5
3C0
330
375
100
AcDbEntity
  8
P-6853
  6
Continuous
 62
     6
100
AcDbMText
 10
559.6090402832946
 20
177.6941268887341
 30
0.0
 40
3.0
 41
0.0
 71
     5
 72
     1
  1
\A1;%%c17 n°16 fori
  7
ROMANS
 73
     1
 44
1.0
1001
ACAD
1000
MTEXTBEGIN
1070
    73
1070
     1
1070
    44
1040
1.0
1070
    74
1070
     0
1000
MTEXTEND
  0
POINT
  5
3C1
330
375
100
AcDbEntity
  8
Defpoints
  6
Continuous
 62
     0
100
AcDbPoint
 10
453.2207591836882
 20
273.1941268887342
 30
0.0
  0
POINT
  5
3C2
330
375
100
AcDbEntity
  8
Defpoints
  6
Continuous
 62
     0
100
AcDbPoint
 10
470.2207591836882
 20
273.1941268887342
 30
0.0
  0
POINT
  5
3C3
330
375
100
AcDbEntity
  8
Defpoints
  6
Continuous
 62
     0
100
AcDbPoint
 10
470.2207591836882
 20
174.6941268887341
 30
0.0
  0
ENDBLK
  5
377
330
375
100
AcDbEntity
  8
0
 62
     7
100
AcDbBlockEnd
  0
BLOCK
  5
384
330
383
100
AcDbEntity
  8
0
 62
     7
100
AcDbBlockBegin
  2
*D11
 70
     1
 10
0.0
 20
0.0
 30
0.0
  3
*D11
  1

  0
LINE
  5
3C4
330
383
100
AcDbEntity
  8
P-6853
  6
Continuous
 62
     3
370
    -2
100
AcDbLine
 10
2836.720759183688
 20
282.1941268887341
 30
0.0
 11
2836.720759183688
 21
362.1941268887337
 31
0.0
  0
LINE
  5
3C5
330
383
100
AcDbEntity
  8
P-6853
  6
Continuous
 62
     3
370
    -2
100
AcDbLine
 10
2711.720759183689
 20
283.5441268887342
 30
0.0
 11
2711.720759183689
 21
362.1941268887337
 31
0.0
  0
LINE
  5
3C6
330
383
100
AcDbEntity
  8
P-6853
  6
Continuous
 62
     3
370
    -2
100
AcDbLine
 10
2833.720759183688
 20
361.6941268887337
 30
0.0
 11
2714.720759183689
 21
361.6941268887337
 31
0.0
  0
SOLID
  5
3C7
330
383
100
AcDbEntity
  8
P-6853
  6
Continuous
 62
     3
100
AcDbTrace
 10
2833.720759183688
 20
362.1941268887337
 30
0.0
 11
2833.720759183688
 21
361.1941268887337
 31
0.0
 12
2836.720759183688
 22
361.6941268887337
 32
0.0
 13
2836.720759183688
 23
361.6941268887337
 33
0.0
  0
SOLID
  5
3C8
330
383
100
AcDbEntity
  8
P-6853
  6
Continuous
 62
     3
100
AcDbTrace
 10
2714.720759183689
 20
362.1941268887337
 30
0.0
 11
2714.720759183689
 21
361.1941268887337
 31
0.0
 12
2711.720759183689
 22
361.6941268887337
 32
0.0
 13
2711.720759183689
 23
361.6941268887337
 33
0.0
  0
MTEXT
  5
3C9
330
383
100
AcDbEntity
  8
P-6853
  6
Continuous
 62
     6
100
AcDbMText
 10
2774.220759183689
 20
364.6941268887337
 30
0.0
 40
3.0
 41
0.0
 71
     5
 72
     1
  1
\A1;125
  7
ROMANS
 73
     1
 44
1.0
1001
ACAD
1000
MTEXTBEGIN
1070
    73
1070
     1
1070
    44
1040
1.0
1070
    74
1070
     0
1000
MTEXTEND
  0
POINT
  5
3CA
330
383
100
AcDbEntity
  8
Defpoints
  6
Continuous
 62
     0
100
AcDbPoint
 10
2836.720759183688
 20
281.1941268887342
 30
0.0
  0
POINT
  5
3CB
330
383
100
AcDbEntity
  8
Defpoints
  6
Continuous
 62
     0
100
AcDbPoint
 10
2711.720759183689
 20
282.5441268887342
 30
0.0
  0
POINT
  5
3CC
330
383
100
AcDbEntity
  8
Defpoints
  6
Continuous
 62
     0
100
AcDbPoint
 10
2711.720759183689
 20
361.6941268887337
 30
0.0
  0
ENDBLK
  5
385
330
383
100
AcDbEntity
  8
0
 62
     7
100
AcDbBlockEnd
  0
BLOCK
  5
390
330
38F
100
AcDbEntity
  8
0
 62
     7
100
AcDbBlockBegin
  2
*D12
 70
     1
 10
0.0
 20
0.0
 30
0.0
  3
*D12
  1

  0
LINE
  5
3CD
330
38F
100
AcDbEntity
  8
P-6853
  6
Continuous
 62
     3
370
    -2
100
AcDbLine
 10
2836.720759183688
 20
282.1941268887341
 30
0.0
 11
2836.720759183688
 21
402.1941268887346
 31
0.0
  0
LINE
  5
3CE
330
38F
100
AcDbEntity
  8
P-6853
  6
Continuous
 62
     3
370
    -2
100
AcDbLine
 10
336.7207591836883
 20
282.1941268887341
 30
0.0
 11
336.7207591836883
 21
402.1941268887346
 31
0.0
  0
LINE
  5
3CF
330
38F
100
AcDbEntity
  8
P-6853
  6
Continuous
 62
     3
370
    -2
100
AcDbLine
 10
2833.720759183688
 20
401.6941268887346
 30
0.0
 11
339.7207591836882
 21
401.6941268887346
 31
0.0
  0
SOLID
  5
3D0
330
38F
100
AcDbEntity
  8
P-6853
  6
Continuous
 62
     3
100
AcDbTrace
 10
2833.720759183688
 20
402.1941268887346
 30
0.0
 11
2833.720759183688
 21
401.1941268887346
 31
0.0
 12
2836.720759183688
 22
401.6941268887346
 32
0.0
 13
2836.720759183688
 23
401.6941268887346
 33
0.0
  0
SOLID
  5
3D1
330
38F
100
AcDbEntity
  8
P-6853
  6
Continuous
 62
     3
100
AcDbTrace
 10
339.7207591836882
 20
402.1941268887346
 30
0.0
 11
339.7207591836882
 21
401.1941268887346
 31
0.0
 12
336.7207591836883
 22
401.6941268887346
 32
0.0
 13
336.7207591836883
 23
401.6941268887346
 33
0.0
  0
MTEXT
  5
3D2
330
38F
100
AcDbEntity
  8
P-6853
  6
Continuous
 62
     6
100
AcDbMText
 10
1586.720759183688
 20
404.6941268887346
 30
0.0
 40
3.0
 41
0.0
 71
     5
 72
     1
  1
\A1;2500
  7
ROMANS
 73
     1
 44
1.0
1001
ACAD
1000
MTEXTBEGIN
1070
    73
1070
     1
1070
    44
1040
1.0
1070
    74
1070
     0
1000
MTEXTEND
  0
POINT
  5
3D3
330
38F
100
AcDbEntity
  8
Defpoints
  6
Continuous
 62
     0
100
AcDbPoint
 10
2836.720759183688
 20
281.1941268887342
 30
0.0
  0
POINT
  5
3D4
330
38F
100
AcDbEntity
  8
Defpoints
  6
Continuous
 62
     0
100
AcDbPoint
 10
336.7207591836883
 20
281.1941268887342
 30
0.0
  0
POINT
  5
3D5
330
38F
100
AcDbEntity
  8
Defpoints
  6
Continuous
 62
     0
100
AcDbPoint
 10
336.7207591836883
 20
401.6941268887346
 30
0.0
  0
ENDBLK
  5
391
330
38F
100
AcDbEntity
  8
0
 62
     7
100
AcDbBlockEnd
  0
BLOCK
  5
39C
330
39B
100
AcDbEntity
  8
0
 62
     7
100
AcDbBlockBegin
  2
*D13
 70
     1
 10
0.0
 20
0.0
 30
0.0
  3
*D13
  1

  0
LINE
  5
3D6
330
39B
100
AcDbEntity
  8
P-6853
  6
Continuous
 62
     3
370
    -2
100
AcDbLine
 10
335.7207591836882
 20
265.1941268887342
 30
0.0
 11
276.2207591836881
 21
265.1941268887342
 31
0.0
  0
LINE
  5
3D7
330
39B
100
AcDbEntity
  8
P-6853
  6
Continuous
 62
     3
370
    -2
100
AcDbLine
 10
335.7207591836883
 20
281.1941268887342
 30
0.0
 11
276.2207591836881
 21
281.1941268887342
 31
0.0
  0
LINE
  5
3D8
330
39B
100
AcDbEntity
  8
P-6853
  6
Continuous
 62
     3
370
    -2
100
AcDbLine
 10
276.7207591836881
 20
268.1941268887342
 30
0.0
 11
276.7207591836881
 21
278.1941268887341
 31
0.0
  0
SOLID
  5
3D9
330
39B
100
AcDbEntity
  8
P-6853
  6
Continuous
 62
     3
100
AcDbTrace
 10
276.2207591836881
 20
268.1941268887342
 30
0.0
 11
277.2207591836881
 21
268.1941268887342
 31
0.0
 12
276.7207591836881
 22
265.1941268887342
 32
0.0
 13
276.7207591836881
 23
265.1941268887342
 33
0.0
  0
SOLID
  5
3DA
330
39B
100
AcDbEntity
  8
P-6853
  6
Continuous
 62
     3
100
AcDbTrace
 10
276.2207591836881
 20
278.1941268887341
 30
0.0
 11
277.2207591836881
 21
278.1941268887341
 31
0.0
 12
276.7207591836881
 22
281.1941268887342
 32
0.0
 13
276.7207591836881
 23
281.1941268887342
 33
0.0
  0
MTEXT
  5
3DB
330
39B
100
AcDbEntity
  8
P-6853
  6
Continuous
 62
     6
100
AcDbMText
 10
273.7207591836881
 20
273.1941268887342
 30
0.0
 40
3.0
 41
0.0
 71
     5
 72
     1
  1
\A1;%%c16
  7
ROMANS
 11
0.0000000000000001
 21
1.0
 31
0.0
 73
     1
 44
1.0
1001
ACAD
1000
MTEXTBEGIN
1070
    73
1070
     1
1070
    44
1040
1.0
1070
    74
1070
     0
1000
MTEXTEND
  0
POINT
  5
3DC
330
39B
100
AcDbEntity
  8
Defpoints
  6
Continuous
 62
     0
100
AcDbPoint
 10
336.7207591836883
 20
265.1941268887342
 30
0.0
  0
POINT
  5
3DD
330
39B
100
AcDbEntity
  8
Defpoints
  6
Continuous
 62
     0
100
AcDbPoint
 10
336.7207591836883
 20
281.1941268887342
 30
0.0
  0
POINT
  5
3DE
330
39B
100
AcDbEntity
  8
Defpoints
  6
Continuous
 62
     0
100
AcDbPoint
 10
276.7207591836881
 20
281.1941268887342
 30
0.0
  0
ENDBLK
  5
39D
330
39B
100
AcDbEntity
  8
0
 62
     7
100
AcDbBlockEnd
  0
BLOCK
  5
3F4
330
3F3
100
AcDbEntity
  8
0
 62
     2
100
AcDbBlockBegin
  2
*D14
 70
     1
 10
0.0
 20
0.0
 30
0.0
  3
*D14
  1

  0
LINE
  5
48E
330
3F3
100
AcDbEntity
  8
P-6853
  6
Continuous
 62
     3
370
    -2
100
AcDbLine
 10
2671.720759183689
 20
283.5441268887342
 30
0.0
 11
2671.720759183689
 21
339.2013680720189
 31
0.0
  0
LINE
  5
48F
330
3F3
100
AcDbEntity
  8
P-6853
  6
Continuous
 62
     3
370
    -2
100
AcDbLine
 10
2531.720759183689
 20
283.5441268887342
 30
0.0
 11
2531.720759183689
 21
339.2013680720189
 31
0.0
  0
LINE
  5
490
330
3F3
100
AcDbEntity
  8
P-6853
  6
Continuous
 62
     3
370
    -2
100
AcDbLine
 10
2668.720759183689
 20
338.7013680720189
 30
0.0
 11
2534.720759183689
 21
338.7013680720189
 31
0.0
  0
SOLID
  5
491
330
3F3
100
AcDbEntity
  8
P-6853
  6
Continuous
 62
     3
100
AcDbTrace
 10
2668.720759183689
 20
339.2013680720189
 30
0.0
 11
2668.720759183689
 21
338.2013680720189
 31
0.0
 12
2671.720759183689
 22
338.7013680720189
 32
0.0
 13
2671.720759183689
 23
338.7013680720189
 33
0.0
  0
SOLID
  5
492
330
3F3
100
AcDbEntity
  8
P-6853
  6
Continuous
 62
     3
100
AcDbTrace
 10
2534.720759183689
 20
339.2013680720189
 30
0.0
 11
2534.720759183689
 21
338.2013680720189
 31
0.0
 12
2531.720759183689
 22
338.7013680720189
 32
0.0
 13
2531.720759183689
 23
338.7013680720189
 33
0.0
  0
MTEXT
  5
493
330
3F3
100
AcDbEntity
  8
P-6853
  6
Continuous
 62
     6
100
AcDbMText
 10
2601.720759183689
 20
341.7013680720189
 30
0.0
 40
3.0
 41
0.0
 71
     5
 72
     1
  1
\A1;140
  7
ROMANS
 73
     1
 44
1.0
1001
ACAD
1000
MTEXTBEGIN
1070
    73
1070
     1
1070
    44
1040
1.0
1070
    74
1070
     0
1000
MTEXTEND
  0
POINT
  5
494
330
3F3
100
AcDbEntity
  8
Defpoints
  6
Continuous
 62
     0
100
AcDbPoint
 10
2671.720759183689
 20
282.5441268887342
 30
0.0
  0
POINT
  5
495
330
3F3
100
AcDbEntity
  8
Defpoints
  6
Continuous
 62
     0
100
AcDbPoint
 10
2531.720759183689
 20
282.5441268887342
 30
0.0
  0
POINT
  5
496
330
3F3
100
AcDbEntity
  8
Defpoints
  6
Continuous
 62
     0
100
AcDbPoint
 10
2531.720759183689
 20
338.7013680720189
 30
0.0
  0
ENDBLK
  5
3F5
330
3F3
100
AcDbEntity
  8
0
 62
     2
100
AcDbBlockEnd
  0
BLOCK
  5
401
330
400
100
AcDbEntity
  8
0
 62
     2
100
AcDbBlockBegin
  2
*D15
 70
     1
 10
0.0
 20
0.0
 30
0.0
  3
*D15
  1

  0
LINE
  5
497
330
400
100
AcDbEntity
  8
P-6853
  6
Continuous
 62
     3
370
    -2
100
AcDbLine
 10
2531.720759183689
 20
283.5441268887342
 30
0.0
 11
2531.720759183689
 21
339.2013680720189
 31
0.0
  0
LINE
  5
498
330
400
100
AcDbEntity
  8
P-6853
  6
Continuous
 62
     3
370
    -2
100
AcDbLine
 10
2391.720759183689
 20
283.5441268887342
 30
0.0
 11
2391.720759183689
 21
339.2013680720189
 31
0.0
  0
LINE
  5
499
330
400
100
AcDbEntity
  8
P-6853
  6
Continuous
 62
     3
370
    -2
100
AcDbLine
 10
2528.720759183689
 20
338.7013680720189
 30
0.0
 11
2394.720759183689
 21
338.7013680720189
 31
0.0
  0
SOLID
  5
49A
330
400
100
AcDbEntity
  8
P-6853
  6
Continuous
 62
     3
100
AcDbTrace
 10
2528.720759183689
 20
339.2013680720189
 30
0.0
 11
2528.720759183689
 21
338.2013680720189
 31
0.0
 12
2531.720759183689
 22
338.7013680720189
 32
0.0
 13
2531.720759183689
 23
338.7013680720189
 33
0.0
  0
SOLID
  5
49B
330
400
100
AcDbEntity
  8
P-6853
  6
Continuous
 62
     3
100
AcDbTrace
 10
2394.720759183689
 20
339.2013680720189
 30
0.0
 11
2394.720759183689
 21
338.2013680720189
 31
0.0
 12
2391.720759183689
 22
338.7013680720189
 32
0.0
 13
2391.720759183689
 23
338.7013680720189
 33
0.0
  0
MTEXT
  5
49C
330
400
100
AcDbEntity
  8
P-6853
  6
Continuous
 62
     6
100
AcDbMText
 10
2461.720759183689
 20
341.7013680720189
 30
0.0
 40
3.0
 41
0.0
 71
     5
 72
     1
  1
\A1;140
  7
ROMANS
 73
     1
 44
1.0
1001
ACAD
1000
MTEXTBEGIN
1070
    73
1070
     1
1070
    44
1040
1.0
1070
    74
1070
     0
1000
MTEXTEND
  0
POINT
  5
49D
330
400
100
AcDbEntity
  8
Defpoints
  6
Continuous
 62
     0
100
AcDbPoint
 10
2531.720759183689
 20
282.5441268887342
 30
0.0
  0
POINT
  5
49E
330
400
100
AcDbEntity
  8
Defpoints
  6
Continuous
 62
     0
100
AcDbPoint
 10
2391.720759183689
 20
282.5441268887342
 30
0.0
  0
POINT
  5
49F
330
400
100
AcDbEntity
  8
Defpoints
  6
Continuous
 62
     0
100
AcDbPoint
 10
2391.720759183689
 20
338.7013680720189
 30
0.0
  0
ENDBLK
  5
402
330
400
100
AcDbEntity
  8
0
 62
     2
100
AcDbBlockEnd
  0
BLOCK
  5
40E
330
40D
100
AcDbEntity
  8
0
 62
     2
100
AcDbBlockBegin
  2
*D16
 70
     1
 10
0.0
 20
0.0
 30
0.0
  3
*D16
  1

  0
LINE
  5
4A0
330
40D
100
AcDbEntity
  8
P-6853
  6
Continuous
 62
     3
370
    -2
100
AcDbLine
 10
2391.720759183689
 20
283.5441268887342
 30
0.0
 11
2391.720759183689
 21
339.2013680720189
 31
0.0
  0
LINE
  5
4A1
330
40D
100
AcDbEntity
  8
P-6853
  6
Continuous
 62
     3
370
    -2
100
AcDbLine
 10
2251.720759183689
 20
283.5441268887342
 30
0.0
 11
2251.720759183689
 21
339.2013680720189
 31
0.0
  0
LINE
  5
4A2
330
40D
100
AcDbEntity
  8
P-6853
  6
Continuous
 62
     3
370
    -2
100
AcDbLine
 10
2388.720759183689
 20
338.7013680720189
 30
0.0
 11
2254.720759183689
 21
338.7013680720189
 31
0.0
  0
SOLID
  5
4A3
330
40D
100
AcDbEntity
  8
P-6853
  6
Continuous
 62
     3
100
AcDbTrace
 10
2388.720759183689
 20
339.2013680720189
 30
0.0
 11
2388.720759183689
 21
338.2013680720189
 31
0.0
 12
2391.720759183689
 22
338.7013680720189
 32
0.0
 13
2391.720759183689
 23
338.7013680720189
 33
0.0
  0
SOLID
  5
4A4
330
40D
100
AcDbEntity
  8
P-6853
  6
Continuous
 62
     3
100
AcDbTrace
 10
2254.720759183689
 20
339.2013680720189
 30
0.0
 11
2254.720759183689
 21
338.2013680720189
 31
0.0
 12
2251.720759183689
 22
338.7013680720189
 32
0.0
 13
2251.720759183689
 23
338.7013680720189
 33
0.0
  0
MTEXT
  5
4A5
330
40D
100
AcDbEntity
  8
P-6853
  6
Continuous
 62
     6
100
AcDbMText
 10
2321.720759183689
 20
341.7013680720189
 30
0.0
 40
3.0
 41
0.0
 71
     5
 72
     1
  1
\A1;140
  7
ROMANS
 73
     1
 44
1.0
1001
ACAD
1000
MTEXTBEGIN
1070
    73
1070
     1
1070
    44
1040
1.0
1070
    74
1070
     0
1000
MTEXTEND
  0
POINT
  5
4A6
330
40D
100
AcDbEntity
  8
Defpoints
  6
Continuous
 62
     0
100
AcDbPoint
 10
2391.720759183689
 20
282.5441268887342
 30
0.0
  0
POINT
  5
4A7
330
40D
100
AcDbEntity
  8
Defpoints
  6
Continuous
 62
     0
100
AcDbPoint
 10
2251.720759183689
 20
282.5441268887342
 30
0.0
  0
POINT
  5
4A8
330
40D
100
AcDbEntity
  8
Defpoints
  6
Continuous
 62
     0
100
AcDbPoint
 10
2251.720759183689
 20
338.7013680720189
 30
0.0
  0
ENDBLK
  5
40F
330
40D
100
AcDbEntity
  8
0
 62
     2
100
AcDbBlockEnd
  0
BLOCK
  5
41B
330
41A
100
AcDbEntity
  8
0
 62
     2
100
AcDbBlockBegin
  2
*D17
 70
     1
 10
0.0
 20
0.0
 30
0.0
  3
*D17
  1

  0
LINE
  5
4A9
330
41A
100
AcDbEntity
  8
P-6853
  6
Continuous
 62
     3
370
    -2
100
AcDbLine
 10
2251.720759183689
 20
283.5441268887342
 30
0.0
 11
2251.720759183689
 21
339.2013680720189
 31
0.0
  0
LINE
  5
4AA
330
41A
100
AcDbEntity
  8
P-6853
  6
Continuous
 62
     3
370
    -2
100
AcDbLine
 10
2111.720759183689
 20
283.5441268887342
 30
0.0
 11
2111.720759183689
 21
339.2013680720189
 31
0.0
  0
LINE
  5
4AB
330
41A
100
AcDbEntity
  8
P-6853
  6
Continuous
 62
     3
370
    -2
100
AcDbLine
 10
2248.720759183689
 20
338.7013680720189
 30
0.0
 11
2114.720759183689
 21
338.7013680720189
 31
0.0
  0
SOLID
  5
4AC
330
41A
100
AcDbEntity
  8
P-6853
  6
Continuous
 62
     3
100
AcDbTrace
 10
2248.720759183689
 20
339.2013680720189
 30
0.0
 11
2248.720759183689
 21
338.2013680720189
 31
0.0
 12
2251.720759183689
 22
338.7013680720189
 32
0.0
 13
2251.720759183689
 23
338.7013680720189
 33
0.0
  0
SOLID
  5
4AD
330
41A
100
AcDbEntity
  8
P-6853
  6
Continuous
 62
     3
100
AcDbTrace
 10
2114.720759183689
 20
339.2013680720189
 30
0.0
 11
2114.720759183689
 21
338.2013680720189
 31
0.0
 12
2111.720759183689
 22
338.7013680720189
 32
0.0
 13
2111.720759183689
 23
338.7013680720189
 33
0.0
  0
MTEXT
  5
4AE
330
41A
100
AcDbEntity
  8
P-6853
  6
Continuous
 62
     6
100
AcDbMText
 10
2181.720759183689
 20
341.7013680720189
 30
0.0
 40
3.0
 41
0.0
 71
     5
 72
     1
  1
\A1;140
  7
ROMANS
 73
     1
 44
1.0
1001
ACAD
1000
MTEXTBEGIN
1070
    73
1070
     1
1070
    44
1040
1.0
1070
    74
1070
     0
1000
MTEXTEND
  0
POINT
  5
4AF
330
41A
100
AcDbEntity
  8
Defpoints
  6
Continuous
 62
     0
100
AcDbPoint
 10
2251.720759183689
 20
282.5441268887342
 30
0.0
  0
POINT
  5
4B0
330
41A
100
AcDbEntity
  8
Defpoints
  6
Continuous
 62
     0
100
AcDbPoint
 10
2111.720759183689
 20
282.5441268887342
 30
0.0
  0
POINT
  5
4B1
330
41A
100
AcDbEntity
  8
Defpoints
  6
Continuous
 62
     0
100
AcDbPoint
 10
2111.720759183689
 20
338.7013680720189
 30
0.0
  0
ENDBLK
  5
41C
330
41A
100
AcDbEntity
  8
0
 62
     2
100
AcDbBlockEnd
  0
BLOCK
  5
428
330
427
100
AcDbEntity
  8
0
 62
     2
100
AcDbBlockBegin
  2
*D18
 70
     1
 10
0.0
 20
0.0
 30
0.0
  3
*D18
  1

  0
LINE
  5
4B2
330
427
100
AcDbEntity
  8
P-6853
  6
Continuous
 62
     3
370
    -2
100
AcDbLine
 10
2111.720759183689
 20
283.5441268887342
 30
0.0
 11
2111.720759183689
 21
339.2013680720189
 31
0.0
  0
LINE
  5
4B3
330
427
100
AcDbEntity
  8
P-6853
  6
Continuous
 62
     3
370
    -2
100
AcDbLine
 10
1971.720759183688
 20
283.5441268887342
 30
0.0
 11
1971.720759183688
 21
339.2013680720189
 31
0.0
  0
LINE
  5
4B4
330
427
100
AcDbEntity
  8
P-6853
  6
Continuous
 62
     3
370
    -2
100
AcDbLine
 10
2108.720759183689
 20
338.7013680720189
 30
0.0
 11
1974.720759183688
 21
338.7013680720189
 31
0.0
  0
SOLID
  5
4B5
330
427
100
AcDbEntity
  8
P-6853
  6
Continuous
 62
     3
100
AcDbTrace
 10
2108.720759183689
 20
339.2013680720189
 30
0.0
 11
2108.720759183689
 21
338.2013680720189
 31
0.0
 12
2111.720759183689
 22
338.7013680720189
 32
0.0
 13
2111.720759183689
 23
338.7013680720189
 33
0.0
  0
SOLID
  5
4B6
330
427
100
AcDbEntity
  8
P-6853
  6
Continuous
 62
     3
100
AcDbTrace
 10
1974.720759183688
 20
339.2013680720189
 30
0.0
 11
1974.720759183688
 21
338.2013680720189
 31
0.0
 12
1971.720759183688
 22
338.7013680720189
 32
0.0
 13
1971.720759183688
 23
338.7013680720189
 33
0.0
  0
MTEXT
  5
4B7
330
427
100
AcDbEntity
  8
P-6853
  6
Continuous
 62
     6
100
AcDbMText
 10
2041.720759183689
 20
341.7013680720189
 30
0.0
 40
3.0
 41
0.0
 71
     5
 72
     1
  1
\A1;140
  7
ROMANS
 73
     1
 44
1.0
1001
ACAD
1000
MTEXTBEGIN
1070
    73
1070
     1
1070
    44
1040
1.0
1070
    74
1070
     0
1000
MTEXTEND
  0
POINT
  5
4B8
330
427
100
AcDbEntity
  8
Defpoints
  6
Continuous
 62
     0
100
AcDbPoint
 10
2111.720759183689
 20
282.5441268887342
 30
0.0
  0
POINT
  5
4B9
330
427
100
AcDbEntity
  8
Defpoints
  6
Continuous
 62
     0
100
AcDbPoint
 10
1971.720759183688
 20
282.5441268887342
 30
0.0
  0
POINT
  5
4BA
330
427
100
AcDbEntity
  8
Defpoints
  6
Continuous
 62
     0
100
AcDbPoint
 10
1971.720759183688
 20
338.7013680720189
 30
0.0
  0
ENDBLK
  5
429
330
427
100
AcDbEntity
  8
0
 62
     2
100
AcDbBlockEnd
  0
BLOCK
  5
435
330
434
100
AcDbEntity
  8
0
 62
     2
100
AcDbBlockBegin
  2
*D19
 70
     1
 10
0.0
 20
0.0
 30
0.0
  3
*D19
  1

  0
LINE
  5
437
330
434
100
AcDbEntity
  8
P-6853
  6
Continuous
 62
     3
370
    -2
100
AcDbLine
 10
1971.720759183688
 20
283.5441268887342
 30
0.0
 11
1971.720759183688
 21
339.2013680720189
 31
0.0
  0
LINE
  5
438
330
434
100
AcDbEntity
  8
P-6853
  6
Continuous
 62
     3
370
    -2
100
AcDbLine
 10
1831.720759183688
 20
283.5441268887342
 30
0.0
 11
1831.720759183688
 21
339.2013680720189
 31
0.0
  0
LINE
  5
439
330
434
100
AcDbEntity
  8
P-6853
  6
Continuous
 62
     3
370
    -2
100
AcDbLine
 10
1968.720759183688
 20
338.7013680720189
 30
0.0
 11
1834.720759183688
 21
338.7013680720189
 31
0.0
  0
SOLID
  5
43A
330
434
100
AcDbEntity
  8
P-6853
  6
Continuous
 62
     3
100
AcDbTrace
 10
1968.720759183688
 20
339.2013680720189
 30
0.0
 11
1968.720759183688
 21
338.2013680720189
 31
0.0
 12
1971.720759183688
 22
338.7013680720189
 32
0.0
 13
1971.720759183688
 23
338.7013680720189
 33
0.0
  0
SOLID
  5
43B
330
434
100
AcDbEntity
  8
P-6853
  6
Continuous
 62
     3
100
AcDbTrace
 10
1834.720759183688
 20
339.2013680720189
 30
0.0
 11
1834.720759183688
 21
338.2013680720189
 31
0.0
 12
1831.720759183688
 22
338.7013680720189
 32
0.0
 13
1831.720759183688
 23
338.7013680720189
 33
0.0
  0
MTEXT
  5
43C
330
434
100
AcDbEntity
  8
P-6853
  6
Continuous
 62
     6
100
AcDbMText
 10
1901.720759183688
 20
341.7013680720189
 30
0.0
 40
3.0
 41
0.0
 71
     5
 72
     1
  1
\A1;140
  7
ROMANS
 73
     1
 44
1.0
1001
ACAD
1000
MTEXTBEGIN
1070
    73
1070
     1
1070
    44
1040
1.0
1070
    74
1070
     0
1000
MTEXTEND
  0
POINT
  5
43D
330
434
100
AcDbEntity
  8
Defpoints
  6
Continuous
 62
     0
100
AcDbPoint
 10
1971.720759183688
 20
282.5441268887342
 30
0.0
  0
POINT
  5
43E
330
434
100
AcDbEntity
  8
Defpoints
  6
Continuous
 62
     0
100
AcDbPoint
 10
1831.720759183688
 20
282.5441268887342
 30
0.0
  0
POINT
  5
43F
330
434
100
AcDbEntity
  8
Defpoints
  6
Continuous
 62
     0
100
AcDbPoint
 10
1831.720759183688
 20
338.7013680720189
 30
0.0
  0
ENDBLK
  5
436
330
434
100
AcDbEntity
  8
0
 62
     2
100
AcDbBlockEnd
  0
BLOCK
  5
442
330
441
100
AcDbEntity
  8
0
 62
     2
100
AcDbBlockBegin
  2
*D20
 70
     1
 10
0.0
 20
0.0
 30
0.0
  3
*D20
  1

  0
LINE
  5
444
330
441
100
AcDbEntity
  8
P-6853
  6
Continuous
 62
     3
370
    -2
100
AcDbLine
 10
1831.720759183688
 20
283.5441268887342
 30
0.0
 11
1831.720759183688
 21
339.2013680720189
 31
0.0
  0
LINE
  5
445
330
441
100
AcDbEntity
  8
P-6853
  6
Continuous
 62
     3
370
    -2
100
AcDbLine
 10
1691.720759183688
 20
283.5441268887342
 30
0.0
 11
1691.720759183688
 21
339.2013680720189
 31
0.0
  0
LINE
  5
446
330
441
100
AcDbEntity
  8
P-6853
  6
Continuous
 62
     3
370
    -2
100
AcDbLine
 10
1828.720759183688
 20
338.7013680720189
 30
0.0
 11
1694.720759183688
 21
338.7013680720189
 31
0.0
  0
SOLID
  5
447
330
441
100
AcDbEntity
  8
P-6853
  6
Continuous
 62
     3
100
AcDbTrace
 10
1828.720759183688
 20
339.2013680720189
 30
0.0
 11
1828.720759183688
 21
338.2013680720189
 31
0.0
 12
1831.720759183688
 22
338.7013680720189
 32
0.0
 13
1831.720759183688
 23
338.7013680720189
 33
0.0
  0
SOLID
  5
448
330
441
100
AcDbEntity
  8
P-6853
  6
Continuous
 62
     3
100
AcDbTrace
 10
1694.720759183688
 20
339.2013680720189
 30
0.0
 11
1694.720759183688
 21
338.2013680720189
 31
0.0
 12
1691.720759183688
 22
338.7013680720189
 32
0.0
 13
1691.720759183688
 23
338.7013680720189
 33
0.0
  0
MTEXT
  5
449
330
441
100
AcDbEntity
  8
P-6853
  6
Continuous
 62
     6
100
AcDbMText
 10
1761.720759183688
 20
341.7013680720189
 30
0.0
 40
3.0
 41
0.0
 71
     5
 72
     1
  1
\A1;140
  7
ROMANS
 73
     1
 44
1.0
1001
ACAD
1000
MTEXTBEGIN
1070
    73
1070
     1
1070
    44
1040
1.0
1070
    74
1070
     0
1000
MTEXTEND
  0
POINT
  5
44A
330
441
100
AcDbEntity
  8
Defpoints
  6
Continuous
 62
     0
100
AcDbPoint
 10
1831.720759183688
 20
282.5441268887342
 30
0.0
  0
POINT
  5
44B
330
441
100
AcDbEntity
  8
Defpoints
  6
Continuous
 62
     0
100
AcDbPoint
 10
1691.720759183688
 20
282.5441268887342
 30
0.0
  0
POINT
  5
44C
330
441
100
AcDbEntity
  8
Defpoints
  6
Continuous
 62
     0
100
AcDbPoint
 10
1691.720759183688
 20
338.7013680720189
 30
0.0
  0
ENDBLK
  5
443
330
441
100
AcDbEntity
  8
0
 62
     2
100
AcDbBlockEnd
  0
BLOCK
  5
44F
330
44E
100
AcDbEntity
  8
0
 62
     2
100
AcDbBlockBegin
  2
*D21
 70
     1
 10
0.0
 20
0.0
 30
0.0
  3
*D21
  1

  0
LINE
  5
451
330
44E
100
AcDbEntity
  8
P-6853
  6
Continuous
 62
     3
370
    -2
100
AcDbLine
 10
1691.720759183688
 20
283.5441268887342
 30
0.0
 11
1691.720759183688
 21
339.2013680720189
 31
0.0
  0
LINE
  5
452
330
44E
100
AcDbEntity
  8
P-6853
  6
Continuous
 62
     3
370
    -2
100
AcDbLine
 10
1551.720759183688
 20
283.5441268887342
 30
0.0
 11
1551.720759183688
 21
339.2013680720189
 31
0.0
  0
LINE
  5
453
330
44E
100
AcDbEntity
  8
P-6853
  6
Continuous
 62
     3
370
    -2
100
AcDbLine
 10
1688.720759183688
 20
338.7013680720189
 30
0.0
 11
1554.720759183688
 21
338.7013680720189
 31
0.0
  0
SOLID
  5
454
330
44E
100
AcDbEntity
  8
P-6853
  6
Continuous
 62
     3
100
AcDbTrace
 10
1688.720759183688
 20
339.2013680720189
 30
0.0
 11
1688.720759183688
 21
338.2013680720189
 31
0.0
 12
1691.720759183688
 22
338.7013680720189
 32
0.0
 13
1691.720759183688
 23
338.7013680720189
 33
0.0
  0
SOLID
  5
455
330
44E
100
AcDbEntity
  8
P-6853
  6
Continuous
 62
     3
100
AcDbTrace
 10
1554.720759183688
 20
339.2013680720189
 30
0.0
 11
1554.720759183688
 21
338.2013680720189
 31
0.0
 12
1551.720759183688
 22
338.7013680720189
 32
0.0
 13
1551.720759183688
 23
338.7013680720189
 33
0.0
  0
MTEXT
  5
456
330
44E
100
AcDbEntity
  8
P-6853
  6
Continuous
 62
     6
100
AcDbMText
 10
1621.720759183688
 20
341.7013680720189
 30
0.0
 40
3.0
 41
0.0
 71
     5
 72
     1
  1
\A1;140
  7
ROMANS
 73
     1
 44
1.0
1001
ACAD
1000
MTEXTBEGIN
1070
    73
1070
     1
1070
    44
1040
1.0
1070
    74
1070
     0
1000
MTEXTEND
  0
POINT
  5
457
330
44E
100
AcDbEntity
  8
Defpoints
  6
Continuous
 62
     0
100
AcDbPoint
 10
1691.720759183688
 20
282.5441268887342
 30
0.0
  0
POINT
  5
458
330
44E
100
AcDbEntity
  8
Defpoints
  6
Continuous
 62
     0
100
AcDbPoint
 10
1551.720759183688
 20
282.5441268887342
 30
0.0
  0
POINT
  5
459
330
44E
100
AcDbEntity
  8
Defpoints
  6
Continuous
 62
     0
100
AcDbPoint
 10
1551.720759183688
 20
338.7013680720189
 30
0.0
  0
ENDBLK
  5
450
330
44E
100
AcDbEntity
  8
0
 62
     2
100
AcDbBlockEnd
  0
BLOCK
  5
45C
330
45B
100
AcDbEntity
  8
0
 62
     2
100
AcDbBlockBegin
  2
*D22
 70
     1
 10
0.0
 20
0.0
 30
0.0
  3
*D22
  1

  0
LINE
  5
45E
330
45B
100
AcDbEntity
  8
P-6853
  6
Continuous
 62
     3
370
    -2
100
AcDbLine
 10
1551.720759183688
 20
283.5441268887342
 30
0.0
 11
1551.720759183688
 21
339.2013680720189
 31
0.0
  0
LINE
  5
45F
330
45B
100
AcDbEntity
  8
P-6853
  6
Continuous
 62
     3
370
    -2
100
AcDbLine
 10
1411.720759183688
 20
283.5441268887342
 30
0.0
 11
1411.720759183688
 21
339.2013680720189
 31
0.0
  0
LINE
  5
460
330
45B
100
AcDbEntity
  8
P-6853
  6
Continuous
 62
     3
370
    -2
100
AcDbLine
 10
1548.720759183688
 20
338.7013680720189
 30
0.0
 11
1414.720759183688
 21
338.7013680720189
 31
0.0
  0
SOLID
  5
461
330
45B
100
AcDbEntity
  8
P-6853
  6
Continuous
 62
     3
100
AcDbTrace
 10
1548.720759183688
 20
339.2013680720189
 30
0.0
 11
1548.720759183688
 21
338.2013680720189
 31
0.0
 12
1551.720759183688
 22
338.7013680720189
 32
0.0
 13
1551.720759183688
 23
338.7013680720189
 33
0.0
  0
SOLID
  5
462
330
45B
100
AcDbEntity
  8
P-6853
  6
Continuous
 62
     3
100
AcDbTrace
 10
1414.720759183688
 20
339.2013680720189
 30
0.0
 11
1414.720759183688
 21
338.2013680720189
 31
0.0
 12
1411.720759183688
 22
338.7013680720189
 32
0.0
 13
1411.720759183688
 23
338.7013680720189
 33
0.0
  0
MTEXT
  5
463
330
45B
100
AcDbEntity
  8
P-6853
  6
Continuous
 62
     6
100
AcDbMText
 10
1481.720759183688
 20
341.7013680720189
 30
0.0
 40
3.0
 41
0.0
 71
     5
 72
     1
  1
\A1;140
  7
ROMANS
 73
     1
 44
1.0
1001
ACAD
1000
MTEXTBEGIN
1070
    73
1070
     1
1070
    44
1040
1.0
1070
    74
1070
     0
1000
MTEXTEND
  0
POINT
  5
464
330
45B
100
AcDbEntity
  8
Defpoints
  6
Continuous
 62
     0
100
AcDbPoint
 10
1551.720759183688
 20
282.5441268887342
 30
0.0
  0
POINT
  5
465
330
45B
100
AcDbEntity
  8
Defpoints
  6
Continuous
 62
     0
100
AcDbPoint
 10
1411.720759183688
 20
282.5441268887342
 30
0.0
  0
POINT
  5
466
330
45B
100
AcDbEntity
  8
Defpoints
  6
Continuous
 62
     0
100
AcDbPoint
 10
1411.720759183688
 20
338.7013680720189
 30
0.0
  0
ENDBLK
  5
45D
330
45B
100
AcDbEntity
  8
0
 62
     2
100
AcDbBlockEnd
  0
BLOCK
  5
469
330
468
100
AcDbEntity
  8
0
 62
     2
100
AcDbBlockBegin
  2
*D23
 70
     1
 10
0.0
 20
0.0
 30
0.0
  3
*D23
  1

  0
LINE
  5
46B
330
468
100
AcDbEntity
  8
P-6853
  6
Continuous
 62
     3
370
    -2
100
AcDbLine
 10
1411.720759183688
 20
283.5441268887342
 30
0.0
 11
1411.720759183688
 21
339.2013680720189
 31
0.0
  0
LINE
  5
46C
330
468
100
AcDbEntity
  8
P-6853
  6
Continuous
 62
     3
370
    -2
100
AcDbLine
 10
1271.720759183688
 20
283.5441268887342
 30
0.0
 11
1271.720759183688
 21
339.2013680720189
 31
0.0
  0
LINE
  5
46D
330
468
100
AcDbEntity
  8
P-6853
  6
Continuous
 62
     3
370
    -2
100
AcDbLine
 10
1408.720759183688
 20
338.7013680720189
 30
0.0
 11
1274.720759183688
 21
338.7013680720189
 31
0.0
  0
SOLID
  5
46E
330
468
100
AcDbEntity
  8
P-6853
  6
Continuous
 62
     3
100
AcDbTrace
 10
1408.720759183688
 20
339.2013680720189
 30
0.0
 11
1408.720759183688
 21
338.2013680720189
 31
0.0
 12
1411.720759183688
 22
338.7013680720189
 32
0.0
 13
1411.720759183688
 23
338.7013680720189
 33
0.0
  0
SOLID
  5
46F
330
468
100
AcDbEntity
  8
P-6853
  6
Continuous
 62
     3
100
AcDbTrace
 10
1274.720759183688
 20
339.2013680720189
 30
0.0
 11
1274.720759183688
 21
338.2013680720189
 31
0.0
 12
1271.720759183688
 22
338.7013680720189
 32
0.0
 13
1271.720759183688
 23
338.7013680720189
 33
0.0
  0
MTEXT
  5
470
330
468
100
AcDbEntity
  8
P-6853
  6
Continuous
 62
     6
100
AcDbMText
 10
1341.720759183688
 20
341.7013680720189
 30
0.0
 40
3.0
 41
0.0
 71
     5
 72
     1
  1
\A1;140
  7
ROMANS
 73
     1
 44
1.0
1001
ACAD
1000
MTEXTBEGIN
1070
    73
1070
     1
1070
    44
1040
1.0
1070
    74
1070
     0
1000
MTEXTEND
  0
POINT
  5
471
330
468
100
AcDbEntity
  8
Defpoints
  6
Continuous
 62
     0
100
AcDbPoint
 10
1411.720759183688
 20
282.5441268887342
 30
0.0
  0
POINT
  5
472
330
468
100
AcDbEntity
  8
Defpoints
  6
Continuous
 62
     0
100
AcDbPoint
 10
1271.720759183688
 20
282.5441268887342
 30
0.0
  0
POINT
  5
473
330
468
100
AcDbEntity
  8
Defpoints
  6
Continuous
 62
     0
100
AcDbPoint
 10
1271.720759183688
 20
338.7013680720189
 30
0.0
  0
ENDBLK
  5
46A
330
468
100
AcDbEntity
  8
0
 62
     2
100
AcDbBlockEnd
  0
BLOCK
  5
476
330
475
100
AcDbEntity
  8
0
 62
     2
100
AcDbBlockBegin
  2
*D24
 70
     1
 10
0.0
 20
0.0
 30
0.0
  3
*D24
  1

  0
LINE
  5
478
330
475
100
AcDbEntity
  8
P-6853
  6
Continuous
 62
     3
370
    -2
100
AcDbLine
 10
1271.720759183688
 20
283.5441268887342
 30
0.0
 11
1271.720759183688
 21
339.2013680720189
 31
0.0
  0
LINE
  5
479
330
475
100
AcDbEntity
  8
P-6853
  6
Continuous
 62
     3
370
    -2
100
AcDbLine
 10
1131.720759183688
 20
283.5441268887342
 30
0.0
 11
1131.720759183688
 21
339.2013680720189
 31
0.0
  0
LINE
  5
47A
330
475
100
AcDbEntity
  8
P-6853
  6
Continuous
 62
     3
370
    -2
100
AcDbLine
 10
1268.720759183688
 20
338.7013680720189
 30
0.0
 11
1134.720759183688
 21
338.7013680720189
 31
0.0
  0
SOLID
  5
47B
330
475
100
AcDbEntity
  8
P-6853
  6
Continuous
 62
     3
100
AcDbTrace
 10
1268.720759183688
 20
339.2013680720189
 30
0.0
 11
1268.720759183688
 21
338.2013680720189
 31
0.0
 12
1271.720759183688
 22
338.7013680720189
 32
0.0
 13
1271.720759183688
 23
338.7013680720189
 33
0.0
  0
SOLID
  5
47C
330
475
100
AcDbEntity
  8
P-6853
  6
Continuous
 62
     3
100
AcDbTrace
 10
1134.720759183688
 20
339.2013680720189
 30
0.0
 11
1134.720759183688
 21
338.2013680720189
 31
0.0
 12
1131.720759183688
 22
338.7013680720189
 32
0.0
 13
1131.720759183688
 23
338.7013680720189
 33
0.0
  0
MTEXT
  5
47D
330
475
100
AcDbEntity
  8
P-6853
  6
Continuous
 62
     6
100
AcDbMText
 10
1201.720759183688
 20
341.7013680720189
 30
0.0
 40
3.0
 41
0.0
 71
     5
 72
     1
  1
\A1;140
  7
ROMANS
 73
     1
 44
1.0
1001
ACAD
1000
MTEXTBEGIN
1070
    73
1070
     1
1070
    44
1040
1.0
1070
    74
1070
     0
1000
MTEXTEND
  0
POINT
  5
47E
330
475
100
AcDbEntity
  8
Defpoints
  6
Continuous
 62
     0
100
AcDbPoint
 10
1271.720759183688
 20
282.5441268887342
 30
0.0
  0
POINT
  5
47F
330
475
100
AcDbEntity
  8
Defpoints
  6
Continuous
 62
     0
100
AcDbPoint
 10
1131.720759183688
 20
282.5441268887342
 30
0.0
  0
POINT
  5
480
330
475
100
AcDbEntity
  8
Defpoints
  6
Continuous
 62
     0
100
AcDbPoint
 10
1131.720759183688
 20
338.7013680720189
 30
0.0
  0
ENDBLK
  5
477
330
475
100
AcDbEntity
  8
0
 62
     2
100
AcDbBlockEnd
  0
BLOCK
  5
483
330
482
100
AcDbEntity
  8
0
 62
     2
100
AcDbBlockBegin
  2
*D25
 70
     1
 10
0.0
 20
0.0
 30
0.0
  3
*D25
  1

  0
LINE
  5
485
330
482
100
AcDbEntity
  8
P-6853
  6
Continuous
 62
     3
370
    -2
100
AcDbLine
 10
1131.720759183688
 20
283.5441268887342
 30
0.0
 11
1131.720759183688
 21
339.2013680720189
 31
0.0
  0
LINE
  5
486
330
482
100
AcDbEntity
  8
P-6853
  6
Continuous
 62
     3
370
    -2
100
AcDbLine
 10
991.7207591836882
 20
283.5441268887342
 30
0.0
 11
991.7207591836882
 21
339.2013680720189
 31
0.0
  0
LINE
  5
487
330
482
100
AcDbEntity
  8
P-6853
  6
Continuous
 62
     3
370
    -2
100
AcDbLine
 10
1128.720759183688
 20
338.7013680720189
 30
0.0
 11
994.7207591836882
 21
338.7013680720189
 31
0.0
  0
SOLID
  5
488
330
482
100
AcDbEntity
  8
P-6853
  6
Continuous
 62
     3
100
AcDbTrace
 10
1128.720759183688
 20
339.2013680720189
 30
0.0
 11
1128.720759183688
 21
338.2013680720189
 31
0.0
 12
1131.720759183688
 22
338.7013680720189
 32
0.0
 13
1131.720759183688
 23
338.7013680720189
 33
0.0
  0
SOLID
  5
489
330
482
100
AcDbEntity
  8
P-6853
  6
Continuous
 62
     3
100
AcDbTrace
 10
994.7207591836882
 20
339.2013680720189
 30
0.0
 11
994.7207591836882
 21
338.2013680720189
 31
0.0
 12
991.7207591836882
 22
338.7013680720189
 32
0.0
 13
991.7207591836882
 23
338.7013680720189
 33
0.0
  0
MTEXT
  5
48A
330
482
100
AcDbEntity
  8
P-6853
  6
Continuous
 62
     6
100
AcDbMText
 10
1061.720759183688
 20
341.7013680720189
 30
0.0
 40
3.0
 41
0.0
 71
     5
 72
     1
  1
\A1;140
  7
ROMANS
 73
     1
 44
1.0
1001
ACAD
1000
MTEXTBEGIN
1070
    73
1070
     1
1070
    44
1040
1.0
1070
    74
1070
     0
1000
MTEXTEND
  0
POINT
  5
48B
330
482
100
AcDbEntity
  8
Defpoints
  6
Continuous
 62
     0
100
AcDbPoint
 10
1131.720759183688
 20
282.5441268887342
 30
0.0
  0
POINT
  5
48C
330
482
100
AcDbEntity
  8
Defpoints
  6
Continuous
 62
     0
100
AcDbPoint
 10
991.7207591836882
 20
282.5441268887342
 30
0.0
  0
POINT
  5
48D
330
482
100
AcDbEntity
  8
Defpoints
  6
Continuous
 62
     0
100
AcDbPoint
 10
991.7207591836882
 20
338.7013680720189
 30
0.0
  0
ENDBLK
  5
484
330
482
100
AcDbEntity
  8
0
 62
     2
100
AcDbBlockEnd
  0
BLOCK
  5
4CB
330
4CA
100
AcDbEntity
  8
0
 62
     2
100
AcDbBlockBegin
  2
*D26
 70
     1
 10
0.0
 20
0.0
 30
0.0
  3
*D26
  1

  0
LINE
  5
502
330
4CA
100
AcDbEntity
  8
P-6853
  6
Continuous
 62
     3
370
    -2
100
AcDbLine
 10
936.7207591836882
 20
283.5441268887342
 30
0.0
 11
936.7207591836882
 21
318.3286701061256
 31
0.0
  0
LINE
  5
503
330
4CA
100
AcDbEntity
  8
P-6853
  6
Continuous
 62
     3
370
    -2
100
AcDbLine
 10
846.7207591836881
 20
282.1941268887341
 30
0.0
 11
846.7207591836881
 21
318.3286701061256
 31
0.0
  0
LINE
  5
504
330
4CA
100
AcDbEntity
  8
P-6853
  6
Continuous
 62
     3
370
    -2
100
AcDbLine
 10
933.7207591836882
 20
317.8286701061256
 30
0.0
 11
849.7207591836881
 21
317.8286701061256
 31
0.0
  0
SOLID
  5
505
330
4CA
100
AcDbEntity
  8
P-6853
  6
Continuous
 62
     3
100
AcDbTrace
 10
933.7207591836882
 20
318.3286701061256
 30
0.0
 11
933.7207591836882
 21
317.3286701061256
 31
0.0
 12
936.7207591836882
 22
317.8286701061256
 32
0.0
 13
936.7207591836882
 23
317.8286701061256
 33
0.0
  0
SOLID
  5
506
330
4CA
100
AcDbEntity
  8
P-6853
  6
Continuous
 62
     3
100
AcDbTrace
 10
849.7207591836881
 20
318.3286701061256
 30
0.0
 11
849.7207591836881
 21
317.3286701061256
 31
0.0
 12
846.7207591836881
 22
317.8286701061256
 32
0.0
 13
846.7207591836881
 23
317.8286701061256
 33
0.0
  0
MTEXT
  5
507
330
4CA
100
AcDbEntity
  8
P-6853
  6
Continuous
 62
     6
100
AcDbMText
 10
891.7207591836882
 20
320.8286701061256
 30
0.0
 40
3.0
 41
0.0
 71
     5
 72
     1
  1
\A1;90
  7
ROMANS
 73
     1
 44
1.0
1001
ACAD
1000
MTEXTBEGIN
1070
    73
1070
     1
1070
    44
1040
1.0
1070
    74
1070
     0
1000
MTEXTEND
  0
POINT
  5
508
330
4CA
100
AcDbEntity
  8
Defpoints
  6
Continuous
 62
     0
100
AcDbPoint
 10
936.7207591836882
 20
282.5441268887342
 30
0.0
  0
POINT
  5
509
330
4CA
100
AcDbEntity
  8
Defpoints
  6
Continuous
 62
     0
100
AcDbPoint
 10
846.7207591836881
 20
281.1941268887342
 30
0.0
  0
POINT
  5
50A
330
4CA
100
AcDbEntity
  8
Defpoints
  6
Continuous
 62
     0
100
AcDbPoint
 10
846.7207591836881
 20
317.8286701061256
 30
0.0
  0
ENDBLK
  5
4CC
330
4CA
100
AcDbEntity
  8
0
 62
     2
100
AcDbBlockEnd
  0
BLOCK
  5
4D8
330
4D7
100
AcDbEntity
  8
0
 62
     2
100
AcDbBlockBegin
  2
*D27
 70
     1
 10
0.0
 20
0.0
 30
0.0
  3
*D27
  1

  0
LINE
  5
4F0
330
4D7
100
AcDbEntity
  8
P-6853
  6
Continuous
 62
     3
370
    -2
100
AcDbLine
 10
846.7207591836881
 20
282.1941268887341
 30
0.0
 11
846.7207591836881
 21
356.7471065897048
 31
0.0
  0
LINE
  5
4F1
330
4D7
100
AcDbEntity
  8
P-6853
  6
Continuous
 62
     3
370
    -2
100
AcDbLine
 10
2846.720759183688
 20
282.1941268887341
 30
0.0
 11
2846.720759183688
 21
356.7471065897048
 31
0.0
  0
LINE
  5
4F2
330
4D7
100
AcDbEntity
  8
P-6853
  6
Continuous
 62
     3
370
    -2
100
AcDbLine
 10
849.7207591836881
 20
356.2471065897047
 30
0.0
 11
2843.720759183689
 21
356.2471065897047
 31
0.0
  0
SOLID
  5
4F3
330
4D7
100
AcDbEntity
  8
P-6853
  6
Continuous
 62
     3
100
AcDbTrace
 10
849.7207591836881
 20
356.7471065897048
 30
0.0
 11
849.7207591836881
 21
355.7471065897047
 31
0.0
 12
846.7207591836881
 22
356.2471065897047
 32
0.0
 13
846.7207591836881
 23
356.2471065897047
 33
0.0
  0
SOLID
  5
4F4
330
4D7
100
AcDbEntity
  8
P-6853
  6
Continuous
 62
     3
100
AcDbTrace
 10
2843.720759183689
 20
356.7471065897048
 30
0.0
 11
2843.720759183689
 21
355.7471065897047
 31
0.0
 12
2846.720759183688
 22
356.2471065897047
 32
0.0
 13
2846.720759183688
 23
356.2471065897047
 33
0.0
  0
MTEXT
  5
4F5
330
4D7
100
AcDbEntity
  8
P-6853
  6
Continuous
 62
     6
100
AcDbMText
 10
1846.720759183688
 20
359.2471065897048
 30
0.0
 40
3.0
 41
0.0
 71
     5
 72
     1
  1
\A1;2000
  7
ROMANS
 73
     1
 44
1.0
1001
ACAD
1000
MTEXTBEGIN
1070
    73
1070
     1
1070
    44
1040
1.0
1070
    74
1070
     0
1000
MTEXTEND
  0
POINT
  5
4F6
330
4D7
100
AcDbEntity
  8
Defpoints
  6
Continuous
 62
     0
100
AcDbPoint
 10
846.7207591836881
 20
281.1941268887342
 30
0.0
  0
POINT
  5
4F7
330
4D7
100
AcDbEntity
  8
Defpoints
  6
Continuous
 62
     0
100
AcDbPoint
 10
2846.720759183688
 20
281.1941268887342
 30
0.0
  0
POINT
  5
4F8
330
4D7
100
AcDbEntity
  8
Defpoints
  6
Continuous
 62
     0
100
AcDbPoint
 10
2846.720759183688
 20
356.2471065897047
 30
0.0
  0
ENDBLK
  5
4D9
330
4D7
100
AcDbEntity
  8
0
 62
     2
100
AcDbBlockEnd
  0
BLOCK
  5
4E5
330
4E4
100
AcDbEntity
  8
0
 62
     2
100
AcDbBlockBegin
  2
*D28
 70
     1
 10
0.0
 20
0.0
 30
0.0
  3
*D28
  1

  0
LINE
  5
50B
330
4E4
100
AcDbEntity
  8
P-6853
  6
Continuous
 62
     3
370
    -2
100
AcDbLine
 10
2756.720759183689
 20
283.5441268887342
 30
0.0
 11
2756.720759183689
 21
317.2340480504811
 31
0.0
  0
LINE
  5
50C
330
4E4
100
AcDbEntity
  8
P-6853
  6
Continuous
 62
     3
370
    -2
100
AcDbLine
 10
2846.720759183688
 20
282.1941268887341
 30
0.0
 11
2846.720759183688
 21
317.2340480504811
 31
0.0
  0
LINE
  5
50D
330
4E4
100
AcDbEntity
  8
P-6853
  6
Continuous
 62
     3
370
    -2
100
AcDbLine
 10
2759.720759183689
 20
316.7340480504811
 30
0.0
 11
2843.720759183689
 21
316.7340480504811
 31
0.0
  0
SOLID
  5
50E
330
4E4
100
AcDbEntity
  8
P-6853
  6
Continuous
 62
     3
100
AcDbTrace
 10
2759.720759183689
 20
317.2340480504811
 30
0.0
 11
2759.720759183689
 21
316.2340480504811
 31
0.0
 12
2756.720759183689
 22
316.7340480504811
 32
0.0
 13
2756.720759183689
 23
316.7340480504811
 33
0.0
  0
SOLID
  5
50F
330
4E4
100
AcDbEntity
  8
P-6853
  6
Continuous
 62
     3
100
AcDbTrace
 10
2843.720759183689
 20
317.2340480504811
 30
0.0
 11
2843.720759183689
 21
316.2340480504811
 31
0.0
 12
2846.720759183688
 22
316.7340480504811
 32
0.0
 13
2846.720759183688
 23
316.7340480504811
 33
0.0
  0
MTEXT
  5
510
330
4E4
100
AcDbEntity
  8
P-6853
  6
Continuous
 62
     6
100
AcDbMText
 10
2801.720759183689
 20
319.7340480504811
 30
0.0
 40
3.0
 41
0.0
 71
     5
 72
     1
  1
\A1;90
  7
ROMANS
 73
     1
 44
1.0
1001
ACAD
1000
MTEXTBEGIN
1070
    73
1070
     1
1070
    44
1040
1.0
1070
    74
1070
     0
1000
MTEXTEND
  0
POINT
  5
511
330
4E4
100
AcDbEntity
  8
Defpoints
  6
Continuous
 62
     0
100
AcDbPoint
 10
2756.720759183689
 20
282.5441268887342
 30
0.0
  0
POINT
  5
512
330
4E4
100
AcDbEntity
  8
Defpoints
  6
Continuous
 62
     0
100
AcDbPoint
 10
2846.720759183688
 20
281.1941268887342
 30
0.0
  0
POINT
  5
513
330
4E4
100
AcDbEntity
  8
Defpoints
  6
Continuous
 62
     0
100
AcDbPoint
 10
2846.720759183688
 20
316.7340480504811
 30
0.0
  0
ENDBLK
  5
4E6
330
4E4
100
AcDbEntity
  8
0
 62
     2
100
AcDbBlockEnd
  0
ENDSEC
  0
SECTION
  2
ENTITIES
  0
LINE
  5
2A4
330
2
100
AcDbEntity
  8
P-6853
  6
Continuous
 62
     7
100
AcDbLine
 10
2846.720759183688
 20
266.1941268887342
 30
0.0
 11
2846.720759183688
 21
280.1941268887341
 31
0.0
  0
LINE
  5
2CA
330
2
100
AcDbEntity
  8
P-6853
  6
ASSI
 62
     1
100
AcDbLine
 10
946.0707591836882
 20
273.1941268887342
 30
0.0
 11
927.3707591836883
 21
273.1941268887342
 31
0.0
  0
LINE
  5
2CB
330
2
100
AcDbEntity
  8
P-6853
  6
ASSI
 62
     1
100
AcDbLine
 10
936.7207591836882
 20
282.5441268887342
 30
0.0
 11
936.7207591836882
 21
263.8441268887341
 31
0.0
  0
CIRCLE
  5
3E2
330
2
100
AcDbEntity
  8
P-6853
  6
Continuous
 62
     7
100
AcDbCircle
 10
936.7207591836882
 20
273.1941268887342
 30
0.0
 40
7.5
  0
LINE
  5
3F1
330
2
100
AcDbEntity
  8
P-6853
  6
Continuous
 62
     7
100
AcDbLine
 10
846.7207591836881
 20
280.1941268887341
 30
0.0
 11
846.7207591836881
 21
266.1941268887342
 31
0.0
  0
LINE
  5
516
330
2
100
AcDbEntity
  8
P-6853
  6
Continuous
 62
     7
100
AcDbLine
 10
846.7207591836881
 20
280.1941268887341
 30
0.0
 11
918.8252290155148
 21
280.1941268887341
 31
0.0
  0
LINE
  5
517
330
2
100
AcDbEntity
  8
P-6853
  6
Continuous
 62
     7
100
AcDbLine
 10
846.7207591836881
 20
266.1941268887342
 30
0.0
 11
918.8252290155148
 21
266.1941268887342
 31
0.0
  0
ARC
  5
518
330
2
100
AcDbEntity
  8
P-6853
  6
Continuous
 62
     7
100
AcDbCircle
 10
918.8252290155148
 20
263.1941268887342
 30
0.0
 40
3.0
100
AcDbArc
 50
29.19640440963221
 51
90.0
  0
ARC
  5
519
330
2
100
AcDbEntity
  8
P-6853
  6
Continuous
 62
     7
100
AcDbCircle
 10
936.7207591836882
 20
273.1941268887342
 30
0.0
 40
17.5
100
AcDbArc
 50
209.1964044096322
 51
330.8035955903678
  0
ARC
  5
51A
330
2
100
AcDbEntity
  8
P-6853
  6
Continuous
 62
     7
100
AcDbCircle
 10
918.8252290155148
 20
283.1941268887342
 30
0.0
 40
3.0
100
AcDbArc
 50
270.0
 51
330.8035955903678
  0
ARC
  5
51B
330
2
100
AcDbEntity
  8
P-6853
  6
Continuous
 62
     7
100
AcDbCircle
 10
936.7207591836882
 20
273.1941268887342
 30
0.0
 40
17.5
100
AcDbArc
 50
29.19640440963221
 51
150.8035955903678
  0
LINE
  5
51C
330
2
100
AcDbEntity
  8
P-6853
  6
Continuous
 62
     7
100
AcDbLine
 10
954.6162893518614
 20
280.1941268887341
 30
0.0
 11
1058.825229015515
 21
280.1941268887341
 31
0.0
  0
LINE
  5
51D
330
2
100
AcDbEntity
  8
P-6853
  6
Continuous
 62
     7
100
AcDbLine
 10
954.6162893518614
 20
266.1941268887342
 30
0.0
 11
1058.825229015515
 21
266.1941268887342
 31
0.0
  0
ARC
  5
51E
330
2
100
AcDbEntity
  8
P-6853
  6
Continuous
 62
     7
100
AcDbCircle
 10
954.6162893518614
 20
263.1941268887342
 30
0.0
 40
3.0
100
AcDbArc
 50
90.0
 51
150.8035955903678
  0
ARC
  5
51F
330
2
100
AcDbEntity
  8
P-6853
  6
Continuous
 62
     7
100
AcDbCircle
 10
954.6162893518614
 20
283.1941268887342
 30
0.0
 40
3.0
100
AcDbArc
 50
209.1964044096322
 51
270.0
  0
LINE
  5
522
330
2
100
AcDbEntity
  8
P-6853
  6
ASSI
 62
     1
100
AcDbLine
 10
1086.070759183688
 20
273.1941268887342
 30
0.0
 11
1067.370759183688
 21
273.1941268887342
 31
0.0
  0
LINE
  5
523
330
2
100
AcDbEntity
  8
P-6853
  6
ASSI
 62
     1
100
AcDbLine
 10
1076.720759183688
 20
282.5441268887342
 30
0.0
 11
1076.720759183688
 21
263.8441268887341
 31
0.0
  0
CIRCLE
  5
524
330
2
100
AcDbEntity
  8
P-6853
  6
Continuous
 62
     7
100
AcDbCircle
 10
1076.720759183688
 20
273.1941268887342
 30
0.0
 40
7.5
  0
ARC
  5
525
330
2
100
AcDbEntity
  8
P-6853
  6
Continuous
 62
     7
100
AcDbCircle
 10
1058.825229015515
 20
263.1941268887342
 30
0.0
 40
3.0
100
AcDbArc
 50
29.19640440963249
 51
90.0
  0
ARC
  5
526
330
2
100
AcDbEntity
  8
P-6853
  6
Continuous
 62
     7
100
AcDbCircle
 10
1076.720759183688
 20
273.1941268887342
 30
0.0
 40
17.5
100
AcDbArc
 50
209.1964044096325
 51
330.8035955903675
  0
ARC
  5
527
330
2
100
AcDbEntity
  8
P-6853
  6
Continuous
 62
     7
100
AcDbCircle
 10
1058.825229015515
 20
283.1941268887342
 30
0.0
 40
3.0
100
AcDbArc
 50
270.0
 51
330.8035955903675
  0
ARC
  5
528
330
2
100
AcDbEntity
  8
P-6853
  6
Continuous
 62
     7
100
AcDbCircle
 10
1076.720759183688
 20
273.1941268887342
 30
0.0
 40
17.5
100
AcDbArc
 50
29.19640440963249
 51
150.8035955903675
  0
LINE
  5
529
330
2
100
AcDbEntity
  8
P-6853
  6
Continuous
 62
     7
100
AcDbLine
 10
1094.616289351861
 20
280.1941268887341
 30
0.0
 11
1198.825229015515
 21
280.1941268887341
 31
0.0
  0
LINE
  5
52A
330
2
100
AcDbEntity
  8
P-6853
  6
Continuous
 62
     7
100
AcDbLine
 10
1094.616289351861
 20
266.1941268887342
 30
0.0
 11
1198.825229015515
 21
266.1941268887342
 31
0.0
  0
ARC
  5
52B
330
2
100
AcDbEntity
  8
P-6853
  6
Continuous
 62
     7
100
AcDbCircle
 10
1094.616289351861
 20
263.1941268887342
 30
0.0
 40
3.0
100
AcDbArc
 50
90.0
 51
150.8035955903675
  0
ARC
  5
52C
330
2
100
AcDbEntity
  8
P-6853
  6
Continuous
 62
     7
100
AcDbCircle
 10
1094.616289351861
 20
283.1941268887342
 30
0.0
 40
3.0
100
AcDbArc
 50
209.1964044096325
 51
270.0
  0
LINE
  5
52D
330
2
100
AcDbEntity
  8
P-6853
  6
ASSI
 62
     1
100
AcDbLine
 10
1226.070759183688
 20
273.1941268887342
 30
0.0
 11
1207.370759183688
 21
273.1941268887342
 31
0.0
  0
LINE
  5
52E
330
2
100
AcDbEntity
  8
P-6853
  6
ASSI
 62
     1
100
AcDbLine
 10
1216.720759183688
 20
282.5441268887342
 30
0.0
 11
1216.720759183688
 21
263.8441268887341
 31
0.0
  0
CIRCLE
  5
52F
330
2
100
AcDbEntity
  8
P-6853
  6
Continuous
 62
     7
100
AcDbCircle
 10
1216.720759183688
 20
273.1941268887342
 30
0.0
 40
7.5
  0
ARC
  5
530
330
2
100
AcDbEntity
  8
P-6853
  6
Continuous
 62
     7
100
AcDbCircle
 10
1198.825229015515
 20
263.1941268887342
 30
0.0
 40
3.0
100
AcDbArc
 50
29.1964044096317
 51
90.0
  0
ARC
  5
531
330
2
100
AcDbEntity
  8
P-6853
  6
Continuous
 62
     7
100
AcDbCircle
 10
1216.720759183688
 20
273.1941268887342
 30
0.0
 40
17.5
100
AcDbArc
 50
209.1964044096317
 51
330.8035955903683
  0
ARC
  5
532
330
2
100
AcDbEntity
  8
P-6853
  6
Continuous
 62
     7
100
AcDbCircle
 10
1198.825229015515
 20
283.1941268887342
 30
0.0
 40
3.0
100
AcDbArc
 50
270.0
 51
330.8035955903683
  0
ARC
  5
533
330
2
100
AcDbEntity
  8
P-6853
  6
Continuous
 62
     7
100
AcDbCircle
 10
1216.720759183688
 20
273.1941268887342
 30
0.0
 40
17.5
100
AcDbArc
 50
29.1964044096317
 51
150.8035955903683
  0
LINE
  5
534
330
2
100
AcDbEntity
  8
P-6853
  6
Continuous
 62
     7
100
AcDbLine
 10
1234.616289351861
 20
280.1941268887341
 30
0.0
 11
1338.825229015515
 21
280.1941268887341
 31
0.0
  0
LINE
  5
535
330
2
100
AcDbEntity
  8
P-6853
  6
Continuous
 62
     7
100
AcDbLine
 10
1234.616289351861
 20
266.1941268887342
 30
0.0
 11
1338.825229015515
 21
266.1941268887342
 31
0.0
  0
ARC
  5
536
330
2
100
AcDbEntity
  8
P-6853
  6
Continuous
 62
     7
100
AcDbCircle
 10
1234.616289351861
 20
263.1941268887342
 30
0.0
 40
3.0
100
AcDbArc
 50
90.0
 51
150.8035955903683
  0
ARC
  5
537
330
2
100
AcDbEntity
  8
P-6853
  6
Continuous
 62
     7
100
AcDbCircle
 10
1234.616289351861
 20
283.1941268887342
 30
0.0
 40
3.0
100
AcDbArc
 50
209.1964044096317
 51
270.0
  0
LINE
  5
538
330
2
100
AcDbEntity
  8
P-6853
  6
ASSI
 62
     1
100
AcDbLine
 10
1366.070759183688
 20
273.1941268887342
 30
0.0
 11
1347.370759183688
 21
273.1941268887342
 31
0.0
  0
LINE
  5
539
330
2
100
AcDbEntity
  8
P-6853
  6
ASSI
 62
     1
100
AcDbLine
 10
1356.720759183688
 20
282.5441268887342
 30
0.0
 11
1356.720759183688
 21
263.8441268887341
 31
0.0
  0
CIRCLE
  5
53A
330
2
100
AcDbEntity
  8
P-6853
  6
Continuous
 62
     7
100
AcDbCircle
 10
1356.720759183688
 20
273.1941268887342
 30
0.0
 40
7.5
  0
ARC
  5
53B
330
2
100
AcDbEntity
  8
P-6853
  6
Continuous
 62
     7
100
AcDbCircle
 10
1338.825229015515
 20
263.1941268887342
 30
0.0
 40
3.0
100
AcDbArc
 50
29.1964044096313
 51
90.0
  0
ARC
  5
53C
330
2
100
AcDbEntity
  8
P-6853
  6
Continuous
 62
     7
100
AcDbCircle
 10
1356.720759183688
 20
273.1941268887342
 30
0.0
 40
17.5
100
AcDbArc
 50
209.1964044096313
 51
330.8035955903679
  0
ARC
  5
53D
330
2
100
AcDbEntity
  8
P-6853
  6
Continuous
 62
     7
100
AcDbCircle
 10
1338.825229015515
 20
283.1941268887342
 30
0.0
 40
3.0
100
AcDbArc
 50
270.0
 51
330.8035955903679
  0
ARC
  5
53E
330
2
100
AcDbEntity
  8
P-6853
  6
Continuous
 62
     7
100
AcDbCircle
 10
1356.720759183688
 20
273.1941268887342
 30
0.0
 40
17.5
100
AcDbArc
 50
29.1964044096313
 51
150.8035955903686
  0
LINE
  5
53F
330
2
100
AcDbEntity
  8
P-6853
  6
Continuous
 62
     7
100
AcDbLine
 10
1374.616289351861
 20
280.1941268887341
 30
0.0
 11
1478.825229015515
 21
280.1941268887341
 31
0.0
  0
LINE
  5
540
330
2
100
AcDbEntity
  8
P-6853
  6
Continuous
 62
     7
100
AcDbLine
 10
1374.616289351861
 20
266.1941268887342
 30
0.0
 11
1478.825229015515
 21
266.1941268887342
 31
0.0
  0
ARC
  5
541
330
2
100
AcDbEntity
  8
P-6853
  6
Continuous
 62
     7
100
AcDbCircle
 10
1374.616289351861
 20
263.1941268887342
 30
0.0
 40
3.0
100
AcDbArc
 50
90.0
 51
150.8035955903686
  0
ARC
  5
542
330
2
100
AcDbEntity
  8
P-6853
  6
Continuous
 62
     7
100
AcDbCircle
 10
1374.616289351861
 20
283.1941268887342
 30
0.0
 40
3.0
100
AcDbArc
 50
209.1964044096313
 51
270.0
  0
LINE
  5
543
330
2
100
AcDbEntity
  8
P-6853
  6
ASSI
 62
     1
100
AcDbLine
 10
1506.070759183688
 20
273.1941268887342
 30
0.0
 11
1487.370759183688
 21
273.1941268887342
 31
0.0
  0
LINE
  5
544
330
2
100
AcDbEntity
  8
P-6853
  6
ASSI
 62
     1
100
AcDbLine
 10
1496.720759183688
 20
282.5441268887342
 30
0.0
 11
1496.720759183688
 21
263.8441268887341
 31
0.0
  0
CIRCLE
  5
545
330
2
100
AcDbEntity
  8
P-6853
  6
Continuous
 62
     7
100
AcDbCircle
 10
1496.720759183688
 20
273.1941268887342
 30
0.0
 40
7.5
  0
ARC
  5
546
330
2
100
AcDbEntity
  8
P-6853
  6
Continuous
 62
     7
100
AcDbCircle
 10
1478.825229015515
 20
263.1941268887342
 30
0.0
 40
3.0
100
AcDbArc
 50
29.1964044096313
 51
90.0
  0
ARC
  5
547
330
2
100
AcDbEntity
  8
P-6853
  6
Continuous
 62
     7
100
AcDbCircle
 10
1496.720759183688
 20
273.1941268887342
 30
0.0
 40
17.5
100
AcDbArc
 50
209.1964044096313
 51
330.8035955903687
  0
ARC
  5
548
330
2
100
AcDbEntity
  8
P-6853
  6
Continuous
 62
     7
100
AcDbCircle
 10
1478.825229015515
 20
283.1941268887342
 30
0.0
 40
3.0
100
AcDbArc
 50
270.0
 51
330.8035955903687
  0
ARC
  5
549
330
2
100
AcDbEntity
  8
P-6853
  6
Continuous
 62
     7
100
AcDbCircle
 10
1496.720759183688
 20
273.1941268887342
 30
0.0
 40
17.5
100
AcDbArc
 50
29.1964044096313
 51
150.8035955903686
  0
LINE
  5
54A
330
2
100
AcDbEntity
  8
P-6853
  6
Continuous
 62
     7
100
AcDbLine
 10
1514.616289351861
 20
280.1941268887341
 30
0.0
 11
1618.825229015515
 21
280.1941268887341
 31
0.0
  0
LINE
  5
54B
330
2
100
AcDbEntity
  8
P-6853
  6
Continuous
 62
     7
100
AcDbLine
 10
1514.616289351861
 20
266.1941268887342
 30
0.0
 11
1618.825229015515
 21
266.1941268887342
 31
0.0
  0
ARC
  5
54C
330
2
100
AcDbEntity
  8
P-6853
  6
Continuous
 62
     7
100
AcDbCircle
 10
1514.616289351861
 20
263.1941268887342
 30
0.0
 40
3.0
100
AcDbArc
 50
90.0
 51
150.8035955903686
  0
ARC
  5
54D
330
2
100
AcDbEntity
  8
P-6853
  6
Continuous
 62
     7
100
AcDbCircle
 10
1514.616289351861
 20
283.1941268887342
 30
0.0
 40
3.0
100
AcDbArc
 50
209.1964044096313
 51
270.0
  0
LINE
  5
54E
330
2
100
AcDbEntity
  8
P-6853
  6
ASSI
 62
     1
100
AcDbLine
 10
1646.070759183688
 20
273.1941268887342
 30
0.0
 11
1627.370759183688
 21
273.1941268887342
 31
0.0
  0
LINE
  5
54F
330
2
100
AcDbEntity
  8
P-6853
  6
ASSI
 62
     1
100
AcDbLine
 10
1636.720759183688
 20
282.5441268887342
 30
0.0
 11
1636.720759183688
 21
263.8441268887341
 31
0.0
  0
CIRCLE
  5
550
330
2
100
AcDbEntity
  8
P-6853
  6
Continuous
 62
     7
100
AcDbCircle
 10
1636.720759183688
 20
273.1941268887342
 30
0.0
 40
7.5
  0
ARC
  5
551
330
2
100
AcDbEntity
  8
P-6853
  6
Continuous
 62
     7
100
AcDbCircle
 10
1618.825229015515
 20
263.1941268887342
 30
0.0
 40
3.0
100
AcDbArc
 50
29.196404409631
 51
90.0
  0
ARC
  5
552
330
2
100
AcDbEntity
  8
P-6853
  6
Continuous
 62
     7
100
AcDbCircle
 10
1636.720759183688
 20
273.1941268887342
 30
0.0
 40
17.5
100
AcDbArc
 50
209.196404409631
 51
330.803595590369
  0
ARC
  5
553
330
2
100
AcDbEntity
  8
P-6853
  6
Continuous
 62
     7
100
AcDbCircle
 10
1618.825229015515
 20
283.1941268887342
 30
0.0
 40
3.0
100
AcDbArc
 50
270.0
 51
330.803595590369
  0
ARC
  5
554
330
2
100
AcDbEntity
  8
P-6853
  6
Continuous
 62
     7
100
AcDbCircle
 10
1636.720759183688
 20
273.1941268887342
 30
0.0
 40
17.5
100
AcDbArc
 50
29.196404409631
 51
150.803595590369
  0
LINE
  5
555
330
2
100
AcDbEntity
  8
P-6853
  6
Continuous
 62
     7
100
AcDbLine
 10
1654.616289351861
 20
280.1941268887341
 30
0.0
 11
1758.825229015515
 21
280.1941268887341
 31
0.0
  0
LINE
  5
556
330
2
100
AcDbEntity
  8
P-6853
  6
Continuous
 62
     7
100
AcDbLine
 10
1654.616289351861
 20
266.1941268887342
 30
0.0
 11
1758.825229015515
 21
266.1941268887342
 31
0.0
  0
ARC
  5
557
330
2
100
AcDbEntity
  8
P-6853
  6
Continuous
 62
     7
100
AcDbCircle
 10
1654.616289351861
 20
263.1941268887342
 30
0.0
 40
3.0
100
AcDbArc
 50
90.0
 51
150.803595590369
  0
ARC
  5
558
330
2
100
AcDbEntity
  8
P-6853
  6
Continuous
 62
     7
100
AcDbCircle
 10
1654.616289351861
 20
283.1941268887342
 30
0.0
 40
3.0
100
AcDbArc
 50
209.196404409631
 51
270.0
  0
LINE
  5
559
330
2
100
AcDbEntity
  8
P-6853
  6
ASSI
 62
     1
100
AcDbLine
 10
1786.070759183688
 20
273.1941268887342
 30
0.0
 11
1767.370759183688
 21
273.1941268887342
 31
0.0
  0
LINE
  5
55A
330
2
100
AcDbEntity
  8
P-6853
  6
ASSI
 62
     1
100
AcDbLine
 10
1776.720759183688
 20
282.5441268887342
 30
0.0
 11
1776.720759183688
 21
263.8441268887341
 31
0.0
  0
CIRCLE
  5
55B
330
2
100
AcDbEntity
  8
P-6853
  6
Continuous
 62
     7
100
AcDbCircle
 10
1776.720759183688
 20
273.1941268887342
 30
0.0
 40
7.5
  0
ARC
  5
55C
330
2
100
AcDbEntity
  8
P-6853
  6
Continuous
 62
     7
100
AcDbCircle
 10
1758.825229015515
 20
263.1941268887342
 30
0.0
 40
3.0
100
AcDbArc
 50
29.196404409631
 51
90.0
  0
ARC
  5
55D
330
2
100
AcDbEntity
  8
P-6853
  6
Continuous
 62
     7
100
AcDbCircle
 10
1776.720759183688
 20
273.1941268887342
 30
0.0
 40
17.5
100
AcDbArc
 50
209.196404409631
 51
330.803595590369
  0
ARC
  5
55E
330
2
100
AcDbEntity
  8
P-6853
  6
Continuous
 62
     7
100
AcDbCircle
 10
1758.825229015515
 20
283.1941268887342
 30
0.0
 40
3.0
100
AcDbArc
 50
270.0
 51
330.803595590369
  0
ARC
  5
55F
330
2
100
AcDbEntity
  8
P-6853
  6
Continuous
 62
     7
100
AcDbCircle
 10
1776.720759183688
 20
273.1941268887342
 30
0.0
 40
17.5
100
AcDbArc
 50
29.196404409631
 51
150.803595590369
  0
LINE
  5
560
330
2
100
AcDbEntity
  8
P-6853
  6
Continuous
 62
     7
100
AcDbLine
 10
1794.616289351861
 20
280.1941268887341
 30
0.0
 11
1898.825229015515
 21
280.1941268887341
 31
0.0
  0
LINE
  5
561
330
2
100
AcDbEntity
  8
P-6853
  6
Continuous
 62
     7
100
AcDbLine
 10
1794.616289351861
 20
266.1941268887342
 30
0.0
 11
1898.825229015515
 21
266.1941268887342
 31
0.0
  0
ARC
  5
562
330
2
100
AcDbEntity
  8
P-6853
  6
Continuous
 62
     7
100
AcDbCircle
 10
1794.616289351861
 20
263.1941268887342
 30
0.0
 40
3.0
100
AcDbArc
 50
90.0
 51
150.803595590369
  0
ARC
  5
563
330
2
100
AcDbEntity
  8
P-6853
  6
Continuous
 62
     7
100
AcDbCircle
 10
1794.616289351861
 20
283.1941268887342
 30
0.0
 40
3.0
100
AcDbArc
 50
209.196404409631
 51
270.0
  0
LINE
  5
564
330
2
100
AcDbEntity
  8
P-6853
  6
ASSI
 62
     1
100
AcDbLine
 10
1926.070759183688
 20
273.1941268887342
 30
0.0
 11
1907.370759183688
 21
273.1941268887342
 31
0.0
  0
LINE
  5
565
330
2
100
AcDbEntity
  8
P-6853
  6
ASSI
 62
     1
100
AcDbLine
 10
1916.720759183688
 20
282.5441268887342
 30
0.0
 11
1916.720759183688
 21
263.8441268887341
 31
0.0
  0
CIRCLE
  5
566
330
2
100
AcDbEntity
  8
P-6853
  6
Continuous
 62
     7
100
AcDbCircle
 10
1916.720759183688
 20
273.1941268887342
 30
0.0
 40
7.5
  0
ARC
  5
567
330
2
100
AcDbEntity
  8
P-6853
  6
Continuous
 62
     7
100
AcDbCircle
 10
1898.825229015515
 20
263.1941268887342
 30
0.0
 40
3.0
100
AcDbArc
 50
29.19640440963078
 51
90.0
  0
ARC
  5
568
330
2
100
AcDbEntity
  8
P-6853
  6
Continuous
 62
     7
100
AcDbCircle
 10
1916.720759183688
 20
273.1941268887342
 30
0.0
 40
17.5
100
AcDbArc
 50
209.1964044096307
 51
330.8035955903692
  0
ARC
  5
569
330
2
100
AcDbEntity
  8
P-6853
  6
Continuous
 62
     7
100
AcDbCircle
 10
1898.825229015515
 20
283.1941268887342
 30
0.0
 40
3.0
100
AcDbArc
 50
270.0
 51
330.8035955903692
  0
ARC
  5
56A
330
2
100
AcDbEntity
  8
P-6853
  6
Continuous
 62
     7
100
AcDbCircle
 10
1916.720759183688
 20
273.1941268887342
 30
0.0
 40
17.5
100
AcDbArc
 50
29.19640440963078
 51
150.8035955903692
  0
LINE
  5
56B
330
2
100
AcDbEntity
  8
P-6853
  6
Continuous
 62
     7
100
AcDbLine
 10
1934.616289351861
 20
280.1941268887341
 30
0.0
 11
2038.825229015515
 21
280.1941268887341
 31
0.0
  0
LINE
  5
56C
330
2
100
AcDbEntity
  8
P-6853
  6
Continuous
 62
     7
100
AcDbLine
 10
1934.616289351861
 20
266.1941268887342
 30
0.0
 11
2038.825229015515
 21
266.1941268887342
 31
0.0
  0
ARC
  5
56D
330
2
100
AcDbEntity
  8
P-6853
  6
Continuous
 62
     7
100
AcDbCircle
 10
1934.616289351861
 20
263.1941268887342
 30
0.0
 40
3.0
100
AcDbArc
 50
90.0
 51
150.8035955903692
  0
ARC
  5
56E
330
2
100
AcDbEntity
  8
P-6853
  6
Continuous
 62
     7
100
AcDbCircle
 10
1934.616289351861
 20
283.1941268887342
 30
0.0
 40
3.0
100
AcDbArc
 50
209.1964044096307
 51
270.0
  0
LINE
  5
56F
330
2
100
AcDbEntity
  8
P-6853
  6
ASSI
 62
     1
100
AcDbLine
 10
2066.070759183688
 20
273.1941268887342
 30
0.0
 11
2047.370759183688
 21
273.1941268887342
 31
0.0
  0
LINE
  5
570
330
2
100
AcDbEntity
  8
P-6853
  6
ASSI
 62
     1
100
AcDbLine
 10
2056.720759183688
 20
282.5441268887342
 30
0.0
 11
2056.720759183688
 21
263.8441268887341
 31
0.0
  0
CIRCLE
  5
571
330
2
100
AcDbEntity
  8
P-6853
  6
Continuous
 62
     7
100
AcDbCircle
 10
2056.720759183688
 20
273.1941268887342
 30
0.0
 40
7.5
  0
ARC
  5
572
330
2
100
AcDbEntity
  8
P-6853
  6
Continuous
 62
     7
100
AcDbCircle
 10
2038.825229015515
 20
263.1941268887342
 30
0.0
 40
3.0
100
AcDbArc
 50
29.19640440963078
 51
90.0
  0
ARC
  5
573
330
2
100
AcDbEntity
  8
P-6853
  6
Continuous
 62
     7
100
AcDbCircle
 10
2056.720759183688
 20
273.1941268887342
 30
0.0
 40
17.5
100
AcDbArc
 50
209.1964044096307
 51
330.8035955903692
  0
ARC
  5
574
330
2
100
AcDbEntity
  8
P-6853
  6
Continuous
 62
     7
100
AcDbCircle
 10
2038.825229015515
 20
283.1941268887342
 30
0.0
 40
3.0
100
AcDbArc
 50
270.0
 51
330.8035955903692
  0
ARC
  5
575
330
2
100
AcDbEntity
  8
P-6853
  6
Continuous
 62
     7
100
AcDbCircle
 10
2056.720759183688
 20
273.1941268887342
 30
0.0
 40
17.5
100
AcDbArc
 50
29.19640440963078
 51
150.8035955903692
  0
LINE
  5
576
330
2
100
AcDbEntity
  8
P-6853
  6
Continuous
 62
     7
100
AcDbLine
 10
2074.616289351861
 20
280.1941268887341
 30
0.0
 11
2178.825229015515
 21
280.1941268887341
 31
0.0
  0
LINE
  5
577
330
2
100
AcDbEntity
  8
P-6853
  6
Continuous
 62
     7
100
AcDbLine
 10
2074.616289351861
 20
266.1941268887342
 30
0.0
 11
2178.825229015515
 21
266.1941268887342
 31
0.0
  0
ARC
  5
578
330
2
100
AcDbEntity
  8
P-6853
  6
Continuous
 62
     7
100
AcDbCircle
 10
2074.616289351861
 20
263.1941268887342
 30
0.0
 40
3.0
100
AcDbArc
 50
90.0
 51
150.8035955903692
  0
ARC
  5
579
330
2
100
AcDbEntity
  8
P-6853
  6
Continuous
 62
     7
100
AcDbCircle
 10
2074.616289351861
 20
283.1941268887342
 30
0.0
 40
3.0
100
AcDbArc
 50
209.1964044096307
 51
270.0
  0
LINE
  5
57A
330
2
100
AcDbEntity
  8
P-6853
  6
ASSI
 62
     1
100
AcDbLine
 10
2206.070759183688
 20
273.1941268887342
 30
0.0
 11
2187.370759183688
 21
273.1941268887342
 31
0.0
  0
LINE
  5
57B
330
2
100
AcDbEntity
  8
P-6853
  6
ASSI
 62
     1
100
AcDbLine
 10
2196.720759183688
 20
282.5441268887342
 30
0.0
 11
2196.720759183688
 21
263.8441268887341
 31
0.0
  0
CIRCLE
  5
57C
330
2
100
AcDbEntity
  8
P-6853
  6
Continuous
 62
     7
100
AcDbCircle
 10
2196.720759183688
 20
273.1941268887342
 30
0.0
 40
7.5
  0
ARC
  5
57D
330
2
100
AcDbEntity
  8
P-6853
  6
Continuous
 62
     7
100
AcDbCircle
 10
2178.825229015515
 20
263.1941268887342
 30
0.0
 40
3.0
100
AcDbArc
 50
29.1964044096306
 51
90.0
  0
ARC
  5
57E
330
2
100
AcDbEntity
  8
P-6853
  6
Continuous
 62
     7
100
AcDbCircle
 10
2196.720759183688
 20
273.1941268887342
 30
0.0
 40
17.5
100
AcDbArc
 50
209.1964044096306
 51
330.8035955903694
  0
ARC
  5
57F
330
2
100
AcDbEntity
  8
P-6853
  6
Continuous
 62
     7
100
AcDbCircle
 10
2178.825229015515
 20
283.1941268887342
 30
0.0
 40
3.0
100
AcDbArc
 50
270.0
 51
330.8035955903694
  0
ARC
  5
580
330
2
100
AcDbEntity
  8
P-6853
  6
Continuous
 62
     7
100
AcDbCircle
 10
2196.720759183688
 20
273.1941268887342
 30
0.0
 40
17.5
100
AcDbArc
 50
29.1964044096306
 51
150.8035955903693
  0
LINE
  5
581
330
2
100
AcDbEntity
  8
P-6853
  6
Continuous
 62
     7
100
AcDbLine
 10
2214.616289351861
 20
280.1941268887341
 30
0.0
 11
2318.825229015515
 21
280.1941268887341
 31
0.0
  0
LINE
  5
582
330
2
100
AcDbEntity
  8
P-6853
  6
Continuous
 62
     7
100
AcDbLine
 10
2214.616289351861
 20
266.1941268887342
 30
0.0
 11
2318.825229015515
 21
266.1941268887342
 31
0.0
  0
ARC
  5
583
330
2
100
AcDbEntity
  8
P-6853
  6
Continuous
 62
     7
100
AcDbCircle
 10
2214.616289351861
 20
263.1941268887342
 30
0.0
 40
3.0
100
AcDbArc
 50
90.0
 51
150.8035955903693
  0
ARC
  5
584
330
2
100
AcDbEntity
  8
P-6853
  6
Continuous
 62
     7
100
AcDbCircle
 10
2214.616289351861
 20
283.1941268887342
 30
0.0
 40
3.0
100
AcDbArc
 50
209.1964044096306
 51
270.0
  0
LINE
  5
585
330
2
100
AcDbEntity
  8
P-6853
  6
ASSI
 62
     1
100
AcDbLine
 10
2346.070759183688
 20
273.1941268887342
 30
0.0
 11
2327.370759183688
 21
273.1941268887342
 31
0.0
  0
LINE
  5
586
330
2
100
AcDbEntity
  8
P-6853
  6
ASSI
 62
     1
100
AcDbLine
 10
2336.720759183688
 20
282.5441268887342
 30
0.0
 11
2336.720759183688
 21
263.8441268887341
 31
0.0
  0
CIRCLE
  5
587
330
2
100
AcDbEntity
  8
P-6853
  6
Continuous
 62
     7
100
AcDbCircle
 10
2336.720759183688
 20
273.1941268887342
 30
0.0
 40
7.5
  0
ARC
  5
588
330
2
100
AcDbEntity
  8
P-6853
  6
Continuous
 62
     7
100
AcDbCircle
 10
2318.825229015515
 20
263.1941268887342
 30
0.0
 40
3.0
100
AcDbArc
 50
29.1964044096306
 51
90.0
  0
ARC
  5
589
330
2
100
AcDbEntity
  8
P-6853
  6
Continuous
 62
     7
100
AcDbCircle
 10
2336.720759183688
 20
273.1941268887342
 30
0.0
 40
17.5
100
AcDbArc
 50
209.1964044096306
 51
330.8035955903694
  0
ARC
  5
58A
330
2
100
AcDbEntity
  8
P-6853
  6
Continuous
 62
     7
100
AcDbCircle
 10
2318.825229015515
 20
283.1941268887342
 30
0.0
 40
3.0
100
AcDbArc
 50
270.0
 51
330.8035955903694
  0
ARC
  5
58B
330
2
100
AcDbEntity
  8
P-6853
  6
Continuous
 62
     7
100
AcDbCircle
 10
2336.720759183688
 20
273.1941268887342
 30
0.0
 40
17.5
100
AcDbArc
 50
29.1964044096306
 51
150.8035955903693
  0
LINE
  5
58C
330
2
100
AcDbEntity
  8
P-6853
  6
Continuous
 62
     7
100
AcDbLine
 10
2354.616289351862
 20
280.1941268887341
 30
0.0
 11
2458.825229015515
 21
280.1941268887341
 31
0.0
  0
LINE
  5
58D
330
2
100
AcDbEntity
  8
P-6853
  6
Continuous
 62
     7
100
AcDbLine
 10
2354.616289351862
 20
266.1941268887342
 30
0.0
 11
2458.825229015515
 21
266.1941268887342
 31
0.0
  0
ARC
  5
58E
330
2
100
AcDbEntity
  8
P-6853
  6
Continuous
 62
     7
100
AcDbCircle
 10
2354.616289351862
 20
263.1941268887342
 30
0.0
 40
3.0
100
AcDbArc
 50
90.0
 51
150.8035955903693
  0
ARC
  5
58F
330
2
100
AcDbEntity
  8
P-6853
  6
Continuous
 62
     7
100
AcDbCircle
 10
2354.616289351862
 20
283.1941268887342
 30
0.0
 40
3.0
100
AcDbArc
 50
209.1964044096306
 51
270.0
  0
LINE
  5
590
330
2
100
AcDbEntity
  8
P-6853
  6
ASSI
 62
     1
100
AcDbLine
 10
2486.070759183688
 20
273.1941268887342
 30
0.0
 11
2467.370759183689
 21
273.1941268887342
 31
0.0
  0
LINE
  5
591
330
2
100
AcDbEntity
  8
P-6853
  6
ASSI
 62
     1
100
AcDbLine
 10
2476.720759183688
 20
282.5441268887342
 30
0.0
 11
2476.720759183688
 21
263.8441268887341
 31
0.0
  0
CIRCLE
  5
592
330
2
100
AcDbEntity
  8
P-6853
  6
Continuous
 62
     7
100
AcDbCircle
 10
2476.720759183688
 20
273.1941268887342
 30
0.0
 40
7.5
  0
ARC
  5
593
330
2
100
AcDbEntity
  8
P-6853
  6
Continuous
 62
     7
100
AcDbCircle
 10
2458.825229015515
 20
263.1941268887342
 30
0.0
 40
3.0
100
AcDbArc
 50
29.19640440963047
 51
90.0
  0
ARC
  5
594
330
2
100
AcDbEntity
  8
P-6853
  6
Continuous
 62
     7
100
AcDbCircle
 10
2476.720759183688
 20
273.1941268887342
 30
0.0
 40
17.5
100
AcDbArc
 50
209.1964044096304
 51
330.8035955903695
  0
ARC
  5
595
330
2
100
AcDbEntity
  8
P-6853
  6
Continuous
 62
     7
100
AcDbCircle
 10
2458.825229015515
 20
283.1941268887342
 30
0.0
 40
3.0
100
AcDbArc
 50
270.0
 51
330.8035955903695
  0
ARC
  5
596
330
2
100
AcDbEntity
  8
P-6853
  6
Continuous
 62
     7
100
AcDbCircle
 10
2476.720759183688
 20
273.1941268887342
 30
0.0
 40
17.5
100
AcDbArc
 50
29.19640440963047
 51
150.8035955903695
  0
LINE
  5
597
330
2
100
AcDbEntity
  8
P-6853
  6
Continuous
 62
     7
100
AcDbLine
 10
2494.616289351861
 20
280.1941268887341
 30
0.0
 11
2598.825229015515
 21
280.1941268887341
 31
0.0
  0
LINE
  5
598
330
2
100
AcDbEntity
  8
P-6853
  6
Continuous
 62
     7
100
AcDbLine
 10
2494.616289351861
 20
266.1941268887342
 30
0.0
 11
2598.825229015515
 21
266.1941268887342
 31
0.0
  0
ARC
  5
599
330
2
100
AcDbEntity
  8
P-6853
  6
Continuous
 62
     7
100
AcDbCircle
 10
2494.616289351861
 20
263.1941268887342
 30
0.0
 40
3.0
100
AcDbArc
 50
90.0
 51
150.8035955903695
  0
ARC
  5
59A
330
2
100
AcDbEntity
  8
P-6853
  6
Continuous
 62
     7
100
AcDbCircle
 10
2494.616289351861
 20
283.1941268887342
 30
0.0
 40
3.0
100
AcDbArc
 50
209.1964044096304
 51
270.0
  0
LINE
  5
59B
330
2
100
AcDbEntity
  8
P-6853
  6
ASSI
 62
     1
100
AcDbLine
 10
2626.070759183688
 20
273.1941268887342
 30
0.0
 11
2607.370759183688
 21
273.1941268887342
 31
0.0
  0
LINE
  5
59C
330
2
100
AcDbEntity
  8
P-6853
  6
ASSI
 62
     1
100
AcDbLine
 10
2616.720759183688
 20
282.5441268887342
 30
0.0
 11
2616.720759183688
 21
263.8441268887341
 31
0.0
  0
CIRCLE
  5
59D
330
2
100
AcDbEntity
  8
P-6853
  6
Continuous
 62
     7
100
AcDbCircle
 10
2616.720759183688
 20
273.1941268887342
 30
0.0
 40
7.5
  0
ARC
  5
59E
330
2
100
AcDbEntity
  8
P-6853
  6
Continuous
 62
     7
100
AcDbCircle
 10
2598.825229015515
 20
263.1941268887342
 30
0.0
 40
3.0
100
AcDbArc
 50
29.19640440963037
 51
90.0
  0
ARC
  5
59F
330
2
100
AcDbEntity
  8
P-6853
  6
Continuous
 62
     7
100
AcDbCircle
 10
2616.720759183688
 20
273.1941268887342
 30
0.0
 40
17.5
100
AcDbArc
 50
209.1964044096303
 51
330.8035955903696
  0
ARC
  5
5A0
330
2
100
AcDbEntity
  8
P-6853
  6
Continuous
 62
     7
100
AcDbCircle
 10
2598.825229015515
 20
283.1941268887342
 30
0.0
 40
3.0
100
AcDbArc
 50
270.0
 51
330.8035955903696
  0
ARC
  5
5A1
330
2
100
AcDbEntity
  8
P-6853
  6
Continuous
 62
     7
100
AcDbCircle
 10
2616.720759183688
 20
273.1941268887342
 30
0.0
 40
17.5
100
AcDbArc
 50
29.19640440963037
 51
150.8035955903696
  0
LINE
  5
5A2
330
2
100
AcDbEntity
  8
P-6853
  6
Continuous
 62
     7
100
AcDbLine
 10
2634.616289351861
 20
280.1941268887341
 30
0.0
 11
2738.825229015515
 21
280.1941268887341
 31
0.0
  0
LINE
  5
5A3
330
2
100
AcDbEntity
  8
P-6853
  6
Continuous
 62
     7
100
AcDbLine
 10
2634.616289351861
 20
266.1941268887342
 30
0.0
 11
2738.825229015515
 21
266.1941268887342
 31
0.0
  0
ARC
  5
5A4
330
2
100
AcDbEntity
  8
P-6853
  6
Continuous
 62
     7
100
AcDbCircle
 10
2634.616289351861
 20
263.1941268887342
 30
0.0
 40
3.0
100
AcDbArc
 50
90.0
 51
150.8035955903696
  0
ARC
  5
5A5
330
2
100
AcDbEntity
  8
P-6853
  6
Continuous
 62
     7
100
AcDbCircle
 10
2634.616289351861
 20
283.1941268887342
 30
0.0
 40
3.0
100
AcDbArc
 50
209.1964044096303
 51
270.0
  0
LINE
  5
5A6
330
2
100
AcDbEntity
  8
P-6853
  6
ASSI
 62
     1
100
AcDbLine
 10
2766.070759183688
 20
273.1941268887342
 30
0.0
 11
2747.370759183688
 21
273.1941268887342
 31
0.0
  0
LINE
  5
5A7
330
2
100
AcDbEntity
  8
P-6853
  6
ASSI
 62
     1
100
AcDbLine
 10
2756.720759183688
 20
282.5441268887342
 30
0.0
 11
2756.720759183688
 21
263.8441268887341
 31
0.0
  0
CIRCLE
  5
5A8
330
2
100
AcDbEntity
  8
P-6853
  6
Continuous
 62
     7
100
AcDbCircle
 10
2756.720759183688
 20
273.1941268887342
 30
0.0
 40
7.5
  0
ARC
  5
5A9
330
2
100
AcDbEntity
  8
P-6853
  6
Continuous
 62
     7
100
AcDbCircle
 10
2738.825229015515
 20
263.1941268887342
 30
0.0
 40
3.0
100
AcDbArc
 50
29.19640440963037
 51
90.0
  0
ARC
  5
5AA
330
2
100
AcDbEntity
  8
P-6853
  6
Continuous
 62
     7
100
AcDbCircle
 10
2756.720759183688
 20
273.1941268887342
 30
0.0
 40
17.5
100
AcDbArc
 50
209.1964044096303
 51
330.8035955903696
  0
ARC
  5
5AB
330
2
100
AcDbEntity
  8
P-6853
  6
Continuous
 62
     7
100
AcDbCircle
 10
2738.825229015515
 20
283.1941268887342
 30
0.0
 40
3.0
100
AcDbArc
 50
270.0
 51
330.8035955903696
  0
ARC
  5
5AC
330
2
100
AcDbEntity
  8
P-6853
  6
Continuous
 62
     7
100
AcDbCircle
 10
2756.720759183688
 20
273.1941268887342
 30
0.0
 40
17.5
100
AcDbArc
 50
29.19640440963037
 51
150.8035955903696
  0
LINE
  5
5AD
330
2
100
AcDbEntity
  8
P-6853
  6
Continuous
 62
     7
100
AcDbLine
 10
2774.616289351861
 20
280.1941268887341
 30
0.0
 11
2846.720759183688
 21
280.1941268887341
 31
0.0
  0
LINE
  5
5AE
330
2
100
AcDbEntity
  8
P-6853
  6
Continuous
 62
     7
100
AcDbLine
 10
2774.616289351861
 20
266.1941268887342
 30
0.0
 11
2846.720759183688
 21
266.1941268887342
 31
0.0
  0
ARC
  5
5AF
330
2
100
AcDbEntity
  8
P-6853
  6
Continuous
 62
     7
100
AcDbCircle
 10
2774.616289351861
 20
263.1941268887342
 30
0.0
 40
3.0
100
AcDbArc
 50
90.0
 51
150.8035955903696
  0
ARC
  5
5B0
330
2
100
AcDbEntity
  8
P-6853
  6
Continuous
 62
     7
100
AcDbCircle
 10
2774.616289351861
 20
283.1941268887342
 30
0.0
 40
3.0
100
AcDbArc
 50
209.1964044096303
 51
270.0
  0
ENDSEC
  0
SECTION
  2
OBJECTS
  0
DICTIONARY
  5
1A
330
0
100
AcDbDictionary
281
     1
  3
ACAD_COLOR
350
8E
  3
ACAD_GROUP
350
18
  3
ACAD_LAYOUT
350
45
  3
ACAD_MATERIAL
350
8D
  3
ACAD_MLEADERSTYLE
350
132
  3
ACAD_MLINESTYLE
350
19
  3
ACAD_PLOTSETTINGS
350
46
  3
ACAD_PLOTSTYLENAME
350
43
  3
ACAD_SCALELIST
350
120
  3
ACAD_TABLESTYLE
350
8F
  3
ACAD_VISUALSTYLE
350
10F
  3
ACDB_RECOMPOSE_DATA
350
14E
  3
AcDbVariableDictionary
350
55
  3
AEC_PROPERTY_SET_DEFS
350
18F
  3
DWGPROPS
350
5BE
  3
qs_topprt_diz
350
6B
  3
QSCATDICT
350
162
  3
QsTop499
350
EB
  3
TopSpotLight
350
94
  0
DICTIONARY
  5
1DF
330
A
100
AcDbDictionary
280
     1
281
     1
  3
ACAD_LAYERSTATES
360
1E0
  0
DICTIONARY
  5
5B1
330
4
100
AcDbDictionary
280
     1
281
     1
  3
ADSK_XREC_LAYER_RECONCILED
360
5B2
  0
DICTIONARY
  5
5B3
330
93
100
AcDbDictionary
280
     1
281
     1
  3
ADSK_XREC_LAYER_RECONCILED
360
5B4
  0
DICTIONARY
  5
5B5
330
E3
100
AcDbDictionary
280
     1
281
     1
  3
ADSK_XREC_LAYER_RECONCILED
360
5B6
  0
DICTIONARY
  5
5B7
330
EA
100
AcDbDictionary
280
     1
281
     1
  3
ADSK_XREC_LAYER_RECONCILED
360
5B8
  0
DICTIONARY
  5
5B9
330
164
100
AcDbDictionary
280
     1
281
     1
  3
ADSK_XREC_LAYER_RECONCILED
360
5BA
  0
DICTIONARY
  5
167
330
2
100
AcDbDictionary
280
     1
281
     1
  3
ACAD_SORTENTS
360
168
  0
DICTIONARY
  5
8E
102
{ACAD_REACTORS
330
1A
102
}
330
1A
100
AcDbDictionary
281
     1
  0
DICTIONARY
  5
18
102
{ACAD_REACTORS
330
1A
102
}
330
1A
100
AcDbDictionary
281
     1
  0
DICTIONARY
  5
45
102
{ACAD_REACTORS
330
1A
102
}
330
1A
100
AcDbDictionary
281
     1
  3
Layout1
350
48
  3
Model
350
47
  0
DICTIONARY
  5
8D
102
{ACAD_REACTORS
330
1A
102
}
330
1A
100
AcDbDictionary
281
     1
  3
ByBlock
350
FF
  3
ByLayer
350
F7
  3
Global
350
107
  0
DICTIONARY
  5
132
102
{ACAD_REACTORS
330
1A
102
}
330
1A
100
AcDbDictionary
281
     1
  3
Standard
350
133
  0
DICTIONARY
  5
19
102
{ACAD_REACTORS
330
1A
102
}
330
1A
100
AcDbDictionary
281
     1
  3
STANDARD
350
1C
  0
DICTIONARY
  5
46
102
{ACAD_REACTORS
330
1A
102
}
330
1A
100
AcDbDictionary
281
     1
  0
ACDBDICTIONARYWDFLT
  5
43
102
{ACAD_REACTORS
330
1A
102
}
330
1A
100
AcDbDictionary
281
     1
  3
Normal
350
44
100
AcDbDictionaryWithDefault
340
44
  0
DICTIONARY
  5
120
102
{ACAD_REACTORS
330
1A
102
}
330
1A
100
AcDbDictionary
281
     1
  3
A0
350
121
  3
A1
350
122
  3
A2
350
123
  3
A3
350
124
  3
A4
350
125
  3
A5
350
126
  3
A6
350
127
  3
A7
350
128
  3
A8
350
129
  3
A9
350
12A
  3
B0
350
12B
  3
B1
350
12C
  3
B2
350
12D
  3
B3
350
12E
  3
B4
350
12F
  3
B5
350
130
  3
B6
350
131
  0
DICTIONARY
  5
8F
102
{ACAD_REACTORS
330
1A
102
}
330
1A
100
AcDbDictionary
281
     1
  3
Standard
350
90
  0
DICTIONARY
  5
10F
102
{ACAD_REACTORS
330
1A
102
}
330
1A
100
AcDbDictionary
281
     1
  3
2dWireframe
350
115
  3
3D Hidden
350
117
  3
3dWireframe
350
116
  3
Basic
350
114
  3
Brighten
350
11B
  3
ColorChange
350
11F
  3
Conceptual
350
118
  3
Dim
350
11A
  3
Facepattern
350
11E
  3
Flat
350
110
  3
FlatWithEdges
350
111
  3
Gouraud
350
112
  3
GouraudWithEdges
350
113
  3
Linepattern
350
11D
  3
Realistic
350
119
  3
Thicken
350
11C
  0
XRECORD
  5
14E
102
{ACAD_REACTORS
330
1A
102
}
330
1A
100
AcDbXrecord
280
     1
 90
        1
330
90
  0
DICTIONARY
  5
55
102
{ACAD_REACTORS
330
1A
102
}
330
1A
100
AcDbDictionary
281
     1
  3
CANNOSCALE
350
151
  3
CMLEADERSTYLE
350
14F
  3
CTABLESTYLE
350
D0
  3
DIMASSOC
350
56
  3
DRAWORDERCTL
350
16C
  3
INDEXCTL
350
5BC
  3
LAYEREVAL
350
153
  3
LAYERNOTIFY
350
154
  3
LIGHTINGUNITS
350
152
  3
MSLTSCALE
350
150
  3
SORTENTS
350
5BB
  0
DICTIONARY
  5
18F
102
{ACAD_REACTORS
330
1A
102
}
330
1A
100
AcDbDictionary
281
     1
  0
XRECORD
  5
5BE
102
{ACAD_REACTORS
330
1A
102
}
330
1A
100
AcDbXrecord
280
     1
  1
DWGPROPS COOKIE
  2

  3

  4

  6

  7

  8
CostenieroM
  9

300
=
301
=
302
=
303
=
304
=
305
=
306
=
307
=
308
=
309
=
 40
0.0061562037037037
 41
2455035.582779444
 42
2455035.588935104
  1

 90
        0
  0
DICTIONARY
  5
6B
102
{ACAD_REACTORS
330
1A
102
}
330
1A
100
AcDbDictionary
281
     1
  3
UCNT
350
6C
  0
DICTIONARY
  5
162
102
{ACAD_REACTORS
330
1A
102
}
330
1A
100
AcDbDictionary
281
     1
  3
DEFAULT
350
163
  0
DICTIONARY
  5
EB
102
{ACAD_REACTORS
330
1A
102
}
330
1A
100
AcDbDictionary
281
     1
  3
TOP
350
ED
  3
X6768
350
EC
  0
DICTIONARY
  5
94
102
{ACAD_REACTORS
330
1A
102
}
330
1A
100
AcDbDictionary
281
     1
  3
colors
350
95
  0
DICTIONARY
  5
1E0
102
{ACAD_REACTORS
330
1DF
102
}
330
1DF
100
AcDbDictionary
281
     1
  0
XRECORD
  5
5B2
102
{ACAD_REACTORS
330
5B1
102
}
330
5B1
100
AcDbXrecord
280
     1
290
     1
  0
XRECORD
  5
5B4
102
{ACAD_REACTORS
330
5B3
102
}
330
5B3
100
AcDbXrecord
280
     1
290
     1
  0
XRECORD
  5
5B6
102
{ACAD_REACTORS
330
5B5
102
}
330
5B5
100
AcDbXrecord
280
     1
290
     1
  0
XRECORD
  5
5B8
102
{ACAD_REACTORS
330
5B7
102
}
330
5B7
100
AcDbXrecord
280
     1
290
     1
  0
XRECORD
  5
5BA
102
{ACAD_REACTORS
330
5B9
102
}
330
5B9
100
AcDbXrecord
280
     1
290
     1
  0
SORTENTSTABLE
  5
168
102
{ACAD_REACTORS
330
167
102
}
330
167
100
AcDbSortentsTable
330
2
  0
LAYOUT
  5
48
102
{ACAD_XDICTIONARY
360
5C1
102
}
102
{ACAD_REACTORS
330
45
102
}
330
45
100
AcDbPlotSettings
  1

  2
\\UFFICIO\HP 930 C
  4

  6

 40
0.0
 41
0.0
 42
0.0
 43
0.0
 44
0.0
 45
0.0
 46
0.0
 47
0.0
 48
0.0
 49
0.0
140
0.0
141
0.0
142
1.0
143
1.0
 70
   688
 72
     0
 73
     0
 74
     5
  7
india monocromatico.ctb
 75
    16
147
1.0
148
0.0
149
0.0
100
AcDbLayout
  1
Layout1
 70
     1
 71
     1
 10
0.0
 20
0.0
 11
12.0
 21
9.0
 12
0.0
 22
0.0
 32
0.0
 14
1.000000000000000E+20
 24
1.000000000000000E+20
 34
1.000000000000000E+20
 15
-1.000000000000000E+20
 25
-1.000000000000000E+20
 35
-1.000000000000000E+20
146
0.0
 13
0.0
 23
0.0
 33
0.0
 16
1.0
 26
0.0
 36
0.0
 17
0.0
 27
1.0
 37
0.0
 76
     0
330
7
  0
LAYOUT
  5
47
102
{ACAD_XDICTIONARY
360
5BF
102
}
102
{ACAD_REACTORS
330
45
102
}
330
45
100
AcDbPlotSettings
  1

  2
Infotec.pc3
  4
A4
  6

 40
5.027083396911621
 41
5.196427345275878
 42
5.1964111328125
 43
5.027069091796875
 44
209.9733276367187
 45
296.9259948730469
 46
0.0
 47
83.68
 48
0.0
 49
0.0
140
0.0
141
0.0
142
1.0
143
2.544548895034301
 70
 11956
 72
     1
 73
     0
 74
     0
  7
india monocromatico.ctb
 75
     0
147
0.3929969677342434
148
44.13660855784465
149
1.412044374009497
100
AcDbLayout
  1
Model
 70
     1
 71
     0
 10
0.0
 20
0.0
 11
12.0
 21
9.0
 12
0.0
 22
0.0
 32
0.0
 14
0.0
 24
0.0
 34
0.0
 15
0.0
 25
0.0
 35
0.0
146
0.0
 13
0.0
 23
0.0
 33
0.0
 16
1.0
 26
0.0
 36
0.0
 17
0.0
 27
1.0
 37
0.0
 76
     0
330
2
331
F5
  0
MATERIAL
  5
FF
102
{ACAD_XDICTIONARY
360
100
102
}
102
{ACAD_REACTORS
330
8D
102
}
330
8D
100
AcDbMaterial
  1
ByBlock
 72
     0
 43
0.0208333333333333
 43
0.0
 43
0.0
 43
0.0
 43
0.0
 43
0.0208333333333333
 43
0.0
 43
0.0
 43
0.0
 43
0.0
 43
1.0
 43
0.0
 43
0.0
 43
0.0
 43
0.0
 43
1.0
 77
     0
 47
0.0208333333333333
 47
0.0
 47
0.0
 47
0.0
 47
0.0
 47
0.0208333333333333
 47
0.0
 47
0.0
 47
0.0
 47
0.0
 47
1.0
 47
0.0
 47
0.0
 47
0.0
 47
0.0
 47
1.0
171
     0
 49
0.0208333333333333
 49
0.0
 49
0.0
 49
0.0
 49
0.0
 49
0.0208333333333333
 49
0.0
 49
0.0
 49
0.0
 49
0.0
 49
1.0
 49
0.0
 49
0.0
 49
0.0
 49
0.0
 49
1.0
175
     0
142
0.0208333333333333
142
0.0
142
0.0
142
0.0
142
0.0
142
0.0208333333333333
142
0.0
142
0.0
142
0.0
142
0.0
142
1.0
142
0.0
142
0.0
142
0.0
142
0.0
142
1.0
179
     0
144
0.0208333333333333
144
0.0
144
0.0
144
0.0
144
0.0
144
0.0208333333333333
144
0.0
144
0.0
144
0.0
144
0.0
144
1.0
144
0.0
144
0.0
144
0.0
144
0.0
144
1.0
147
0.0208333333333333
147
0.0
147
0.0
147
0.0
147
0.0
147
0.0208333333333333
147
0.0
147
0.0
147
0.0
147
0.0
147
1.0
147
0.0
147
0.0
147
0.0
147
0.0
147
1.0
  0
MATERIAL
  5
F7
102
{ACAD_XDICTIONARY
360
F8
102
}
102
{ACAD_REACTORS
330
8D
102
}
330
8D
100
AcDbMaterial
  1
ByLayer
 72
     0
 43
0.0208333333333333
 43
0.0
 43
0.0
 43
0.0
 43
0.0
 43
0.0208333333333333
 43
0.0
 43
0.0
 43
0.0
 43
0.0
 43
1.0
 43
0.0
 43
0.0
 43
0.0
 43
0.0
 43
1.0
 77
     0
 47
0.0208333333333333
 47
0.0
 47
0.0
 47
0.0
 47
0.0
 47
0.0208333333333333
 47
0.0
 47
0.0
 47
0.0
 47
0.0
 47
1.0
 47
0.0
 47
0.0
 47
0.0
 47
0.0
 47
1.0
171
     0
 49
0.0208333333333333
 49
0.0
 49
0.0
 49
0.0
 49
0.0
 49
0.0208333333333333
 49
0.0
 49
0.0
 49
0.0
 49
0.0
 49
1.0
 49
0.0
 49
0.0
 49
0.0
 49
0.0
 49
1.0
175
     0
142
0.0208333333333333
142
0.0
142
0.0
142
0.0
142
0.0
142
0.0208333333333333
142
0.0
142
0.0
142
0.0
142
0.0
142
1.0
142
0.0
142
0.0
142
0.0
142
0.0
142
1.0
179
     0
144
0.0208333333333333
144
0.0
144
0.0
144
0.0
144
0.0
144
0.0208333333333333
144
0.0
144
0.0
144
0.0
144
0.0
144
1.0
144
0.0
144
0.0
144
0.0
144
0.0
144
1.0
147
0.0208333333333333
147
0.0
147
0.0
147
0.0
147
0.0
147
0.0208333333333333
147
0.0
147
0.0
147
0.0
147
0.0
147
1.0
147
0.0
147
0.0
147
0.0
147
0.0
147
1.0
  0
MATERIAL
  5
107
102
{ACAD_XDICTIONARY
360
108
102
}
102
{ACAD_REACTORS
330
8D
102
}
330
8D
100
AcDbMaterial
  1
Global
 72
     0
 43
0.0208333333333333
 43
0.0
 43
0.0
 43
0.0
 43
0.0
 43
0.0208333333333333
 43
0.0
 43
0.0
 43
0.0
 43
0.0
 43
1.0
 43
0.0
 43
0.0
 43
0.0
 43
0.0
 43
1.0
 77
     0
 47
0.0208333333333333
 47
0.0
 47
0.0
 47
0.0
 47
0.0
 47
0.0208333333333333
 47
0.0
 47
0.0
 47
0.0
 47
0.0
 47
1.0
 47
0.0
 47
0.0
 47
0.0
 47
0.0
 47
1.0
171
     0
 49
0.0208333333333333
 49
0.0
 49
0.0
 49
0.0
 49
0.0
 49
0.0208333333333333
 49
0.0
 49
0.0
 49
0.0
 49
0.0
 49
1.0
 49
0.0
 49
0.0
 49
0.0
 49
0.0
 49
1.0
175
     0
142
0.0208333333333333
142
0.0
142
0.0
142
0.0
142
0.0
142
0.0208333333333333
142
0.0
142
0.0
142
0.0
142
0.0
142
1.0
142
0.0
142
0.0
142
0.0
142
0.0
142
1.0
179
     0
144
0.0208333333333333
144
0.0
144
0.0
144
0.0
144
0.0
144
0.0208333333333333
144
0.0
144
0.0
144
0.0
144
0.0
144
1.0
144
0.0
144
0.0
144
0.0
144
0.0
144
1.0
147
0.0208333333333333
147
0.0
147
0.0
147
0.0
147
0.0
147
0.0208333333333333
147
0.0
147
0.0
147
0.0
147
0.0
147
1.0
147
0.0
147
0.0
147
0.0
147
0.0
147
1.0
  0
MLEADERSTYLE
  5
133
102
{ACAD_REACTORS
330
132
102
}
330
132
100
AcDbMLeaderStyle
170
     2
171
     1
172
     0
 90
        2
 40
0.0
 41
0.0
173
     1
 91
-1056964608
340
E
 92
       -2
290
     1
 42
2.0
291
     1
 43
0.36
  3
Standard
 44
4.0
300

342
C
174
     1
178
     6
175
     1
176
     0
 93
-1056964608
 45
4.0
292
     0
297
     0
 46
4.0
 94
-1056964608
 47
1.0
 49
1.0
140
1.0
293
     1
141
0.0
294
     1
177
     0
142
1.0
295
     0
296
     0
143
0.125
1001
ACAD_MLEADERVER
1070
     2
  0
MLINESTYLE
  5
1C
102
{ACAD_REACTORS
330
19
102
}
330
19
100
AcDbMlineStyle
  2
STANDARD
 70
     0
  3

 62
     0
 51
90.0
 52
90.0
 71
     2
 49
0.5
 62
   256
  6
BYLAYER
 49
-0.5
 62
   256
  6
BYLAYER
  0
ACDBPLACEHOLDER
  5
44
102
{ACAD_REACTORS
330
43
102
}
330
43
  0
SCALE
  5
121
102
{ACAD_REACTORS
330
120
102
}
330
120
100
AcDbScale
 70
     0
300
1:1
140
1.0
141
1.0
290
     1
  0
SCALE
  5
122
102
{ACAD_REACTORS
330
120
102
}
330
120
100
AcDbScale
 70
     0
300
1:2
140
1.0
141
2.0
290
     0
  0
SCALE
  5
123
102
{ACAD_REACTORS
330
120
102
}
330
120
100
AcDbScale
 70
     0
300
1:4
140
1.0
141
4.0
290
     0
  0
SCALE
  5
124
102
{ACAD_REACTORS
330
120
102
}
330
120
100
AcDbScale
 70
     0
300
1:5
140
1.0
141
5.0
290
     0
  0
SCALE
  5
125
102
{ACAD_REACTORS
330
120
102
}
330
120
100
AcDbScale
 70
     0
300
1:8
140
1.0
141
8.0
290
     0
  0
SCALE
  5
126
102
{ACAD_REACTORS
330
120
102
}
330
120
100
AcDbScale
 70
     0
300
1:10
140
1.0
141
10.0
290
     0
  0
SCALE
  5
127
102
{ACAD_REACTORS
330
120
102
}
330
120
100
AcDbScale
 70
     0
300
1:16
140
1.0
141
16.0
290
     0
  0
SCALE
  5
128
102
{ACAD_REACTORS
330
120
102
}
330
120
100
AcDbScale
 70
     0
300
1:20
140
1.0
141
20.0
290
     0
  0
SCALE
  5
129
102
{ACAD_REACTORS
330
120
102
}
330
120
100
AcDbScale
 70
     0
300
1:30
140
1.0
141
30.0
290
     0
  0
SCALE
  5
12A
102
{ACAD_REACTORS
330
120
102
}
330
120
100
AcDbScale
 70
     0
300
1:40
140
1.0
141
40.0
290
     0
  0
SCALE
  5
12B
102
{ACAD_REACTORS
330
120
102
}
330
120
100
AcDbScale
 70
     0
300
1:50
140
1.0
141
50.0
290
     0
  0
SCALE
  5
12C
102
{ACAD_REACTORS
330
120
102
}
330
120
100
AcDbScale
 70
     0
300
1:100
140
1.0
141
100.0
290
     0
  0
SCALE
  5
12D
102
{ACAD_REACTORS
330
120
102
}
330
120
100
AcDbScale
 70
     0
300
2:1
140
2.0
141
1.0
290
     0
  0
SCALE
  5
12E
102
{ACAD_REACTORS
330
120
102
}
330
120
100
AcDbScale
 70
     0
300
4:1
140
4.0
141
1.0
290
     0
  0
SCALE
  5
12F
102
{ACAD_REACTORS
330
120
102
}
330
120
100
AcDbScale
 70
     0
300
8:1
140
8.0
141
1.0
290
     0
  0
SCALE
  5
130
102
{ACAD_REACTORS
330
120
102
}
330
120
100
AcDbScale
 70
     0
300
10:1
140
10.0
141
1.0
290
     0
  0
SCALE
  5
131
102
{ACAD_REACTORS
330
120
102
}
330
120
100
AcDbScale
 70
     0
300
100:1
140
100.0
141
1.0
290
     0
  0
TABLESTYLE
  5
90
102
{ACAD_XDICTIONARY
360
14C
102
}
102
{ACAD_REACTORS
330
8F
102
}
330
8F
100
AcDbTableStyle
  3
Standard
 70
     0
 71
     0
 40
1.5
 41
1.5
280
     0
281
     0
  7
STANDARD
140
4.5
170
     2
 62
     0
 63
     7
283
     0
274
    -2
284
     1
 64
     0
275
    -2
285
     1
 65
     0
276
    -2
286
     1
 66
     0
277
    -2
287
     1
 67
     0
278
    -2
288
     1
 68
     0
279
    -2
289
     1
 69
     0
  7
STANDARD
140
6.0
170
     5
 62
     0
 63
     7
283
     0
274
    -2
284
     1
 64
     0
275
    -2
285
     1
 65
     0
276
    -2
286
     1
 66
     0
277
    -2
287
     1
 67
     0
278
    -2
288
     1
 68
     0
279
    -2
289
     1
 69
     0
  7
STANDARD
140
4.5
170
     5
 62
     0
 63
     7
283
     0
274
    -2
284
     1
 64
     0
275
    -2
285
     1
 65
     0
276
    -2
286
     1
 66
     0
277
    -2
287
     1
 67
     0
278
    -2
288
     1
 68
     0
279
    -2
289
     1
 69
     0
  0
VISUALSTYLE
  5
115
102
{ACAD_REACTORS
330
10F
102
}
330
10F
100
AcDbVisualStyle
  2
2dWireframe
 70
     4
 71
     0
 72
     2
 73
     0
 90
        0
 40
-0.6
 41
-30.0
 62
     5
 63
     7
 74
     1
 91
        4
 64
     7
 65
   257
 75
     1
175
     1
 42
1.0
 92
        0
 66
   257
 43
1.0
 76
     1
 77
     6
 78
     2
 67
     7
 79
     5
170
     0
171
     0
290
     0
174
     0
 93
        1
 44
0.0
173
     0
291
     0
 45
0.0
1001
ACAD
1000
AcDbSavedByObjectVersion
1070
     0
  0
VISUALSTYLE
  5
117
102
{ACAD_REACTORS
330
10F
102
}
330
10F
100
AcDbVisualStyle
  2
3D Hidden
 70
     6
 71
     1
 72
     2
 73
     2
 90
        0
 40
-0.6
 41
-30.0
 62
     5
 63
     7
 74
     2
 91
        2
 64
     7
 65
   257
 75
     2
175
     1
 42
40.0
 92
        0
 66
   257
 43
1.0
 76
     1
 77
     6
 78
     2
 67
     7
 79
     3
170
     0
171
     0
290
     0
174
     0
 93
        1
 44
0.0
173
     0
291
     0
 45
0.0
1001
ACAD
1000
AcDbSavedByObjectVersion
1070
     0
  0
VISUALSTYLE
  5
116
102
{ACAD_REACTORS
330
10F
102
}
330
10F
100
AcDbVisualStyle
  2
3dWireframe
 70
     5
 71
     0
 72
     2
 73
     0
 90
        0
 40
-0.6
 41
-30.0
 62
     5
 63
     7
 74
     1
 91
        4
 64
     7
 65
   257
 75
     1
175
     1
 42
1.0
 92
        0
 66
   257
 43
1.0
 76
     1
 77
     6
 78
     2
 67
     7
 79
     5
170
     0
171
     0
290
     0
174
     0
 93
        1
 44
0.0
173
     0
291
     0
 45
0.0
1001
ACAD
1000
AcDbSavedByObjectVersion
1070
     0
  0
VISUALSTYLE
  5
114
102
{ACAD_REACTORS
330
10F
102
}
330
10F
100
AcDbVisualStyle
  2
Basic
 70
     7
 71
     1
 72
     0
 73
     1
 90
        0
 40
-0.6
 41
-30.0
 62
     5
 63
     7
 74
     0
 91
        4
 64
     7
 65
   257
 75
     1
175
     1
 42
1.0
 92
        8
 66
     7
 43
1.0
 76
     1
 77
     6
 78
     2
 67
     7
 79
     5
170
     0
171
     0
290
     0
174
     0
 93
        1
 44
0.0
173
     0
291
     1
 45
0.0
1001
ACAD
1000
AcDbSavedByObjectVersion
1070
     0
  0
VISUALSTYLE
  5
11B
102
{ACAD_REACTORS
330
10F
102
}
330
10F
100
AcDbVisualStyle
  2
Brighten
 70
    12
 71
     2
 72
     2
 73
     0
 90
        0
 40
-0.6
 41
-30.0
 62
     5
 63
     7
 74
     1
 91
        4
 64
     7
 65
   257
 75
     1
175
     1
 42
1.0
 92
        8
 66
     7
 43
1.0
 76
     1
 77
     6
 78
     2
 67
     7
 79
     5
170
     0
171
     0
290
     0
174
     0
 93
        1
 44
50.0
173
     0
291
     1
 45
0.0
1001
ACAD
1000
AcDbSavedByObjectVersion
1070
     0
  0
VISUALSTYLE
  5
11F
102
{ACAD_REACTORS
330
10F
102
}
330
10F
100
AcDbVisualStyle
  2
ColorChange
 70
    16
 71
     2
 72
     2
 73
     3
 90
        0
 40
-0.6
 41
-30.0
 62
     5
 63
     8
 74
     1
 91
        4
 64
     7
 65
   257
 75
     1
175
     1
 42
1.0
 92
        8
 66
     8
 43
1.0
 76
     1
 77
     6
 78
     2
 67
     7
 79
     5
170
     0
171
     0
290
     0
174
     0
 93
        1
 44
0.0
173
     0
291
     1
 45
0.0
1001
ACAD
1000
AcDbSavedByObjectVersion
1070
     0
  0
VISUALSTYLE
  5
118
102
{ACAD_REACTORS
330
10F
102
}
330
10F
100
AcDbVisualStyle
  2
Conceptual
 70
     9
 71
     3
 72
     2
 73
     0
 90
        0
 40
-0.6
 41
-30.0
 62
     5
 63
     7
 74
     2
 91
        2
 64
     7
 65
   257
 75
     1
175
     1
 42
40.0
 92
        8
 66
     7
 43
1.0
 76
     1
 77
     6
 78
     2
 67
     7
 79
     3
170
     0
171
     0
290
     0
174
     0
 93
        1
 44
0.0
173
     0
291
     0
 45
0.0
1001
ACAD
1000
AcDbSavedByObjectVersion
1070
     0
  0
VISUALSTYLE
  5
11A
102
{ACAD_REACTORS
330
10F
102
}
330
10F
100
AcDbVisualStyle
  2
Dim
 70
    11
 71
     2
 72
     2
 73
     0
 90
        0
 40
-0.6
 41
-30.0
 62
     5
 63
     7
 74
     1
 91
        4
 64
     7
 65
   257
 75
     1
175
     1
 42
1.0
 92
        8
 66
     7
 43
1.0
 76
     1
 77
     6
 78
     2
 67
     7
 79
     5
170
     0
171
     0
290
     0
174
     0
 93
        1
 44
-50.0
173
     0
291
     1
 45
0.0
1001
ACAD
1000
AcDbSavedByObjectVersion
1070
     0
  0
VISUALSTYLE
  5
11E
102
{ACAD_REACTORS
330
10F
102
}
330
10F
100
AcDbVisualStyle
  2
Facepattern
 70
    15
 71
     2
 72
     2
 73
     0
 90
        0
 40
-0.6
 41
-30.0
 62
     5
 63
     7
 74
     1
 91
        4
 64
     7
 65
   257
 75
     1
175
     1
 42
1.0
 92
        8
 66
     7
 43
1.0
 76
     1
 77
     6
 78
     2
 67
     7
 79
     5
170
     0
171
     0
290
     0
174
     0
 93
        1
 44
0.0
173
     0
291
     1
 45
0.0
1001
ACAD
1000
AcDbSavedByObjectVersion
1070
     0
  0
VISUALSTYLE
  5
110
102
{ACAD_REACTORS
330
10F
102
}
330
10F
100
AcDbVisualStyle
  2
Flat
 70
     0
 71
     2
 72
     1
 73
     1
 90
        2
 40
-0.6
 41
30.0
 62
     5
 63
     7
 74
     0
 91
        4
 64
     7
 65
   257
 75
     1
175
     1
 42
1.0
 92
        8
 66
     7
 43
1.0
 76
     1
 77
     6
 78
     2
 67
     7
 79
     5
170
     0
171
     0
290
     0
174
     0
 93
       13
 44
0.0
173
     0
291
     1
 45
0.0
1001
ACAD
1000
AcDbSavedByObjectVersion
1070
     0
  0
VISUALSTYLE
  5
111
102
{ACAD_REACTORS
330
10F
102
}
330
10F
100
AcDbVisualStyle
  2
FlatWithEdges
 70
     1
 71
     2
 72
     1
 73
     1
 90
        2
 40
-0.6
 41
30.0
 62
     5
 63
     7
 74
     1
 91
        4
 64
     7
 65
   257
 75
     1
175
     1
 42
1.0
 92
        0
 66
   257
 43
1.0
 76
     1
 77
     6
 78
     2
 67
     7
 79
     5
170
     0
171
     0
290
     0
174
     0
 93
       13
 44
0.0
173
     0
291
     1
 45
0.0
1001
ACAD
1000
AcDbSavedByObjectVersion
1070
     0
  0
VISUALSTYLE
  5
112
102
{ACAD_REACTORS
330
10F
102
}
330
10F
100
AcDbVisualStyle
  2
Gouraud
 70
     2
 71
     2
 72
     2
 73
     1
 90
        2
 40
-0.6
 41
30.0
 62
     5
 63
     7
 74
     0
 91
        4
 64
     7
 65
   257
 75
     1
175
     1
 42
1.0
 92
        0
 66
     7
 43
1.0
 76
     1
 77
     6
 78
     2
 67
     7
 79
     5
170
     0
171
     0
290
     0
174
     0
 93
       13
 44
0.0
173
     0
291
     1
 45
0.0
1001
ACAD
1000
AcDbSavedByObjectVersion
1070
     0
  0
VISUALSTYLE
  5
113
102
{ACAD_REACTORS
330
10F
102
}
330
10F
100
AcDbVisualStyle
  2
GouraudWithEdges
 70
     3
 71
     2
 72
     2
 73
     1
 90
        2
 40
-0.6
 41
30.0
 62
     5
 63
     7
 74
     1
 91
        4
 64
     7
 65
   257
 75
     1
175
     1
 42
1.0
 92
        0
 66
   257
 43
1.0
 76
     1
 77
     6
 78
     2
 67
     7
 79
     5
170
     0
171
     0
290
     0
174
     0
 93
       13
 44
0.0
173
     0
291
     1
 45
0.0
1001
ACAD
1000
AcDbSavedByObjectVersion
1070
     0
  0
VISUALSTYLE
  5
11D
102
{ACAD_REACTORS
330
10F
102
}
330
10F
100
AcDbVisualStyle
  2
Linepattern
 70
    14
 71
     2
 72
     2
 73
     0
 90
        0
 40
-0.6
 41
-30.0
 62
     5
 63
     7
 74
     1
 91
        4
 64
     7
 65
   257
 75
     7
175
     7
 42
1.0
 92
        8
 66
     7
 43
1.0
 76
     1
 77
     6
 78
     2
 67
     7
 79
     5
170
     0
171
     0
290
     0
174
     0
 93
        1
 44
0.0
173
     0
291
     1
 45
0.0
1001
ACAD
1000
AcDbSavedByObjectVersion
1070
     0
  0
VISUALSTYLE
  5
119
102
{ACAD_REACTORS
330
10F
102
}
330
10F
100
AcDbVisualStyle
  2
Realistic
 70
     8
 71
     2
 72
     2
 73
     0
 90
        0
 40
-0.6
 41
-30.0
 62
     5
 63
     7
 74
     1
 91
        0
 64
     7
 65
   257
 75
     1
175
     1
 42
1.0
 92
        8
 66
     8
 43
1.0
 76
     1
 77
     6
 78
     2
 67
     7
 79
     5
170
     0
171
     0
290
     0
174
     0
 93
       13
 44
0.0
173
     0
291
     0
 45
0.0
1001
ACAD
1000
AcDbSavedByObjectVersion
1070
     0
  0
VISUALSTYLE
  5
11C
102
{ACAD_REACTORS
330
10F
102
}
330
10F
100
AcDbVisualStyle
  2
Thicken
 70
    13
 71
     2
 72
     2
 73
     0
 90
        0
 40
-0.6
 41
-30.0
 62
     5
 63
     7
 74
     1
 91
        4
 64
     7
 65
   257
 75
     1
175
     1
 42
1.0
 92
       12
 66
     7
 43
1.0
 76
     1
 77
     6
 78
     2
 67
     7
 79
     5
170
     0
171
     0
290
     0
174
     0
 93
        1
 44
0.0
173
     0
291
     1
 45
0.0
1001
ACAD
1000
AcDbSavedByObjectVersion
1070
     0
  0
DICTIONARYVAR
  5
151
102
{ACAD_REACTORS
330
55
102
}
330
55
100
DictionaryVariables
280
     0
  1
1:1
  0
DICTIONARYVAR
  5
14F
102
{ACAD_REACTORS
330
55
102
}
330
55
100
DictionaryVariables
280
     0
  1
STANDARD
  0
DICTIONARYVAR
  5
D0
102
{ACAD_REACTORS
330
55
102
}
330
55
100
DictionaryVariables
280
     0
  1
STANDARD
  0
DICTIONARYVAR
  5
56
102
{ACAD_REACTORS
330
55
102
}
330
55
100
DictionaryVariables
280
     0
  1
1
  0
DICTIONARYVAR
  5
16C
102
{ACAD_REACTORS
330
55
102
}
330
55
100
DictionaryVariables
280
     0
  1
0
  0
DICTIONARYVAR
  5
5BC
102
{ACAD_REACTORS
330
55
102
}
330
55
100
DictionaryVariables
280
     0
  1
0
  0
DICTIONARYVAR
  5
153
102
{ACAD_REACTORS
330
55
102
}
330
55
100
DictionaryVariables
280
     0
  1
1
  0
DICTIONARYVAR
  5
154
102
{ACAD_REACTORS
330
55
102
}
330
55
100
DictionaryVariables
280
     0
  1
15
  0
DICTIONARYVAR
  5
152
102
{ACAD_REACTORS
330
55
102
}
330
55
100
DictionaryVariables
280
     0
  1
0
  0
DICTIONARYVAR
  5
150
102
{ACAD_REACTORS
330
55
102
}
330
55
100
DictionaryVariables
280
     0
  1
0
  0
DICTIONARYVAR
  5
5BB
102
{ACAD_REACTORS
330
55
102
}
330
55
100
DictionaryVariables
280
     0
  1
97
  0
XRECORD
  5
6C
102
{ACAD_REACTORS
330
6B
102
}
330
6B
100
AcDbXrecord
280
     1
 91
        1
  0
ACDBQSCATEGORY
  5
163
102
{ACAD_REACTORS
330
162
102
}
330
162
100
AcQsCategory
 70
     1
300
DEFAULT
290
     1
291
     1
 90
        0
  0
XRECORD
  5
ED
102
{ACAD_REACTORS
330
EB
102
}
330
EB
100
AcDbXrecord
280
     1
  9
X6768
  0
XRECORD
  5
EC
102
{ACAD_REACTORS
330
EB
102
}
330
EB
100
AcDbXrecord
280
     1
  2
TOP
  3
P-6853
280
     1
310
6465736372697A696F6E6500544F5000444154410031392F31322F30360000
 10
0.0
 20
0.0
 30
0.0
  0
XRECORD
  5
95
102
{ACAD_REACTORS
330
94
102
}
330
94
100
AcDbXrecord
280
     1
 90
      202
 91
      144
  0
DICTIONARY
  5
5C1
330
48
100
AcDbDictionary
280
     1
281
     1
  3
ACAD_XREC_ROUNDTRIP
360
5C2
  0
DICTIONARY
  5
5BF
330
47
100
AcDbDictionary
280
     1
281
     1
  3
ACAD_XREC_ROUNDTRIP
360
5C0
  0
DICTIONARY
  5
100
330
FF
100
AcDbDictionary
280
     1
281
     1
  3
ACAD_XREC_ROUNDTRIP
360
5C5
  3
BUMPTILE
360
102
  3
DIFFUSETILE
360
101
  3
OPACITYTILE
360
105
  3
REFLECTIONTILE
360
104
  3
REFRACTIONTILE
360
106
  3
SPECULARTILE
360
103
  0
DICTIONARY
  5
F8
330
F7
100
AcDbDictionary
280
     1
281
     1
  3
ACAD_XREC_ROUNDTRIP
360
5C4
  3
BUMPTILE
360
FA
  3
DIFFUSETILE
360
F9
  3
OPACITYTILE
360
FD
  3
REFLECTIONTILE
360
FC
  3
REFRACTIONTILE
360
FE
  3
SPECULARTILE
360
FB
  0
DICTIONARY
  5
108
330
107
100
AcDbDictionary
280
     1
281
     1
  3
ACAD_XREC_ROUNDTRIP
360
5C6
  3
BUMPTILE
360
10A
  3
DIFFUSETILE
360
109
  3
OPACITYTILE
360
10D
  3
REFLECTIONTILE
360
10C
  3
REFRACTIONTILE
360
10E
  3
SPECULARTILE
360
10B
  0
DICTIONARY
  5
14C
330
90
100
AcDbDictionary
280
     1
281
     1
  3
ACAD_ROUNDTRIP_2008_TABLESTYLE_CELLSTYLEMAP
360
5BD
  3
ACAD_XREC_ROUNDTRIP
360
5C3
  0
XRECORD
  5
5C2
102
{ACAD_REACTORS
330
5C1
102
}
330
5C1
100
AcDbXrecord
280
     1
102
SHADEPLOT
 70
     0
102
SHADEPLOTRESLEVEL
 70
     2
102
SHADEPLOTCUSTOMDPI
 70
   300
  0
XRECORD
  5
5C0
102
{ACAD_REACTORS
330
5BF
102
}
330
5BF
100
AcDbXrecord
280
     1
102
SHADEPLOT
 70
     0
102
SHADEPLOTRESLEVEL
 70
     2
102
SHADEPLOTCUSTOMDPI
 70
   300
  0
XRECORD
  5
5C5
102
{ACAD_REACTORS
330
100
102
}
330
100
100
AcDbXrecord
280
     1
102
MATERIAL
148
0.0
149
0.0
149
0.0
 93
        0
 94
      127
282
     0
 72
     0
 77
     0
171
     0
175
     0
179
     0
273
     0
  0
XRECORD
  5
102
102
{ACAD_REACTORS
330
100
102
}
330
100
100
AcDbXrecord
280
     1
270
     1
271
     1
  0
XRECORD
  5
101
102
{ACAD_REACTORS
330
100
102
}
330
100
100
AcDbXrecord
280
     1
270
     1
271
     1
  0
XRECORD
  5
105
102
{ACAD_REACTORS
330
100
102
}
330
100
100
AcDbXrecord
280
     1
270
     1
271
     1
  0
XRECORD
  5
104
102
{ACAD_REACTORS
330
100
102
}
330
100
100
AcDbXrecord
280
     1
270
     1
271
     1
  0
XRECORD
  5
106
102
{ACAD_REACTORS
330
100
102
}
330
100
100
AcDbXrecord
280
     1
270
     1
271
     1
  0
XRECORD
  5
103
102
{ACAD_REACTORS
330
100
102
}
330
100
100
AcDbXrecord
280
     1
270
     1
271
     1
  0
XRECORD
  5
5C4
102
{ACAD_REACTORS
330
F8
102
}
330
F8
100
AcDbXrecord
280
     1
102
MATERIAL
148
0.0
149
0.0
149
0.0
 93
        0
 94
      127
282
     0
 72
     0
 77
     0
171
     0
175
     0
179
     0
273
     0
  0
XRECORD
  5
FA
102
{ACAD_REACTORS
330
F8
102
}
330
F8
100
AcDbXrecord
280
     1
270
     1
271
     1
  0
XRECORD
  5
F9
102
{ACAD_REACTORS
330
F8
102
}
330
F8
100
AcDbXrecord
280
     1
270
     1
271
     1
  0
XRECORD
  5
FD
102
{ACAD_REACTORS
330
F8
102
}
330
F8
100
AcDbXrecord
280
     1
270
     1
271
     1
  0
XRECORD
  5
FC
102
{ACAD_REACTORS
330
F8
102
}
330
F8
100
AcDbXrecord
280
     1
270
     1
271
     1
  0
XRECORD
  5
FE
102
{ACAD_REACTORS
330
F8
102
}
330
F8
100
AcDbXrecord
280
     1
270
     1
271
     1
  0
XRECORD
  5
FB
102
{ACAD_REACTORS
330
F8
102
}
330
F8
100
AcDbXrecord
280
     1
270
     1
271
     1
  0
XRECORD
  5
5C6
102
{ACAD_REACTORS
330
108
102
}
330
108
100
AcDbXrecord
280
     1
102
MATERIAL
148
0.0
149
0.0
149
0.0
 93
        0
 94
      127
282
     0
 72
     0
 77
     0
171
     0
175
     0
179
     0
273
     0
  0
XRECORD
  5
10A
102
{ACAD_REACTORS
330
108
102
}
330
108
100
AcDbXrecord
280
     1
270
     1
271
     1
  0
XRECORD
  5
109
102
{ACAD_REACTORS
330
108
102
}
330
108
100
AcDbXrecord
280
     1
270
     1
271
     1
  0
XRECORD
  5
10D
102
{ACAD_REACTORS
330
108
102
}
330
108
100
AcDbXrecord
280
     1
270
     1
271
     1
  0
XRECORD
  5
10C
102
{ACAD_REACTORS
330
108
102
}
330
108
100
AcDbXrecord
280
     1
270
     1
271
     1
  0
XRECORD
  5
10E
102
{ACAD_REACTORS
330
108
102
}
330
108
100
AcDbXrecord
280
     1
270
     1
271
     1
  0
XRECORD
  5
10B
102
{ACAD_REACTORS
330
108
102
}
330
108
100
AcDbXrecord
280
     1
270
     1
271
     1
  0
CELLSTYLEMAP
  5
5BD
102
{ACAD_REACTORS
330
14C
102
}
330
14C
100
AcDbCellStyleMap
 90
        3
300
CELLSTYLE
  1
TABLEFORMAT_BEGIN
 90
        5
170
     1
 91
        0
 92
    32768
 62
   257
 93
        1
300
CONTENTFORMAT
  1
CONTENTFORMAT_BEGIN
 90
        0
 91
        0
 92
        4
 93
        0
300

 40
0.0
140
1.0
 94
        5
 62
     0
340
C
144
6.0
309
CONTENTFORMAT_END
171
     1
301
MARGIN
  1
CELLMARGIN_BEGIN
 40
1.5
 40
1.5
 40
1.5
 40
1.5
 40
0.18
 40
0.18
309
CELLMARGIN_END
 94
        6
 95
        1
302
GRIDFORMAT
  1
GRIDFORMAT_BEGIN
 90
        0
 91
        1
 62
     0
 92
       -2
340
0
 93
        0
 40
0.045
309
GRIDFORMAT_END
 95
        2
302
GRIDFORMAT
  1
GRIDFORMAT_BEGIN
 90
        0
 91
        1
 62
     0
 92
       -2
340
0
 93
        0
 40
0.045
309
GRIDFORMAT_END
 95
        4
302
GRIDFORMAT
  1
GRIDFORMAT_BEGIN
 90
        0
 91
        1
 62
     0
 92
       -2
340
0
 93
        0
 40
0.045
309
GRIDFORMAT_END
 95
        8
302
GRIDFORMAT
  1
GRIDFORMAT_BEGIN
 90
        0
 91
        1
 62
     0
 92
       -2
340
0
 93
        0
 40
0.045
309
GRIDFORMAT_END
 95
       16
302
GRIDFORMAT
  1
GRIDFORMAT_BEGIN
 90
        0
 91
        1
 62
     0
 92
       -2
340
0
 93
        0
 40
0.045
309
GRIDFORMAT_END
 95
       32
302
GRIDFORMAT
  1
GRIDFORMAT_BEGIN
 90
        0
 91
        1
 62
     0
 92
       -2
340
0
 93
        0
 40
0.045
309
GRIDFORMAT_END
309
TABLEFORMAT_END
  1
CELLSTYLE_BEGIN
 90
        1
 91
        1
300
_TITLE
309
CELLSTYLE_END
300
CELLSTYLE
  1
TABLEFORMAT_BEGIN
 90
        5
170
     1
 91
        0
 92
        0
 62
   257
 93
        1
300
CONTENTFORMAT
  1
CONTENTFORMAT_BEGIN
 90
        0
 91
        0
 92
        4
 93
        0
300

 40
0.0
140
1.0
 94
        5
 62
     0
340
C
144
4.5
309
CONTENTFORMAT_END
171
     1
301
MARGIN
  1
CELLMARGIN_BEGIN
 40
1.5
 40
1.5
 40
1.5
 40
1.5
 40
0.18
 40
0.18
309
CELLMARGIN_END
 94
        6
 95
        1
302
GRIDFORMAT
  1
GRIDFORMAT_BEGIN
 90
        0
 91
        1
 62
     0
 92
       -2
340
0
 93
        0
 40
0.045
309
GRIDFORMAT_END
 95
        2
302
GRIDFORMAT
  1
GRIDFORMAT_BEGIN
 90
        0
 91
        1
 62
     0
 92
       -2
340
0
 93
        0
 40
0.045
309
GRIDFORMAT_END
 95
        4
302
GRIDFORMAT
  1
GRIDFORMAT_BEGIN
 90
        0
 91
        1
 62
     0
 92
       -2
340
0
 93
        0
 40
0.045
309
GRIDFORMAT_END
 95
        8
302
GRIDFORMAT
  1
GRIDFORMAT_BEGIN
 90
        0
 91
        1
 62
     0
 92
       -2
340
0
 93
        0
 40
0.045
309
GRIDFORMAT_END
 95
       16
302
GRIDFORMAT
  1
GRIDFORMAT_BEGIN
 90
        0
 91
        1
 62
     0
 92
       -2
340
0
 93
        0
 40
0.045
309
GRIDFORMAT_END
 95
       32
302
GRIDFORMAT
  1
GRIDFORMAT_BEGIN
 90
        0
 91
        1
 62
     0
 92
       -2
340
0
 93
        0
 40
0.045
309
GRIDFORMAT_END
309
TABLEFORMAT_END
  1
CELLSTYLE_BEGIN
 90
        2
 91
        1
300
_HEADER
309
CELLSTYLE_END
300
CELLSTYLE
  1
TABLEFORMAT_BEGIN
 90
        5
170
     1
 91
        0
 92
        0
 62
   257
 93
        1
300
CONTENTFORMAT
  1
CONTENTFORMAT_BEGIN
 90
        0
 91
        0
 92
        4
 93
        0
300

 40
0.0
140
1.0
 94
        2
 62
     0
340
C
144
4.5
309
CONTENTFORMAT_END
171
     1
301
MARGIN
  1
CELLMARGIN_BEGIN
 40
1.5
 40
1.5
 40
1.5
 40
1.5
 40
0.18
 40
0.18
309
CELLMARGIN_END
 94
        6
 95
        1
302
GRIDFORMAT
  1
GRIDFORMAT_BEGIN
 90
        0
 91
        1
 62
     0
 92
       -2
340
0
 93
        0
 40
0.045
309
GRIDFORMAT_END
 95
        2
302
GRIDFORMAT
  1
GRIDFORMAT_BEGIN
 90
        0
 91
        1
 62
     0
 92
       -2
340
0
 93
        0
 40
0.045
309
GRIDFORMAT_END
 95
        4
302
GRIDFORMAT
  1
GRIDFORMAT_BEGIN
 90
        0
 91
        1
 62
     0
 92
       -2
340
0
 93
        0
 40
0.045
309
GRIDFORMAT_END
 95
        8
302
GRIDFORMAT
  1
GRIDFORMAT_BEGIN
 90
        0
 91
        1
 62
     0
 92
       -2
340
0
 93
        0
 40
0.045
309
GRIDFORMAT_END
 95
       16
302
GRIDFORMAT
  1
GRIDFORMAT_BEGIN
 90
        0
 91
        1
 62
     0
 92
       -2
340
0
 93
        0
 40
0.045
309
GRIDFORMAT_END
 95
       32
302
GRIDFORMAT
  1
GRIDFORMAT_BEGIN
 90
        0
 91
        1
 62
     0
 92
       -2
340
0
 93
        0
 40
0.045
309
GRIDFORMAT_END
309
TABLEFORMAT_END
  1
CELLSTYLE_BEGIN
 90
        3
 91
        2
300
_DATA
309
CELLSTYLE_END
  0
XRECORD
  5
5C3
102
{ACAD_REACTORS
330
14C
102
}
330
14C
100
AcDbXrecord
280
     1
102
ACAD_ROUNDTRIP_PRE2007_TABLESTYLE
 90
        4
 91
        0
  1

 92
        4
 93
        0
  2

 94
        4
 95
        0
  3

  0
ENDSEC
  0
EOF
