  0
SECTION
  2
HEADER
  9
$ACADVER
  1
AC1009
  9
$INSBASE
 10
0
 20
0
 30
0
  9
$EXTMIN
 10
0
 20
0
  9
$EXTMAX
 10
420
 20
297
  9
$LIMMIN
 10
0
 20
0
  9
$LIMMAX
 10
420
 20
297
  9
$LTSCALE
 40
1
  0
ENDSEC
  0
SECTION
  2
TABLES
  0
TABLE
  2
LTYPE
 70
     9
  0
LTYPE
  2
CONTINUOUS
 70
    64
  3
実線
 72
    65
 73
     0
 40
0.0
  0
LTYPE
  2
DASHED1
 70
    64
  3
--  --  --  --  --  --  --  --  
 72
    65
 73
     2
 40
2.5
 49
1.25
 49
-1.25
  0
LTYPE
  2
DASHED2
 70
    64
  3
----    ----    ----    ----    
 72
    65
 73
     2
 40
5.0
 49
2.5
 49
-2.5
  0
LTYPE
  2
DASHED3
 70
    64
  3
------  ------  ------  ------  
 72
    65
 73
     2
 40
5.0
 49
3.75
 49
-1.25
  0
LTYPE
  2
CENTER1
 70
    64
  3
----- - ----- - ----- - ----- - 
 72
    65
 73
     4
 40
10.0
 49
6.25
 49
-1.25
 49
1.25
 49
-1.25
  0
LTYPE
  2
CENTER2
 70
    64
  3
----------  --  ----------  --  
 72
    65
 73
     4
 40
20.0
 49
12.5
 49
-2.5
 49
2.5
 49
-2.5
  0
LTYPE
  2
PHANTOM1
 70
    64
  3
--- - - --- - - --- - - --- - - 
 72
    65
 73
     6
 40
10.0
 49
3.25
 49
-1.25
 49
1.25
 49
-1.25
 49
1.25
 49
-1.25
  0
LTYPE
  2
PHANTOM2
 70
    64
  3
--------  -  -  --------  -  -  
 72
    65
 73
     6
 40
20.0
 49
10.0
 49
-2.5
 49
1.25
 49
-2.5
 49
1.25
 49
-2.5
  0
LTYPE
  2
DOT
 70
    64
  3
-   -   -   -   -   -   -   -   
 72
    65
 73
     2
 40
2.5
 49
0.625
 49
-1.875
  0
LTYPE
  2
DUMMY
 70
    64
  3
ダミー
 72
    65
 73
     0
 40
0.0
  0
LTYPE
  2
RAND1
 70
    64
  3
ランダム線1
 72
    65
 73
     4
 40
10.0
 49
1.0
 49
-2.0
 49
3.0
 49
-4.0
  0
LTYPE
  2
RAND2
 70
    64
  3
ランダム線2
 72
    65
 73
     4
 40
14.0
 49
2.0
 49
-3.0
 49
4.0
 49
-5.0
  0
LTYPE
  2
RAND3
 70
    64
  3
ランダム線3
 72
    65
 73
     4
 40
18.0
 49
3.0
 49
-4.0
 49
5.0
 49
-6.0
  0
LTYPE
  2
RAND4
 70
    64
  3
ランダム線4
 72
    65
 73
     4
 40
22.0
 49
4.0
 49
-5.0
 49
6.0
 49
-7.0
  0
LTYPE
  2
RAND5
 70
    64
  3
ランダム線5
 72
    65
 73
     4
 40
26.0
 49
5.0
 49
-6.0
 49
7.0
 49
-8.0
  0
LTYPE
  2
LONG1
 70
    64
  3
----------  --  ----------  --  
 72
    65
 73
     4
 40
40.0
 49
32.5
 49
-2.5
 49
2.5
 49
-2.5
  0
LTYPE
  2
LONG2
 70
    64
  3
--------  -  -  --------  -  -  
 72
    65
 73
     6
 40
40.0
 49
30.0
 49
-2.5
 49
1.25
 49
-2.5
 49
1.25
 49
-2.5
  0
LTYPE
  2
LONG3
 70
    64
  3
+++++++++++++++..+++++++++++++++
 72
    65
 73
     2
 40
40.0
 49
37.5
 49
-2.5
  0
LTYPE
  2
LONG4
 70
    64
  3
+++++++++++++++..+++++++++++++++
 72
    65
 73
     2
 40
80.0
 49
75.0
 49
-5.0
  0
LTYPE
  2
LONG5
 70
    64
  3
----------  --  ----------  --  
 72
    65
 73
     4
 40
60.0
 49
37.5
 49
-7.5
 49
7.5
 49
-7.5
  0
LTYPE
  2
dashed
 70
   64
  3
-------   -------------   ------
 72
   65
 73
    2
 40
7.5
 49
6
 49
-1.5
  0
LTYPE
  2
dashed_spaced
 70
   64
  3
----        --------        ----
 72
   65
 73
    2
 40
12
 49
6
 49
-6
  0
LTYPE
  2
long_dashed_dotted
 70
   64
  3
------------- --- --------------
 72
   65
 73
    4
 40
15.25
 49
12
 49
-1.5
 49
0.25
 49
-1.5
  0
LTYPE
  2
long_dashed_double-dotted
 70
   64
  3
----------- --- --- ------------
 72
   65
 73
    6
 40
17
 49
12
 49
-1.5
 49
0.25
 49
-1.5
 49
0.25
 49
-1.5
  0
LTYPE
  2
long_dashed_triplicate-dotted
 70
   64
  3
--------- --- --- --- ----------
 72
   65
 73
    8
 40
18.75
 49
12
 49
-1.5
 49
0.25
 49
-1.5
 49
0.25
 49
-1.5
 49
0.25
 49
-1.5
  0
LTYPE
  2
dotted
 70
   64
  3
   -       -       -       -    
 72
   65
 73
    2
 40
1.75
 49
0.25
 49
-1.5
  0
LTYPE
  2
chain
 70
   64
  3
-------------- -- --------------
 72
   65
 73
    4
 40
18.5
 49
12
 49
-1.5
 49
3.5
 49
-1.5
  0
LTYPE
  2
chain_double_dash
 70
   64
  3
------------ -- -- -------------
 72
   65
 73
    6
 40
23.5
 49
12
 49
-1.5
 49
3.5
 49
-1.5
 49
3.5
 49
-1.5
  0
LTYPE
  2
dashed_dotted
 70
   64
  3
-----------     -     ----------
 72
   65
 73
    4
 40
9.25
 49
6
 49
-1.5
 49
0.25
 49
-1.5
  0
LTYPE
  2
double-dashed_dotted
 70
   64
  3
------   -----------   -   -----
 72
   65
 73
    6
 40
16.75
 49
6
 49
-1.5
 49
6
 49
-1.5
 49
0.25
 49
-1.5
  0
LTYPE
  2
dashed_double-dotted
 70
   64
  3
---------    -    -    ---------
 72
   65
 73
    6
 40
11
 49
6
 49
-1.5
 49
0.25
 49
-1.5
 49
0.25
 49
-1.5
  0
LTYPE
  2
double-dashed_double-dotted
 70
   64
  3
-----   ---------   -   -   ----
 72
   65
 73
    8
 40
18.5
 49
6
 49
-1.5
 49
6
 49
-1.5
 49
0.25
 49
-1.5
 49
0.25
 49
-1.5
  0
LTYPE
  2
dashed_triplicate-dotted
 70
   64
  3
-------    -    -    -    ------
 72
   65
 73
    8
 40
12.75
 49
6
 49
-1.5
 49
0.25
 49
-1.5
 49
0.25
 49
-1.5
 49
0.25
 49
-1.5
  0
LTYPE
  2
double-dashed_triplicate-dotted
 70
   64
  3
-----  ---------  -  -  -  -----
 72
   65
 73
   10
 40
20.25
 49
6
 49
-1.5
 49
6
 49
-1.5
 49
0.25
 49
-1.5
 49
0.25
 49
-1.5
 49
0.25
 49
-1.5
  0
LTYPE
  2
undefined
 70
   64
  3
--------------------------------
 72
   65
 73
    0
 40
0
  0
LTYPE
  2
BORDER
 70
   64
  3
----     --------     -     ----
 72
   65
 73
    6
 40
1.76
 49
0.5
 49
-0.25
 49
0.5
 49
-0.25
 49
0.01
 49
-0.25
  0
LTYPE
  2
BORDER2
 70
   64
  3
----     --------     -     ----
 72
   65
 73
    6
 40
0.885
 49
0.25
 49
-0.125
 49
0.25
 49
-0.125
 49
0.01
 49
-0.125
  0
LTYPE
  2
BORDERX2
 70
   64
  3
----     --------     -     ----
 72
   65
 73
    6
 40
3.5099999999999998
 49
1
 49
-0.5
 49
1
 49
-0.5
 49
0.01
 49
-0.5
  0
LTYPE
  2
CENTER
 70
   64
  3
----------    ----    ----------
 72
   65
 73
    4
 40
2
 49
1.25
 49
-0.25
 49
0.25
 49
-0.25
  0
LTYPE
  2
CENTER2_21
 70
   64
  3
----------    ----    ----------
 72
   65
 73
    4
 40
1.125
 49
0.75
 49
-0.125
 49
0.125
 49
-0.125
  0
LTYPE
  2
CENTERX2
 70
   64
  3
----------    ----    ----------
 72
   65
 73
    4
 40
4
 49
2.5
 49
-0.5
 49
0.5
 49
-0.5
  0
LTYPE
  2
DASHDOT
 70
   64
  3
--------        -        -------
 72
   65
 73
    4
 40
1.01
 49
0.5
 49
-0.25
 49
0.01
 49
-0.25
  0
LTYPE
  2
DASHDOT2
 70
   64
  3
--------        -        -------
 72
   65
 73
    4
 40
0.51
 49
0.25
 49
-0.125
 49
0.01
 49
-0.125
  0
LTYPE
  2
DASHDOTX2
 70
   64
  3
--------        -        -------
 72
   65
 73
    4
 40
2.0099999999999998
 49
1
 49
-0.5
 49
0.01
 49
-0.5
  0
LTYPE
  2
DASHED
 70
   64
  3
------     -----------     -----
 72
   65
 73
    2
 40
0.75
 49
0.5
 49
-0.25
  0
LTYPE
  2
DASHED2_27
 70
   64
  3
------     -----------     -----
 72
   65
 73
    2
 40
0.375
 49
0.25
 49
-0.125
  0
LTYPE
  2
DASHEDX2
 70
   64
  3
------     -----------     -----
 72
   65
 73
    2
 40
1.5
 49
1
 49
-0.5
  0
LTYPE
  2
DIVIDE
 70
   64
  3
------      -      -      ------
 72
   65
 73
    6
 40
1.27
 49
0.5
 49
-0.25
 49
0.01
 49
-0.25
 49
0.01
 49
-0.25
  0
LTYPE
  2
DIVIDE2
 70
   64
  3
------      -      -      ------
 72
   65
 73
    6
 40
0.645
 49
0.25
 49
-0.125
 49
0.01
 49
-0.125
 49
0.01
 49
-0.125
  0
LTYPE
  2
DIVIDEX2
 70
   64
  3
------      -      -      ------
 72
   65
 73
    6
 40
2.5199999999999996
 49
1
 49
-0.5
 49
0.01
 49
-0.5
 49
0.01
 49
-0.5
  0
LTYPE
  2
DOT_32
 70
   64
  3
-               -               
 72
   65
 73
    2
 40
0.26
 49
0.01
 49
-0.25
  0
ENDTAB
  0
TABLE
  2
STYLE
  5
3
100
AcDbSymbolTable
 70
     1
  0
STYLE
  5
10
100
AcDbSymbolTableRecord
100
AcDbTextStyleTableRecord
  2
STANDARD
 70
     0
 40
0.0
 41
1.0
 50
0.0
 71
     0
 42
0.2
  3
txt
  4
bigfont.shx
  0
STYLE
  5
26
100
AcDbSymbolTableRecord
100
AcDbTextStyleTableRecord
  2
TATEGAKI
 70
    68
 40
0.0
 41
1.0
 50
0.0
 71
     0
 42
1.0
  3
txt
  4
bigfont.shx
  0
ENDTAB
  0
TABLE
  2
LAYER
 70
    2
  0
LAYER
  2
_0-0_0
 70
   64
 62
    7
  6
CONTINUOUS
  0
LAYER
  2
ADD_LINE
 70
   64
 62
    7
  6
CONTINUOUS
  0
ENDTAB
  0
ENDSEC
  0
SECTION
  2
BLOCKS
  0
ENDSEC
  0
SECTION
  2
ENTITIES
  0
LINE
  8
_0-0_0
  6
CONTINUOUS
 62
    7
 10
195.21217150000001
 20
116
 11
224.78782749999999
 21
116
  0
LINE
  8
_0-0_0
  6
CONTINUOUS
 62
    7
 10
193.9085925
 20
173.844391
 11
209.9999995
 21
173.844391
  0
LINE
  8
_0-0_0
  6
CONTINUOUS
 62
    7
 10
193.9085925
 20
172.23056700000001
 11
209.9999995
 21
172.23056700000001
  0
LINE
  8
_0-0_0
  6
CONTINUOUS
 62
    7
 10
191.16657850000001
 20
156.31237800000002
 11
209.9999995
 21
156.31237800000002
  0
LINE
  8
_0-0_0
  6
CONTINUOUS
 62
    7
 10
191.16657850000001
 20
154.73523799999998
 11
209.9999995
 21
154.73523799999998
  0
LINE
  8
_0-0_0
  6
CONTINUOUS
 62
    7
 10
195.21217150000001
 20
181
 11
209.9999995
 21
181
  0
LINE
  8
_0-0_0
  6
CONTINUOUS
 62
    7
 10
195.21217150000001
 20
179.19935700000002
 11
209.9999995
 21
179.19935700000002
  0
LINE
  8
_0-0_0
  6
CONTINUOUS
 62
    7
 10
193.9085925
 20
123.155607
 11
209.9999995
 21
123.155607
  0
LINE
  8
_0-0_0
  6
CONTINUOUS
 62
    7
 10
193.9085925
 20
124.76943300000001
 11
209.9999995
 21
124.76943300000001
  0
LINE
  8
_0-0_0
  6
CONTINUOUS
 62
    7
 10
191.16657850000001
 20
140.68761900000001
 11
209.9999995
 21
140.68761900000001
  0
LINE
  8
_0-0_0
  6
CONTINUOUS
 62
    7
 10
191.16657850000001
 20
142.26476300000002
 11
209.9999995
 21
142.26476300000002
  0
LINE
  8
_0-0_0
  6
CONTINUOUS
 62
    7
 10
195.21217150000001
 20
116
 11
209.9999995
 21
116
  0
LINE
  8
_0-0_0
  6
CONTINUOUS
 62
    7
 10
195.21217150000001
 20
117.800641
 11
209.9999995
 21
117.800641
  0
ARC
  8
_0-0_0
  6
CONTINUOUS
 62
    7
 10
193.5263305
 20
149.15193200000002
 40
6.0614959999999991
 50
112.911073
 51
186.17427699999999
  0
ARC
  8
_0-0_0
  6
CONTINUOUS
 62
    7
 10
186.21286449999999
 20
131.63905099999999
 40
10.315807
 50
318.24618900000002
 51
61.301132000000003
  0
LINE
  8
_0-0_0
  6
CONTINUOUS
 62
    7
 10
193.9085925
 20
123.155607
 11
193.9085925
 21
124.76943300000001
  0
ARC
  8
_0-0_0
  6
CONTINUOUS
 62
    7
 10
195.42724250000001
 20
120.68914500000001
 40
2.896503
 50
121.62146300000001
 51
265.74176
  0
LINE
  8
_0-0_0
  6
CONTINUOUS
 62
    7
 10
195.21217150000001
 20
116
 11
195.21217150000001
 21
117.800641
  0
ARC
  8
_0-0_0
  6
CONTINUOUS
 62
    7
 10
193.5263305
 20
147.84806900000001
 40
6.0614959999999991
 50
173.82571899999999
 51
247.08892299999999
  0
LINE
  8
_0-0_0
  6
CONTINUOUS
 62
    7
 10
191.16657850000001
 20
140.68761900000001
 11
191.16657850000001
 21
142.26476300000002
  0
ARC
  8
_0-0_0
  6
CONTINUOUS
 62
    7
 10
186.21286449999999
 20
165.36094699999998
 40
10.315807
 50
298.69887100000005
 51
41.753814000000013
  0
LINE
  8
_0-0_0
  6
CONTINUOUS
 62
    7
 10
191.16657850000001
 20
156.31237800000002
 11
191.16657850000001
 21
154.73523799999998
  0
LINE
  8
_0-0_0
  6
CONTINUOUS
 62
    7
 10
193.9085925
 20
173.844391
 11
193.9085925
 21
172.23056700000001
  0
ARC
  8
_0-0_0
  6
CONTINUOUS
 62
    7
 10
195.42724250000001
 20
176.31085300000001
 40
2.896503
 50
94.258250000000018
 51
238.378547
  0
LINE
  8
_0-0_0
  6
CONTINUOUS
 62
    7
 10
195.21217150000001
 20
181
 11
195.21217150000001
 21
179.19935700000002
  0
ARC
  8
_0-0_0
  6
CONTINUOUS
 62
    7
 10
226.4736695
 20
149.15193200000002
 40
6.0614959999999991
 50
353.82571000000002
 51
67.088932
  0
ARC
  8
_0-0_0
  6
CONTINUOUS
 62
    7
 10
233.78713550000001
 20
131.63905099999999
 40
10.315807
 50
118.698866
 51
221.75379799999999
  0
LINE
  8
_0-0_0
  6
CONTINUOUS
 62
    7
 10
226.0914075
 20
123.155607
 11
209.9999995
 21
123.155607
  0
LINE
  8
_0-0_0
  6
CONTINUOUS
 62
    7
 10
226.0914075
 20
124.76943300000001
 11
209.9999995
 21
124.76943300000001
  0
LINE
  8
_0-0_0
  6
CONTINUOUS
 62
    7
 10
224.78782749999999
 20
116
 11
209.9999995
 21
116
  0
LINE
  8
_0-0_0
  6
CONTINUOUS
 62
    7
 10
224.78782749999999
 20
117.800641
 11
209.9999995
 21
117.800641
  0
LINE
  8
_0-0_0
  6
CONTINUOUS
 62
    7
 10
226.0914075
 20
123.155607
 11
226.0914075
 21
124.76943300000001
  0
ARC
  8
_0-0_0
  6
CONTINUOUS
 62
    7
 10
224.5727565
 20
120.68914500000001
 40
2.896503
 50
274.258241
 51
58.378542000000046
  0
LINE
  8
_0-0_0
  6
CONTINUOUS
 62
    7
 10
224.78782749999999
 20
116
 11
224.78782749999999
 21
117.800641
  0
LINE
  8
_0-0_0
  6
CONTINUOUS
 62
    7
 10
228.83342149999999
 20
140.68761900000001
 11
209.9999995
 21
140.68761900000001
  0
LINE
  8
_0-0_0
  6
CONTINUOUS
 62
    7
 10
228.83342149999999
 20
142.26476300000002
 11
209.9999995
 21
142.26476300000002
  0
ARC
  8
_0-0_0
  6
CONTINUOUS
 62
    7
 10
226.4736695
 20
147.84806900000001
 40
6.0614959999999991
 50
292.91107799999997
 51
6.1742780000000304
  0
LINE
  8
_0-0_0
  6
CONTINUOUS
 62
    7
 10
228.83342149999999
 20
140.68761900000001
 11
228.83342149999999
 21
142.26476300000002
  0
ARC
  8
_0-0_0
  6
CONTINUOUS
 62
    7
 10
233.78713550000001
 20
165.36094699999998
 40
10.315807
 50
138.246184
 51
241.30113
  0
LINE
  8
_0-0_0
  6
CONTINUOUS
 62
    7
 10
228.83342149999999
 20
156.31237800000002
 11
209.9999995
 21
156.31237800000002
  0
LINE
  8
_0-0_0
  6
CONTINUOUS
 62
    7
 10
228.83342149999999
 20
154.73523799999998
 11
209.9999995
 21
154.73523799999998
  0
LINE
  8
_0-0_0
  6
CONTINUOUS
 62
    7
 10
228.83342149999999
 20
156.31237800000002
 11
228.83342149999999
 21
154.73523799999998
  0
LINE
  8
_0-0_0
  6
CONTINUOUS
 62
    7
 10
226.0914075
 20
173.844391
 11
209.9999995
 21
173.844391
  0
LINE
  8
_0-0_0
  6
CONTINUOUS
 62
    7
 10
226.0914075
 20
172.23056700000001
 11
209.9999995
 21
172.23056700000001
  0
LINE
  8
_0-0_0
  6
CONTINUOUS
 62
    7
 10
224.78782749999999
 20
181
 11
209.9999995
 21
181
  0
LINE
  8
_0-0_0
  6
CONTINUOUS
 62
    7
 10
224.78782749999999
 20
179.19935700000002
 11
209.9999995
 21
179.19935700000002
  0
LINE
  8
_0-0_0
  6
CONTINUOUS
 62
    7
 10
226.0914075
 20
173.844391
 11
226.0914075
 21
172.23056700000001
  0
ARC
  8
_0-0_0
  6
CONTINUOUS
 62
    7
 10
224.5727565
 20
176.31085300000001
 40
2.896503
 50
301.62145400000003
 51
85.741768999999977
  0
LINE
  8
_0-0_0
  6
CONTINUOUS
 62
    7
 10
224.78782749999999
 20
181
 11
224.78782749999999
 21
179.19935700000002
  0
ENDSEC
  0
EOF
