  0
SECTION
  2
HEADER
  9
$ACADVER
  1
AC1009
  9
$INSBASE
 10
0
 20
0
 30
0
  9
$EXTMIN
 10
0
 20
0
  9
$EXTMAX
 10
297
 20
210
  9
$LIMMIN
 10
0
 20
0
  9
$LIMMAX
 10
297
 20
210
  9
$LTSCALE
 40
1
  0
ENDSEC
  0
SECTION
  2
TABLES
  0
TABLE
  2
LTYPE
 70
     9
  0
LTYPE
  2
CONTINUOUS
 70
    64
  3
実線
 72
    65
 73
     0
 40
0.0
  0
LTYPE
  2
DASHED1
 70
    64
  3
--  --  --  --  --  --  --  --  
 72
    65
 73
     2
 40
2.5
 49
1.25
 49
-1.25
  0
LTYPE
  2
DASHED2
 70
    64
  3
----    ----    ----    ----    
 72
    65
 73
     2
 40
5.0
 49
2.5
 49
-2.5
  0
LTYPE
  2
DASHED3
 70
    64
  3
------  ------  ------  ------  
 72
    65
 73
     2
 40
5.0
 49
3.75
 49
-1.25
  0
LTYPE
  2
CENTER1
 70
    64
  3
----- - ----- - ----- - ----- - 
 72
    65
 73
     4
 40
10.0
 49
6.25
 49
-1.25
 49
1.25
 49
-1.25
  0
LTYPE
  2
CENTER2
 70
    64
  3
----------  --  ----------  --  
 72
    65
 73
     4
 40
20.0
 49
12.5
 49
-2.5
 49
2.5
 49
-2.5
  0
LTYPE
  2
PHANTOM1
 70
    64
  3
--- - - --- - - --- - - --- - - 
 72
    65
 73
     6
 40
10.0
 49
3.25
 49
-1.25
 49
1.25
 49
-1.25
 49
1.25
 49
-1.25
  0
LTYPE
  2
PHANTOM2
 70
    64
  3
--------  -  -  --------  -  -  
 72
    65
 73
     6
 40
20.0
 49
10.0
 49
-2.5
 49
1.25
 49
-2.5
 49
1.25
 49
-2.5
  0
LTYPE
  2
DOT
 70
    64
  3
-   -   -   -   -   -   -   -   
 72
    65
 73
     2
 40
2.5
 49
0.625
 49
-1.875
  0
LTYPE
  2
DUMMY
 70
    64
  3
ダミー
 72
    65
 73
     0
 40
0.0
  0
LTYPE
  2
RAND1
 70
    64
  3
ランダム線1
 72
    65
 73
     4
 40
10.0
 49
1.0
 49
-2.0
 49
3.0
 49
-4.0
  0
LTYPE
  2
RAND2
 70
    64
  3
ランダム線2
 72
    65
 73
     4
 40
14.0
 49
2.0
 49
-3.0
 49
4.0
 49
-5.0
  0
LTYPE
  2
RAND3
 70
    64
  3
ランダム線3
 72
    65
 73
     4
 40
18.0
 49
3.0
 49
-4.0
 49
5.0
 49
-6.0
  0
LTYPE
  2
RAND4
 70
    64
  3
ランダム線4
 72
    65
 73
     4
 40
22.0
 49
4.0
 49
-5.0
 49
6.0
 49
-7.0
  0
LTYPE
  2
RAND5
 70
    64
  3
ランダム線5
 72
    65
 73
     4
 40
26.0
 49
5.0
 49
-6.0
 49
7.0
 49
-8.0
  0
LTYPE
  2
LONG1
 70
    64
  3
----------  --  ----------  --  
 72
    65
 73
     4
 40
40.0
 49
32.5
 49
-2.5
 49
2.5
 49
-2.5
  0
LTYPE
  2
LONG2
 70
    64
  3
--------  -  -  --------  -  -  
 72
    65
 73
     6
 40
40.0
 49
30.0
 49
-2.5
 49
1.25
 49
-2.5
 49
1.25
 49
-2.5
  0
LTYPE
  2
LONG3
 70
    64
  3
+++++++++++++++..+++++++++++++++
 72
    65
 73
     2
 40
40.0
 49
37.5
 49
-2.5
  0
LTYPE
  2
LONG4
 70
    64
  3
+++++++++++++++..+++++++++++++++
 72
    65
 73
     2
 40
80.0
 49
75.0
 49
-5.0
  0
LTYPE
  2
LONG5
 70
    64
  3
----------  --  ----------  --  
 72
    65
 73
     4
 40
60.0
 49
37.5
 49
-7.5
 49
7.5
 49
-7.5
  0
LTYPE
  2
dashed
 70
   64
  3
-------   -------------   ------
 72
   65
 73
    2
 40
7.5
 49
6
 49
-1.5
  0
LTYPE
  2
dashed_spaced
 70
   64
  3
----        --------        ----
 72
   65
 73
    2
 40
12
 49
6
 49
-6
  0
LTYPE
  2
long_dashed_dotted
 70
   64
  3
------------- --- --------------
 72
   65
 73
    4
 40
15.25
 49
12
 49
-1.5
 49
0.25
 49
-1.5
  0
LTYPE
  2
long_dashed_double-dotted
 70
   64
  3
----------- --- --- ------------
 72
   65
 73
    6
 40
17
 49
12
 49
-1.5
 49
0.25
 49
-1.5
 49
0.25
 49
-1.5
  0
LTYPE
  2
long_dashed_triplicate-dotted
 70
   64
  3
--------- --- --- --- ----------
 72
   65
 73
    8
 40
18.75
 49
12
 49
-1.5
 49
0.25
 49
-1.5
 49
0.25
 49
-1.5
 49
0.25
 49
-1.5
  0
LTYPE
  2
dotted
 70
   64
  3
   -       -       -       -    
 72
   65
 73
    2
 40
1.75
 49
0.25
 49
-1.5
  0
LTYPE
  2
chain
 70
   64
  3
-------------- -- --------------
 72
   65
 73
    4
 40
18.5
 49
12
 49
-1.5
 49
3.5
 49
-1.5
  0
LTYPE
  2
chain_double_dash
 70
   64
  3
------------ -- -- -------------
 72
   65
 73
    6
 40
23.5
 49
12
 49
-1.5
 49
3.5
 49
-1.5
 49
3.5
 49
-1.5
  0
LTYPE
  2
dashed_dotted
 70
   64
  3
-----------     -     ----------
 72
   65
 73
    4
 40
9.25
 49
6
 49
-1.5
 49
0.25
 49
-1.5
  0
LTYPE
  2
double-dashed_dotted
 70
   64
  3
------   -----------   -   -----
 72
   65
 73
    6
 40
16.75
 49
6
 49
-1.5
 49
6
 49
-1.5
 49
0.25
 49
-1.5
  0
LTYPE
  2
dashed_double-dotted
 70
   64
  3
---------    -    -    ---------
 72
   65
 73
    6
 40
11
 49
6
 49
-1.5
 49
0.25
 49
-1.5
 49
0.25
 49
-1.5
  0
LTYPE
  2
double-dashed_double-dotted
 70
   64
  3
-----   ---------   -   -   ----
 72
   65
 73
    8
 40
18.5
 49
6
 49
-1.5
 49
6
 49
-1.5
 49
0.25
 49
-1.5
 49
0.25
 49
-1.5
  0
LTYPE
  2
dashed_triplicate-dotted
 70
   64
  3
-------    -    -    -    ------
 72
   65
 73
    8
 40
12.75
 49
6
 49
-1.5
 49
0.25
 49
-1.5
 49
0.25
 49
-1.5
 49
0.25
 49
-1.5
  0
LTYPE
  2
double-dashed_triplicate-dotted
 70
   64
  3
-----  ---------  -  -  -  -----
 72
   65
 73
   10
 40
20.25
 49
6
 49
-1.5
 49
6
 49
-1.5
 49
0.25
 49
-1.5
 49
0.25
 49
-1.5
 49
0.25
 49
-1.5
  0
LTYPE
  2
undefined
 70
   64
  3
--------------------------------
 72
   65
 73
    0
 40
0
  0
LTYPE
  2
BORDER
 70
   64
  3
----     --------     -     ----
 72
   65
 73
    6
 40
1.76
 49
0.5
 49
-0.25
 49
0.5
 49
-0.25
 49
0.01
 49
-0.25
  0
LTYPE
  2
BORDER2
 70
   64
  3
----     --------     -     ----
 72
   65
 73
    6
 40
0.885
 49
0.25
 49
-0.125
 49
0.25
 49
-0.125
 49
0.01
 49
-0.125
  0
LTYPE
  2
BORDERX2
 70
   64
  3
----     --------     -     ----
 72
   65
 73
    6
 40
3.5099999999999998
 49
1
 49
-0.5
 49
1
 49
-0.5
 49
0.01
 49
-0.5
  0
LTYPE
  2
CENTER
 70
   64
  3
----------    ----    ----------
 72
   65
 73
    4
 40
2
 49
1.25
 49
-0.25
 49
0.25
 49
-0.25
  0
LTYPE
  2
CENTER2_21
 70
   64
  3
----------    ----    ----------
 72
   65
 73
    4
 40
1.125
 49
0.75
 49
-0.125
 49
0.125
 49
-0.125
  0
LTYPE
  2
CENTERX2
 70
   64
  3
----------    ----    ----------
 72
   65
 73
    4
 40
4
 49
2.5
 49
-0.5
 49
0.5
 49
-0.5
  0
LTYPE
  2
DASHDOT
 70
   64
  3
--------        -        -------
 72
   65
 73
    4
 40
1.01
 49
0.5
 49
-0.25
 49
0.01
 49
-0.25
  0
LTYPE
  2
DASHDOT2
 70
   64
  3
--------        -        -------
 72
   65
 73
    4
 40
0.51
 49
0.25
 49
-0.125
 49
0.01
 49
-0.125
  0
LTYPE
  2
DASHDOTX2
 70
   64
  3
--------        -        -------
 72
   65
 73
    4
 40
2.0099999999999998
 49
1
 49
-0.5
 49
0.01
 49
-0.5
  0
LTYPE
  2
DASHED
 70
   64
  3
------     -----------     -----
 72
   65
 73
    2
 40
0.75
 49
0.5
 49
-0.25
  0
LTYPE
  2
DASHED2_27
 70
   64
  3
------     -----------     -----
 72
   65
 73
    2
 40
0.375
 49
0.25
 49
-0.125
  0
LTYPE
  2
DASHEDX2
 70
   64
  3
------     -----------     -----
 72
   65
 73
    2
 40
1.5
 49
1
 49
-0.5
  0
LTYPE
  2
DIVIDE
 70
   64
  3
------      -      -      ------
 72
   65
 73
    6
 40
1.27
 49
0.5
 49
-0.25
 49
0.01
 49
-0.25
 49
0.01
 49
-0.25
  0
LTYPE
  2
DIVIDE2
 70
   64
  3
------      -      -      ------
 72
   65
 73
    6
 40
0.645
 49
0.25
 49
-0.125
 49
0.01
 49
-0.125
 49
0.01
 49
-0.125
  0
LTYPE
  2
DIVIDEX2
 70
   64
  3
------      -      -      ------
 72
   65
 73
    6
 40
2.5199999999999996
 49
1
 49
-0.5
 49
0.01
 49
-0.5
 49
0.01
 49
-0.5
  0
LTYPE
  2
DOT_32
 70
   64
  3
-               -               
 72
   65
 73
    2
 40
0.26
 49
0.01
 49
-0.25
  0
ENDTAB
  0
TABLE
  2
STYLE
  5
3
100
AcDbSymbolTable
 70
     1
  0
STYLE
  5
10
100
AcDbSymbolTableRecord
100
AcDbTextStyleTableRecord
  2
STANDARD
 70
     0
 40
0.0
 41
1.0
 50
0.0
 71
     0
 42
0.2
  3
txt
  4
bigfont.shx
  0
STYLE
  5
26
100
AcDbSymbolTableRecord
100
AcDbTextStyleTableRecord
  2
TATEGAKI
 70
    68
 40
0.0
 41
1.0
 50
0.0
 71
     0
 42
1.0
  3
txt
  4
bigfont.shx
  0
ENDTAB
  0
TABLE
  2
LAYER
 70
    2
  0
LAYER
  2
_0-4_P-6853
 70
   64
 62
    7
  6
CONTINUOUS
  0
LAYER
  2
ADD_LINE
 70
   64
 62
    7
  6
CONTINUOUS
  0
ENDTAB
  0
ENDSEC
  0
SECTION
  2
BLOCKS
  0
ENDSEC
  0
SECTION
  2
ENTITIES
  0
LINE
  8
_0-4_P-6853
  6
CONTINUOUS
 62
    7
 10
140.94279256956503
 20
71.954793758712185
 11
155.94279256956503
 21
71.954793758712185
  0
LINE
  8
_0-4_P-6853
  6
CONTINUOUS
 62
    7
 10
140.94279256956503
 20
86.954793758712185
 11
155.94279256956503
 21
86.954793758712185
  0
LINE
  8
_0-4_P-6853
  6
CONTINUOUS
 62
    7
 10
128.44279256956492
 20
59.454793758712185
 11
168.44279256956503
 21
59.454793758712185
  0
LINE
  8
_0-4_P-6853
  6
CONTINUOUS
 62
    7
 10
128.44279256956514
 20
99.454793758712185
 11
168.44279256956503
 21
99.454793758712185
  0
LINE
  8
_0-4_P-6853
  6
CONTINUOUS
 62
    7
 10
130.44279256956492
 20
61.454793758712185
 11
166.44279256956503
 21
61.454793758712185
  0
LINE
  8
_0-4_P-6853
  6
CONTINUOUS
 62
    7
 10
130.44279256956514
 20
97.454793758712157
 11
166.44279256956503
 21
97.454793758712185
  0
LINE
  8
_0-4_P-6853
  6
CONTINUOUS
 62
    7
 10
132.44279256956497
 20
63.454793758712157
 11
164.44279256956503
 21
63.454793758712214
  0
LINE
  8
_0-4_P-6853
  6
CONTINUOUS
 62
    7
 10
132.44279256956514
 20
95.454793758712185
 11
164.44279256956497
 21
95.454793758712157
  0
LINE
  8
_0-4_P-6853
  6
CONTINUOUS
 62
    7
 10
133.44279256956492
 20
64.454793758712185
 11
163.44279256956503
 21
64.454793758712185
  0
LINE
  8
_0-4_P-6853
  6
CONTINUOUS
 62
    7
 10
133.44279256956514
 20
94.454793758712185
 11
163.44279256956503
 21
94.454793758712185
  0
LINE
  8
_0-4_P-6853
  6
CENTER2
 62
    1
 10
125.89750104705678
 20
79.454793758712185
 11
171.10030987283568
 21
79.454793758712185
  0
LINE
  8
_0-4_P-6853
  6
DASHED3
 62
    4
 10
140.9427925695648
 20
113.35328542830004
 11
140.94279256956509
 21
150.85328542830007
  0
LINE
  8
_0-4_P-6853
  6
DASHED3
 62
    4
 10
155.94279256956503
 20
113.35328542830004
 11
155.94279256956509
 21
150.85328542830007
  0
LINE
  8
_0-4_P-6853
  6
CENTER2
 62
    1
 10
148.44279256956503
 20
110.7589359094145
 11
148.44279256956509
 21
153.42984326321903
  0
ARC
  8
_0-4_P-6853
  6
CONTINUOUS
 62
    7
 10
127.04682024553222
 20
136.1681707971872
 40
7.1480365023024577
 50
298.36531631405967
 51
40.984350256083218
  0
ARC
  8
_0-4_P-6853
  6
CONTINUOUS
 62
    7
 10
169.83876489359795
 20
136.1681707971872
 40
7.1480365023024568
 50
139.0156497439167
 51
241.63468368594022
  0
LINE
  8
_0-4_P-6853
  6
CONTINUOUS
 62
    7
 10
132.44279256956509
 20
140.85328542830007
 11
148.44279256956509
 21
140.85328542830007
  0
LINE
  8
_0-4_P-6853
  6
CONTINUOUS
 62
    7
 10
132.44279256956509
 20
148.85328542830007
 11
148.44279256956509
 21
148.85328542830007
  0
LINE
  8
_0-4_P-6853
  6
CONTINUOUS
 62
    7
 10
133.44279256956509
 20
150.85328542830007
 11
148.44279256956509
 21
150.85328542830007
  0
LINE
  8
_0-4_P-6853
  6
CONTINUOUS
 62
    7
 10
133.44279256956503
 20
148.85328542830007
 11
133.44279256956509
 21
150.85328542830007
  0
LINE
  8
_0-4_P-6853
  6
CONTINUOUS
 62
    7
 10
132.44279256956509
 20
140.85623100547383
 11
132.44279256956509
 21
148.85328542830007
  0
LINE
  8
_0-4_P-6853
  6
CONTINUOUS
 62
    7
 10
163.44279256956509
 20
150.85328542830007
 11
148.44279256956509
 21
150.85328542830007
  0
LINE
  8
_0-4_P-6853
  6
CONTINUOUS
 62
    7
 10
164.44279256956509
 20
148.85328542830007
 11
148.44279256956509
 21
148.85328542830007
  0
LINE
  8
_0-4_P-6853
  6
CONTINUOUS
 62
    7
 10
164.44279256956509
 20
140.85328542830007
 11
148.44279256956509
 21
140.85328542830007
  0
LINE
  8
_0-4_P-6853
  6
CONTINUOUS
 62
    7
 10
163.44279256956514
 20
148.85328542830007
 11
163.44279256956509
 21
150.85328542830007
  0
LINE
  8
_0-4_P-6853
  6
CONTINUOUS
 62
    7
 10
164.44279256956509
 20
140.85623100547383
 11
164.44279256956509
 21
148.85328542830007
  0
LINE
  8
_0-4_P-6853
  6
CONTINUOUS
 62
    7
 10
128.44279256956509
 20
121.85328542830007
 11
148.44279256956509
 21
121.85328542830007
  0
LINE
  8
_0-4_P-6853
  6
CONTINUOUS
 62
    7
 10
130.44279256956509
 20
129.85328542830007
 11
148.44279256956509
 21
129.85328542830007
  0
LINE
  8
_0-4_P-6853
  6
CONTINUOUS
 62
    7
 10
130.44279256956509
 20
121.85328542830007
 11
130.44279256956509
 21
129.87835380361327
  0
LINE
  8
_0-4_P-6853
  6
CONTINUOUS
 62
    7
 10
128.44279256956509
 20
113.35328542830007
 11
128.44279256956509
 21
121.85328542830007
  0
LINE
  8
_0-4_P-6853
  6
CONTINUOUS
 62
    7
 10
166.44279256956509
 20
121.85328542830007
 11
166.44279256956509
 21
129.87835380361327
  0
LINE
  8
_0-4_P-6853
  6
CONTINUOUS
 62
    7
 10
166.44279256956509
 20
129.85328542830007
 11
148.44279256956509
 21
129.85328542830007
  0
LINE
  8
_0-4_P-6853
  6
CONTINUOUS
 62
    7
 10
168.44279256956509
 20
121.85328542830007
 11
148.44279256956509
 21
121.85328542830007
  0
LINE
  8
_0-4_P-6853
  6
CONTINUOUS
 62
    7
 10
168.44279256956509
 20
113.35328542830007
 11
168.44279256956509
 21
121.85328542830007
  0
LINE
  8
_0-4_P-6853
  6
CONTINUOUS
 62
    7
 10
140.94279256956503
 20
86.954793758712185
 11
140.94279256956503
 21
71.954793758712185
  0
LINE
  8
_0-4_P-6853
  6
CONTINUOUS
 62
    7
 10
128.44279256956514
 20
99.454793758712185
 11
128.44279256956492
 21
59.454793758712185
  0
LINE
  8
_0-4_P-6853
  6
CONTINUOUS
 62
    7
 10
130.44279256956514
 20
97.454793758712157
 11
130.44279256956492
 21
61.454793758712185
  0
LINE
  8
_0-4_P-6853
  6
CONTINUOUS
 62
    7
 10
132.44279256956514
 20
95.454793758712185
 11
132.44279256956497
 21
63.454793758712157
  0
LINE
  8
_0-4_P-6853
  6
CONTINUOUS
 62
    7
 10
133.44279256956514
 20
94.454793758712185
 11
133.44279256956492
 21
64.454793758712185
  0
LINE
  8
_0-4_P-6853
  6
CONTINUOUS
 62
    7
 10
155.94279256956503
 20
86.954793758712185
 11
155.94279256956503
 21
71.954793758712185
  0
LINE
  8
_0-4_P-6853
  6
CONTINUOUS
 62
    7
 10
168.44279256956503
 20
99.454793758712185
 11
168.44279256956503
 21
59.454793758712185
  0
LINE
  8
_0-4_P-6853
  6
CONTINUOUS
 62
    7
 10
166.44279256956503
 20
97.454793758712185
 11
166.44279256956503
 21
61.454793758712185
  0
LINE
  8
_0-4_P-6853
  6
CONTINUOUS
 62
    7
 10
164.44279256956497
 20
95.454793758712157
 11
164.44279256956503
 21
63.454793758712214
  0
LINE
  8
_0-4_P-6853
  6
CONTINUOUS
 62
    7
 10
163.44279256956503
 20
94.454793758712185
 11
163.44279256956503
 21
64.454793758712185
  0
LINE
  8
_0-4_P-6853
  6
CENTER2
 62
    1
 10
148.44279256956503
 20
102.16079592241363
 11
148.44279256956503
 21
56.567303895308555
  0
LINE
  8
_0-4_P-6853
  6
CONTINUOUS
 62
    7
 10
168.44279256956509
 20
113.35328542830007
 11
128.44279256956509
 21
113.35328542830007
  0
ENDSEC
  0
EOF
